  0
SECTION
  2
HEADER
  9
$ACADVER
  1
AC1027
  9
$ACADMAINTVER
 70
    20
  9
$DWGCODEPAGE
  3
ANSI_1252
  9
$REQUIREDVERSIONS
160
                 0
  9
$INSBASE
 10
0.0
 20
0.0
 30
0.0
  9
$EXTMIN
 10
859.5468756319556
 20
1758.168759748034
 30
-0.00000001
  9
$EXTMAX
 10
1247.691472925116
 20
2086.000000009995
 30
0.00000001
  9
$LIMMIN
 10
0.0
 20
0.0
  9
$LIMMAX
 10
12.0
 20
9.0
  9
$ORTHOMODE
 70
     0
  9
$REGENMODE
 70
     1
  9
$FILLMODE
 70
     1
  9
$QTEXTMODE
 70
     0
  9
$MIRRTEXT
 70
     0
  9
$LTSCALE
 40
1.0
  9
$ATTMODE
 70
     1
  9
$TEXTSIZE
 40
0.2
  9
$TRACEWID
 40
0.05
  9
$TEXTSTYLE
  7
Standard
  9
$CLAYER
  8
0
  9
$CELTYPE
  6
ByLayer
  9
$CECOLOR
 62
   256
  9
$CELTSCALE
 40
1.0
  9
$DISPSILH
 70
     0
  9
$DIMSCALE
 40
1.0
  9
$DIMASZ
 40
0.18
  9
$DIMEXO
 40
0.0625
  9
$DIMDLI
 40
0.38
  9
$DIMRND
 40
0.0
  9
$DIMDLE
 40
0.0
  9
$DIMEXE
 40
0.18
  9
$DIMTP
 40
0.0
  9
$DIMTM
 40
0.0
  9
$DIMTXT
 40
0.18
  9
$DIMCEN
 40
0.09
  9
$DIMTSZ
 40
0.0
  9
$DIMTOL
 70
     0
  9
$DIMLIM
 70
     0
  9
$DIMTIH
 70
     1
  9
$DIMTOH
 70
     1
  9
$DIMSE1
 70
     0
  9
$DIMSE2
 70
     0
  9
$DIMTAD
 70
     0
  9
$DIMZIN
 70
     0
  9
$DIMBLK
  1

  9
$DIMASO
 70
     1
  9
$DIMSHO
 70
     1
  9
$DIMPOST
  1

  9
$DIMAPOST
  1

  9
$DIMALT
 70
     0
  9
$DIMALTD
 70
     2
  9
$DIMALTF
 40
25.4
  9
$DIMLFAC
 40
1.0
  9
$DIMTOFL
 70
     0
  9
$DIMTVP
 40
0.0
  9
$DIMTIX
 70
     0
  9
$DIMSOXD
 70
     0
  9
$DIMSAH
 70
     0
  9
$DIMBLK1
  1

  9
$DIMBLK2
  1

  9
$DIMSTYLE
  2
Standard
  9
$DIMCLRD
 70
     0
  9
$DIMCLRE
 70
     0
  9
$DIMCLRT
 70
     0
  9
$DIMTFAC
 40
1.0
  9
$DIMGAP
 40
0.09
  9
$DIMJUST
 70
     0
  9
$DIMSD1
 70
     0
  9
$DIMSD2
 70
     0
  9
$DIMTOLJ
 70
     1
  9
$DIMTZIN
 70
     0
  9
$DIMALTZ
 70
     0
  9
$DIMALTTZ
 70
     0
  9
$DIMUPT
 70
     0
  9
$DIMDEC
 70
     4
  9
$DIMTDEC
 70
     4
  9
$DIMALTU
 70
     2
  9
$DIMALTTD
 70
     2
  9
$DIMTXSTY
  7
Standard
  9
$DIMAUNIT
 70
     0
  9
$DIMADEC
 70
     0
  9
$DIMALTRND
 40
0.0
  9
$DIMAZIN
 70
     0
  9
$DIMDSEP
 70
    46
  9
$DIMATFIT
 70
     3
  9
$DIMFRAC
 70
     0
  9
$DIMLDRBLK
  1

  9
$DIMLUNIT
 70
     2
  9
$DIMLWD
 70
    -2
  9
$DIMLWE
 70
    -2
  9
$DIMTMOVE
 70
     0
  9
$DIMFXL
 40
1.0
  9
$DIMFXLON
 70
     0
  9
$DIMJOGANG
 40
0.7853981633974483
  9
$DIMTFILL
 70
     0
  9
$DIMTFILLCLR
 70
     0
  9
$DIMARCSYM
 70
     0
  9
$DIMLTYPE
  6

  9
$DIMLTEX1
  6

  9
$DIMLTEX2
  6

  9
$DIMTXTDIRECTION
 70
     0
  9
$LUNITS
 70
     2
  9
$LUPREC
 70
     4
  9
$SKETCHINC
 40
0.1
  9
$FILLETRAD
 40
0.0
  9
$AUNITS
 70
     0
  9
$AUPREC
 70
     0
  9
$MENU
  1
.
  9
$ELEVATION
 40
0.0
  9
$PELEVATION
 40
0.0
  9
$THICKNESS
 40
0.0
  9
$LIMCHECK
 70
     0
  9
$CHAMFERA
 40
0.0
  9
$CHAMFERB
 40
0.0
  9
$CHAMFERC
 40
0.0
  9
$CHAMFERD
 40
0.0
  9
$SKPOLY
 70
     0
  9
$TDCREATE
 40
2457550.714262477
  9
$TDUCREATE
 40
2457550.630929144
  9
$TDUPDATE
 40
2457550.714262477
  9
$TDUUPDATE
 40
2457550.630929144
  9
$TDINDWG
 40
0.0000195602
  9
$TDUSRTIMER
 40
0.0000195602
  9
$USRTIMER
 70
     1
  9
$ANGBASE
 50
0.0
  9
$ANGDIR
 70
     0
  9
$PDMODE
 70
     0
  9
$PDSIZE
 40
0.0
  9
$PLINEWID
 40
0.0
  9
$SPLFRAME
 70
     0
  9
$SPLINETYPE
 70
     6
  9
$SPLINESEGS
 70
     8
  9
$HANDSEED
  5
33E
  9
$SURFTAB1
 70
     6
  9
$SURFTAB2
 70
     6
  9
$SURFTYPE
 70
     6
  9
$SURFU
 70
     6
  9
$SURFV
 70
     6
  9
$UCSBASE
  2

  9
$UCSNAME
  2

  9
$UCSORG
 10
0.0
 20
0.0
 30
0.0
  9
$UCSXDIR
 10
1.0
 20
0.0
 30
0.0
  9
$UCSYDIR
 10
0.0
 20
1.0
 30
0.0
  9
$UCSORTHOREF
  2

  9
$UCSORTHOVIEW
 70
     0
  9
$UCSORGTOP
 10
0.0
 20
0.0
 30
0.0
  9
$UCSORGBOTTOM
 10
0.0
 20
0.0
 30
0.0
  9
$UCSORGLEFT
 10
0.0
 20
0.0
 30
0.0
  9
$UCSORGRIGHT
 10
0.0
 20
0.0
 30
0.0
  9
$UCSORGFRONT
 10
0.0
 20
0.0
 30
0.0
  9
$UCSORGBACK
 10
0.0
 20
0.0
 30
0.0
  9
$PUCSBASE
  2

  9
$PUCSNAME
  2

  9
$PUCSORG
 10
0.0
 20
0.0
 30
0.0
  9
$PUCSXDIR
 10
1.0
 20
0.0
 30
0.0
  9
$PUCSYDIR
 10
0.0
 20
1.0
 30
0.0
  9
$PUCSORTHOREF
  2

  9
$PUCSORTHOVIEW
 70
     0
  9
$PUCSORGTOP
 10
0.0
 20
0.0
 30
0.0
  9
$PUCSORGBOTTOM
 10
0.0
 20
0.0
 30
0.0
  9
$PUCSORGLEFT
 10
0.0
 20
0.0
 30
0.0
  9
$PUCSORGRIGHT
 10
0.0
 20
0.0
 30
0.0
  9
$PUCSORGFRONT
 10
0.0
 20
0.0
 30
0.0
  9
$PUCSORGBACK
 10
0.0
 20
0.0
 30
0.0
  9
$USERI1
 70
     0
  9
$USERI2
 70
     0
  9
$USERI3
 70
     0
  9
$USERI4
 70
     0
  9
$USERI5
 70
     0
  9
$USERR1
 40
0.0
  9
$USERR2
 40
0.0
  9
$USERR3
 40
0.0
  9
$USERR4
 40
0.0
  9
$USERR5
 40
0.0
  9
$WORLDVIEW
 70
     1
  9
$SHADEDGE
 70
     3
  9
$SHADEDIF
 70
    70
  9
$TILEMODE
 70
     1
  9
$MAXACTVP
 70
    64
  9
$PINSBASE
 10
0.0
 20
0.0
 30
0.0
  9
$PLIMCHECK
 70
     0
  9
$PEXTMIN
 10
1.000000000000000E+20
 20
1.000000000000000E+20
 30
1.000000000000000E+20
  9
$PEXTMAX
 10
-1.000000000000000E+20
 20
-1.000000000000000E+20
 30
-1.000000000000000E+20
  9
$PLIMMIN
 10
0.0
 20
0.0
  9
$PLIMMAX
 10
12.0
 20
9.0
  9
$UNITMODE
 70
     0
  9
$VISRETAIN
 70
     1
  9
$PLINEGEN
 70
     0
  9
$PSLTSCALE
 70
     1
  9
$TREEDEPTH
 70
  3020
  9
$CMLSTYLE
  2
Standard
  9
$CMLJUST
 70
     0
  9
$CMLSCALE
 40
1.0
  9
$PROXYGRAPHICS
 70
     1
  9
$MEASUREMENT
 70
     1
  9
$CELWEIGHT
370
    -1
  9
$ENDCAPS
280
     0
  9
$JOINSTYLE
280
     0
  9
$LWDISPLAY
290
     0
  9
$INSUNITS
 70
     4
  9
$HYPERLINKBASE
  1

  9
$STYLESHEET
  1

  9
$XEDIT
290
     1
  9
$CEPSNTYPE
380
     0
  9
$PSTYLEMODE
290
     1
  9
$FINGERPRINTGUID
  2
{97FA5EA6-591B-4778-B0B2-7E5AC104EA7F}
  9
$VERSIONGUID
  2
{1E337CF6-19F1-45C5-99D4-E289DA289605}
  9
$EXTNAMES
290
     1
  9
$PSVPSCALE
 40
0.0
  9
$OLESTARTUP
290
     0
  9
$SORTENTS
280
   127
  9
$INDEXCTL
280
     0
  9
$HIDETEXT
280
     1
  9
$XCLIPFRAME
280
     2
  9
$HALOGAP
280
     0
  9
$OBSCOLOR
 70
   257
  9
$OBSLTYPE
280
     0
  9
$INTERSECTIONDISPLAY
280
     0
  9
$INTERSECTIONCOLOR
 70
   257
  9
$DIMASSOC
280
     2
  9
$PROJECTNAME
  1

  9
$CAMERADISPLAY
290
     0
  9
$LENSLENGTH
 40
50.0
  9
$CAMERAHEIGHT
 40
0.0
  9
$STEPSPERSEC
 40
2.0
  9
$STEPSIZE
 40
6.0
  9
$3DDWFPREC
 40
2.0
  9
$PSOLWIDTH
 40
0.25
  9
$PSOLHEIGHT
 40
4.0
  9
$LOFTANG1
 40
1.570796326794896
  9
$LOFTANG2
 40
1.570796326794896
  9
$LOFTMAG1
 40
0.0
  9
$LOFTMAG2
 40
0.0
  9
$LOFTPARAM
 70
     7
  9
$LOFTNORMALS
280
     1
  9
$LATITUDE
 40
37.795
  9
$LONGITUDE
 40
-122.394
  9
$NORTHDIRECTION
 40
0.0
  9
$TIMEZONE
 70
 -8000
  9
$LIGHTGLYPHDISPLAY
280
     1
  9
$TILEMODELIGHTSYNCH
280
     1
  9
$CMATERIAL
347
11
  9
$SOLIDHIST
280
     0
  9
$SHOWHIST
280
     1
  9
$DWFFRAME
280
     2
  9
$DGNFRAME
280
     0
  9
$REALWORLDSCALE
290
     1
  9
$INTERFERECOLOR
 62
     1
  9
$INTERFEREOBJVS
345
33
  9
$INTERFEREVPVS
346
30
  9
$CSHADOW
280
     0
  9
$SHADOWPLANELOCATION
 40
0.0
  0
ENDSEC
  0
SECTION
  2
CLASSES
  0
CLASS
  1
ACDBDICTIONARYWDFLT
  2
AcDbDictionaryWithDefault
  3
ObjectDBX Classes
 90
        0
 91
        1
280
     0
281
     0
  0
CLASS
  1
MATERIAL
  2
AcDbMaterial
  3
ObjectDBX Classes
 90
     1153
 91
        3
280
     0
281
     0
  0
CLASS
  1
VISUALSTYLE
  2
AcDbVisualStyle
  3
ObjectDBX Classes
 90
     4095
 91
       24
280
     0
281
     0
  0
CLASS
  1
SCALE
  2
AcDbScale
  3
ObjectDBX Classes
 90
     1153
 91
       17
280
     0
281
     0
  0
CLASS
  1
TABLESTYLE
  2
AcDbTableStyle
  3
ObjectDBX Classes
 90
     4095
 91
        1
280
     0
281
     0
  0
CLASS
  1
MLEADERSTYLE
  2
AcDbMLeaderStyle
  3
ACDB_MLEADERSTYLE_CLASS
 90
     4095
 91
        1
280
     0
281
     0
  0
CLASS
  1
ACDBSECTIONVIEWSTYLE
  2
AcDbSectionViewStyle
  3
ObjectDBX Classes
 90
     1025
 91
        1
280
     0
281
     0
  0
CLASS
  1
ACDBDETAILVIEWSTYLE
  2
AcDbDetailViewStyle
  3
ObjectDBX Classes
 90
     1025
 91
        1
280
     0
281
     0
  0
CLASS
  1
RASTERVARIABLES
  2
AcDbRasterVariables
  3
ISM
 90
        0
 91
        1
280
     0
281
     0
  0
CLASS
  1
DICTIONARYVAR
  2
AcDbDictionaryVar
  3
ObjectDBX Classes
 90
        0
 91
        5
280
     0
281
     0
  0
CLASS
  1
CELLSTYLEMAP
  2
AcDbCellStyleMap
  3
ObjectDBX Classes
 90
     1152
 91
        2
280
     0
281
     0
  0
CLASS
  1
SORTENTSTABLE
  2
AcDbSortentsTable
  3
ObjectDBX Classes
 90
        0
 91
        1
280
     0
281
     0
  0
ENDSEC
  0
SECTION
  2
TABLES
  0
TABLE
  2
VPORT
  5
8
330
0
100
AcDbSymbolTable
 70
     1
  0
VPORT
  5
57
330
8
100
AcDbSymbolTableRecord
100
AcDbViewportTableRecord
  2
*Active
 70
     0
 10
0.0
 20
0.0
 11
1.0
 21
1.0
 12
1053.619174278536
 22
1922.084379879015
 13
0.0
 23
0.0
 14
1.0
 24
1.0
 15
0.0
 25
0.0
 16
0.0
 26
0.0
 36
1.0
 17
0.0
 27
0.0
 37
0.0
 40
327.8312402619606
 41
1.183976844253784
 42
50.0
 43
0.0
 44
0.0
 50
0.0
 51
0.0
 71
     0
 72
  1000
 73
     1
 74
     1
 75
     0
 76
     0
 77
     0
 78
     0
281
     0
 65
     1
110
0.0
120
0.0
130
0.0
111
1.0
121
0.0
131
0.0
112
0.0
122
1.0
132
0.0
 79
     0
146
0.0
 60
     3
 61
     5
292
     1
282
     1
141
0.0
142
0.0
 63
   250
421
  3355443
  0
ENDTAB
  0
TABLE
  2
LTYPE
  5
5
330
0
100
AcDbSymbolTable
 70
     3
  0
LTYPE
  5
5B
330
5
100
AcDbSymbolTableRecord
100
AcDbLinetypeTableRecord
  2
ByBlock
 70
     0
  3

 72
    65
 73
     0
 40
0.0
  0
LTYPE
  5
5C
330
5
100
AcDbSymbolTableRecord
100
AcDbLinetypeTableRecord
  2
ByLayer
 70
     0
  3

 72
    65
 73
     0
 40
0.0
  0
LTYPE
  5
5D
330
5
100
AcDbSymbolTableRecord
100
AcDbLinetypeTableRecord
  2
Continuous
 70
     0
  3
Solid line
 72
    65
 73
     0
 40
0.0
  0
LTYPE
  5
69
330
5
100
AcDbSymbolTableRecord
100
AcDbLinetypeTableRecord
  2
PHANTOM2
 70
     0
  3
___ _ _ ___ _ _ ___ _ _ ___ _ _
 72
    65
 73
     6
 40
1.25
 49
0.625
 74
     0
 49
-0.125
 74
     0
 49
0.125
 74
     0
 49
-0.125
 74
     0
 49
0.125
 74
     0
 49
-0.125
 74
     0
  0
LTYPE
  5
86
330
5
100
AcDbSymbolTableRecord
100
AcDbLinetypeTableRecord
  2
Nascosto 1_5 mm
 70
     0
  3

 72
    65
 73
     2
 40
2.2
 49
1.5
 74
     0
 49
-0.7000000000000001
 74
     0
  0
ENDTAB
  0
TABLE
  2
LAYER
  5
2
330
0
100
AcDbSymbolTable
 70
     4
  0
LAYER
  5
54
330
2
100
AcDbSymbolTableRecord
100
AcDbLayerTableRecord
  2
0
 70
     0
 62
     7
  6
Continuous
370
    -3
390
F
347
21
348
0
  0
LAYER
  5
85
330
2
100
AcDbSymbolTableRecord
100
AcDbLayerTableRecord
  2
P-SANR-FIXT
 70
     0
 62
     6
  6
Continuous
370
    18
390
F
347
21
348
0
  0
LAYER
  5
88
330
2
100
AcDbSymbolTableRecord
100
AcDbLayerTableRecord
  2
M-PIPE
 70
     0
 62
     3
  6
Continuous
370
    18
390
F
347
21
348
0
  0
ENDTAB
  0
TABLE
  2
STYLE
  5
3
330
0
100
AcDbSymbolTable
 70
     2
  0
STYLE
  5
55
330
3
100
AcDbSymbolTableRecord
100
AcDbTextStyleTableRecord
  2
Standard
 70
     0
 40
0.0
 41
1.0
 50
0.0
 71
     0
 42
0.2
  3
txt
  4

  0
STYLE
  5
5A
330
3
100
AcDbSymbolTableRecord
100
AcDbTextStyleTableRecord
  2
Annotative
 70
     0
 40
0.0
 41
1.0
 50
0.0
 71
     0
 42
0.2
  3
txt
  4

1001
AcadAnnotative
1000
AnnotativeData
1002
{
1070
     1
1070
     1
1002
}
  0
ENDTAB
  0
TABLE
  2
VIEW
  5
6
330
0
100
AcDbSymbolTable
 70
     0
  0
ENDTAB
  0
TABLE
  2
UCS
  5
7
330
0
100
AcDbSymbolTable
 70
     0
  0
ENDTAB
  0
TABLE
  2
APPID
  5
9
330
0
100
AcDbSymbolTable
 70
     3
  0
APPID
  5
56
330
9
100
AcDbSymbolTableRecord
100
AcDbRegAppTableRecord
  2
ACAD
 70
     0
  0
APPID
  5
5E
330
9
100
AcDbSymbolTableRecord
100
AcDbRegAppTableRecord
  2
AcadAnnotative
 70
     0
  0
APPID
  5
79
330
9
100
AcDbSymbolTableRecord
100
AcDbRegAppTableRecord
  2
REVIT
 70
     0
  0
ENDTAB
  0
TABLE
  2
DIMSTYLE
  5
A
330
0
100
AcDbSymbolTable
 70
     2
100
AcDbDimStyleTable
 71
     0
  0
DIMSTYLE
105
58
330
A
100
AcDbSymbolTableRecord
100
AcDbDimStyleTableRecord
  2
Standard
 70
     0
340
55
  0
DIMSTYLE
105
59
330
A
100
AcDbSymbolTableRecord
100
AcDbDimStyleTableRecord
  2
Annotative
 70
     0
340
55
1001
AcadAnnotative
1000
AnnotativeData
1002
{
1070
     1
1070
     1
1002
}
  0
ENDTAB
  0
TABLE
  2
BLOCK_RECORD
  5
1
330
0
100
AcDbSymbolTable
 70
     4
  0
BLOCK_RECORD
  5
71
102
{ACAD_XDICTIONARY
360
339
102
}
330
1
100
AcDbSymbolTableRecord
100
AcDbBlockTableRecord
  2
*Model_Space
340
74
 70
     0
280
     1
281
     0
  0
BLOCK_RECORD
  5
6D
330
1
100
AcDbSymbolTableRecord
100
AcDbBlockTableRecord
  2
*Paper_Space
340
70
 70
     0
280
     1
281
     0
  0
BLOCK_RECORD
  5
75
330
1
100
AcDbSymbolTableRecord
100
AcDbBlockTableRecord
  2
*Paper_Space0
340
78
 70
     0
280
     1
281
     0
  0
BLOCK_RECORD
  5
87
330
1
100
AcDbSymbolTableRecord
100
AcDbBlockTableRecord
  2
Automatic flow rate regulator valve_Caleffi_121 DN15 - 1_2__-859151-Est - Idraulica
340
0
102
{BLKREFS
331
1DA
102
}
 70
     0
280
     1
281
     0
  0
BLOCK_RECORD
  5
1DB
330
1
100
AcDbSymbolTableRecord
100
AcDbBlockTableRecord
  2
Automatic flow rate regulator valve_Caleffi_121 DN15 - 1_2__-V1-Est - Idraulica
340
0
102
{BLKREFS
331
2A6
102
}
 70
     0
280
     1
281
     0
  0
BLOCK_RECORD
  5
2A7
330
1
100
AcDbSymbolTableRecord
100
AcDbBlockTableRecord
  2
Automatic flow rate regulator valve_Caleffi_121 DN15 - 1_2__-V2-Est - Idraulica
340
0
102
{BLKREFS
331
332
102
}
 70
     0
280
     1
281
     0
  0
ENDTAB
  0
ENDSEC
  0
SECTION
  2
BLOCKS
  0
BLOCK
  5
72
330
71
100
AcDbEntity
  8
0
100
AcDbBlockBegin
  2
*Model_Space
 70
     0
 10
0.0
 20
0.0
 30
0.0
  3
*Model_Space
  1

  0
ENDBLK
  5
73
330
71
100
AcDbEntity
  8
0
100
AcDbBlockEnd
  0
BLOCK
  5
6E
330
6D
100
AcDbEntity
 67
     1
  8
0
100
AcDbBlockBegin
  2
*Paper_Space
 70
     0
 10
0.0
 20
0.0
 30
0.0
  3
*Paper_Space
  1

  0
ENDBLK
  5
6F
330
6D
100
AcDbEntity
 67
     1
  8
0
100
AcDbBlockEnd
  0
BLOCK
  5
76
330
75
100
AcDbEntity
 67
     1
  8
0
100
AcDbBlockBegin
  2
*Paper_Space0
 70
     0
 10
0.0
 20
0.0
 30
0.0
  3
*Paper_Space0
  1

  0
ENDBLK
  5
77
330
75
100
AcDbEntity
 67
     1
  8
0
100
AcDbBlockEnd
  0
BLOCK
  5
1D8
330
87
100
AcDbEntity
  8
0
100
AcDbBlockBegin
  2
Automatic flow rate regulator valve_Caleffi_121 DN15 - 1_2__-859151-Est - Idraulica
 70
     0
 10
0.0
 20
0.0
 30
0.0
  3
Automatic flow rate regulator valve_Caleffi_121 DN15 - 1_2__-859151-Est - Idraulica
  1

  0
LWPOLYLINE
  5
89
330
87
100
AcDbEntity
  8
M-PIPE
100
AcDbPolyline
 90
       41
 70
   128
 43
0.0
 10
1009.546875641957
 20
1952.499999999995
 10
1009.542476228593
 20
1952.280058661968
 10
1009.529285026621
 20
1952.060469183164
 10
1009.507323139153
 20
1951.841582859906
 10
1009.476625700523
 20
1951.623749863616
 10
1009.437241820084
 20
1951.407318680622
 10
1009.389234503643
 20
1951.192635554646
 10
1009.332680552666
 20
1950.980043932892
 10
1009.26767044141
 20
1950.769883916606
 10
1009.194308172186
 20
1950.562491716982
 10
1009.112711108973
 20
1950.358199117297
 10
1009.023009789667
 20
1950.157332942131
 10
1008.925347717243
 20
1949.960214534517
 10
1008.819881130184
 20
1949.767159241854
 10
1008.706778752531
 20
1949.57847591143
 10
1008.58622152396
 20
1949.394466396322
 10
1008.458402310321
 20
1949.215425072501
 10
1008.323525595087
 20
1949.041638367893
 10
1008.181807152232
 20
1948.873384304151
 10
1008.033473701032
 20
1948.710932051887
 10
1007.878762543366
 20
1948.554541500048
 10
1007.717921184084
 20
1948.404462840155
 10
1007.551206935049
 20
1948.26093616605
 10
1007.378886503496
 20
1948.124191089794
 10
1007.201235565355
 20
1947.994446374339
 10
1007.018538324232
 20
1947.871909583551
 10
1006.831087056737
 20
1947.756776750156
 10
1006.639181644913
 20
1947.649232062128
 10
1006.443129096479
 20
1947.549447568024
 10
1006.243243053692
 20
1947.45758290175
 10
1006.039843291579
 20
1947.373785027175
 10
1005.83325520637
 20
1947.298188003022
 10
1005.623809294933
 20
1947.230912768404
 10
1005.411840626045
 20
1947.172066949344
 10
1005.19768830436
 20
1947.121744686601
 10
1004.981694927908
 20
1947.080026485058
 10
1004.764206040017
 20
1947.04697908494
 10
1004.545569576511
 20
1947.022655355037
 10
1004.326135309092
 20
1947.007094208129
 10
1004.106254285777
 20
1947.00032053873
 10
1004.046875641957
 20
1946.999999999995
1001
REVIT
1002
{
1070
     3
1000
963222
1002
}
  0
LWPOLYLINE
  5
8A
330
87
100
AcDbEntity
  8
M-PIPE
100
AcDbPolyline
 90
       41
 70
   128
 43
0.0
 10
1004.046875641957
 20
2052.999999999996
 10
1004.266816979984
 20
2052.995600586631
 10
1004.486406458788
 20
2052.982409384661
 10
1004.705292782047
 20
2052.960447497192
 10
1004.923125778336
 20
2052.929750058562
 10
1005.13955696133
 20
2052.890366178123
 10
1005.354240087307
 20
2052.842358861682
 10
1005.56683170906
 20
2052.785804910705
 10
1005.776991725346
 20
2052.72079479945
 10
1005.98438392497
 20
2052.647432530225
 10
1006.188676524655
 20
2052.565835467012
 10
1006.38954269982
 20
2052.476134147706
 10
1006.586661107436
 20
2052.378472075282
 10
1006.779716400098
 20
2052.273005488223
 10
1006.968399730522
 20
2052.15990311057
 10
1007.15240924563
 20
2052.039345882
 10
1007.33145056945
 20
2051.91152666836
 10
1007.505237274059
 20
2051.776649953126
 10
1007.673491337801
 20
2051.634931510271
 10
1007.835943590065
 20
2051.486598059071
 10
1007.992334141905
 20
2051.331886901406
 10
1008.142412801797
 20
2051.171045542123
 10
1008.285939475902
 20
2051.004331293088
 10
1008.422684552157
 20
2050.832010861535
 10
1008.552429267613
 20
2050.654359923394
 10
1008.674966058401
 20
2050.471662682271
 10
1008.790098891796
 20
2050.284211414776
 10
1008.897643579825
 20
2050.092306002952
 10
1008.997428073928
 20
2049.896253454518
 10
1009.089292740202
 20
2049.696367411731
 10
1009.173090614777
 20
2049.492967649618
 10
1009.24868763893
 20
2049.28637956441
 10
1009.315962873548
 20
2049.076933652972
 10
1009.374808692608
 20
2048.864964984084
 10
1009.425130955352
 20
2048.650812662399
 10
1009.466849156894
 20
2048.434819285947
 10
1009.499896557012
 20
2048.217330398056
 10
1009.524220286914
 20
2047.99869393455
 10
1009.539781433823
 20
2047.779259667131
 10
1009.546555103222
 20
2047.559378643816
 10
1009.546875641957
 20
2047.499999999996
1001
REVIT
1002
{
1070
     3
1000
963222
1002
}
  0
LWPOLYLINE
  5
8B
330
87
100
AcDbEntity
  8
M-PIPE
100
AcDbPolyline
 90
        4
 70
   128
 43
0.0
 10
1009.546875641957
 20
2047.499999999996
 10
1009.546875641957
 20
2047.462005066392
 10
1009.546875641957
 20
2047.348081049371
 10
1009.546875641957
 20
2047.214964240417
1001
REVIT
1002
{
1070
     3
1000
963222
1002
}
  0
LWPOLYLINE
  5
8C
330
87
100
AcDbEntity
  8
M-PIPE
100
AcDbPolyline
 90
        5
 70
   128
 43
0.0
 10
1009.546875641957
 20
1952.775547635979
 10
1009.546875641957
 20
1952.74491459042
 10
1009.546875641957
 20
1952.590070825475
 10
1009.546875641957
 20
1952.511072833631
 10
1009.546875641957
 20
1952.499999999995
1001
REVIT
1002
{
1070
     3
1000
963222
1002
}
  0
LWPOLYLINE
  5
8D
330
87
100
AcDbEntity
  8
M-PIPE
100
AcDbPolyline
 90
       41
 70
   128
 43
0.0
 10
865.0468756419572
 20
1946.999999999995
 10
864.8269343039306
 20
1947.00439941336
 10
864.6073448251266
 20
1947.017590615331
 10
864.3884585018682
 20
1947.039552502799
 10
864.1706255055787
 20
1947.07024994143
 10
863.9541943225843
 20
1947.109633821869
 10
863.739511196608
 20
1947.15764113831
 10
863.5269195748545
 20
1947.214195089286
 10
863.3167595585685
 20
1947.279205200542
 10
863.1093673589441
 20
1947.352567469767
 10
862.9050747592597
 20
1947.43416453298
 10
862.704208584094
 20
1947.523865852286
 10
862.5070901764789
 20
1947.62152792471
 10
862.3140348838166
 20
1947.726994511769
 10
862.1253515533922
 20
1947.840096889422
 10
861.9413420382842
 20
1947.960654117992
 10
861.7623007144638
 20
1948.088473331632
 10
861.5885140098557
 20
1948.223350046866
 10
861.420259946114
 20
1948.365068489721
 10
861.2578076938492
 20
1948.513401940921
 10
861.1014171420098
 20
1948.668113098586
 10
860.9513384821173
 20
1948.828954457869
 10
860.8078118080127
 20
1948.995668706903
 10
860.6710667317571
 20
1949.167989138457
 10
860.5413220163017
 20
1949.345640076597
 10
860.4187852255138
 20
1949.528337317721
 10
860.3036523921188
 20
1949.715788585216
 10
860.1961077040899
 20
1949.90769399704
 10
860.0963232099864
 20
1950.103746545474
 10
860.0044585437123
 20
1950.303632588261
 10
859.9206606691373
 20
1950.507032350374
 10
859.8450636449847
 20
1950.713620435582
 10
859.7777884103663
 20
1950.92306634702
 10
859.7189425913066
 20
1951.135035015908
 10
859.668620328563
 20
1951.349187337593
 10
859.6269021270206
 20
1951.565180714045
 10
859.5938547269028
 20
1951.782669601936
 10
859.5695309970002
 20
1952.001306065442
 10
859.5539698500916
 20
1952.220740332861
 10
859.5471961806921
 20
1952.440621356175
 10
859.5468756419572
 20
1952.499999999995
1001
REVIT
1002
{
1070
     3
1000
963222
1002
}
  0
LWPOLYLINE
  5
8E
330
87
100
AcDbEntity
  8
M-PIPE
100
AcDbPolyline
 90
       41
 70
   128
 43
0.0
 10
859.5468756419576
 20
2047.499999999996
 10
859.551275055322
 20
2047.719941338022
 10
859.5644662572929
 20
2047.939530816826
 10
859.5864281447612
 20
2048.158417140085
 10
859.6171255833915
 20
2048.376250136374
 10
859.6565094638306
 20
2048.592681319369
 10
859.7045167802713
 20
2048.807364445345
 10
859.7610707312483
 20
2049.019956067098
 10
859.826080842504
 20
2049.230116083384
 10
859.8994431117288
 20
2049.437508283009
 10
859.9810401749417
 20
2049.641800882694
 10
860.0707414942476
 20
2049.842667057859
 10
860.1684035666714
 20
2050.039785465474
 10
860.2738701537303
 20
2050.232840758136
 10
860.3869725313836
 20
2050.421524088561
 10
860.507529759954
 20
2050.605533603669
 10
860.6353489735939
 20
2050.784574927489
 10
860.7702256888273
 20
2050.958361632098
 10
860.9119441316824
 20
2051.126615695839
 10
861.0602775828825
 20
2051.289067948104
 10
861.2149887405481
 20
2051.445458499943
 10
861.3758300998302
 20
2051.595537159836
 10
861.5425443488652
 20
2051.73906383394
 10
861.7148647804183
 20
2051.875808910196
 10
861.8925157185589
 20
2052.005553625651
 10
862.0752129596827
 20
2052.12809041644
 10
862.2626642271772
 20
2052.243223249835
 10
862.4545696390017
 20
2052.350767937863
 10
862.6506221874356
 20
2052.450552431967
 10
862.8505082302229
 20
2052.542417098241
 10
863.0539079923357
 20
2052.626214972816
 10
863.2604960775443
 20
2052.701811996969
 10
863.4699419889818
 20
2052.769087231586
 10
863.6819106578693
 20
2052.827933050647
 10
863.8960629795546
 20
2052.87825531339
 10
864.1120563560061
 20
2052.919973514932
 10
864.3295452438977
 20
2052.953020915051
 10
864.5481817074037
 20
2052.977344644953
 10
864.7676159748227
 20
2052.992905791862
 10
864.987496998137
 20
2052.999679461261
 10
865.0468756419575
 20
2052.999999999996
1001
REVIT
1002
{
1070
     3
1000
963222
1002
}
  0
LWPOLYLINE
  5
8F
330
87
100
AcDbEntity
  8
M-PIPE
100
AcDbPolyline
 90
        4
 70
   128
 43
0.0
 10
859.5468756419572
 20
1952.499999999995
 10
859.5468756419572
 20
1952.537994933599
 10
859.5468756419572
 20
1952.651918950621
 10
859.5468756419572
 20
1952.785035759575
1001
REVIT
1002
{
1070
     3
1000
963222
1002
}
  0
LWPOLYLINE
  5
90
330
87
100
AcDbEntity
  8
M-PIPE
100
AcDbPolyline
 90
        5
 70
   128
 43
0.0
 10
859.5468756419576
 20
2047.224452364012
 10
859.5468756419576
 20
2047.25508540957
 10
859.5468756419576
 20
2047.409929174516
 10
859.5468756419576
 20
2047.48892716636
 10
859.5468756419576
 20
2047.499999999996
1001
REVIT
1002
{
1070
     3
1000
963222
1002
}
  0
LWPOLYLINE
  5
91
330
87
100
AcDbEntity
  8
M-PIPE
100
AcDbPolyline
 90
       80
 70
   128
 43
0.0
 10
866.0468756419573
 20
2048.141940303334
 10
866.0480754819658
 20
2048.081956302054
 10
866.0516730825033
 20
2048.02206826238
 10
866.0576626881766
 20
2047.9623719924
 10
866.0660347168938
 20
2047.902962993413
 10
866.0767757751955
 20
2047.843936307141
 10
866.0898686796793
 20
2047.785386363693
 10
866.1052924844911
 20
2047.727406830487
 10
866.1230225148337
 20
2047.67009046241
 10
866.1430304064404
 20
2047.613528953421
 10
866.165284150953
 20
2047.55781278987
 10
866.1897481471273
 20
2047.503031105735
 10
866.2163832577885
 20
2047.449271540022
 10
866.2451468724409
 20
2047.396620096568
 10
866.2759929754372
 20
2047.345161006453
 10
866.3088722195929
 20
2047.294976593241
 10
866.3437320051308
 20
2047.24614714129
 10
866.380516563831
 20
2047.198750767306
 10
866.4191670482459
 20
2047.152863295377
 10
866.4596216258459
 20
2047.108558135668
 10
866.5018155779366
 20
2047.065906166984
 10
866.5456814031955
 20
2047.024975623378
 10
866.5911489256595
 20
2046.985831984985
 10
866.638145406992
 20
2046.948537873279
 10
866.6865956628486
 20
2046.913152950882
 10
866.7364221831551
 20
2046.879733826122
 10
866.7875452561082
 20
2046.848333962469
 10
866.8398830956968
 20
2046.819003593006
 10
866.8933519725422
 20
2046.791789640069
 10
866.947866347848
 20
2046.766735640176
 10
867.0033390102423
 20
2046.743881674383
 10
867.0596812152991
 20
2046.723264304159
 10
867.1168028275094
 20
2046.7049165129
 10
867.1746124644789
 20
2046.688867653156
 10
867.2330176431202
 20
2046.675143399681
 10
867.291924927607
 20
2046.663765708351
 10
867.3512400788501
 20
2046.654752781046
 10
867.410868205261
 20
2046.648119036527
 10
867.4707139145571
 20
2046.643875087371
 10
867.5306814663699
 20
2046.642027722989
 10
867.5906749254092
 20
2046.642579898771
 10
867.6505983149384
 20
2046.645530731355
 10
867.7103557703171
 20
2046.650875500036
 10
867.7698516923646
 20
2046.658605654327
 10
867.8289909002966
 20
2046.668708827628
 10
867.8876787839971
 20
2046.681168857016
 10
867.945821455371
 20
2046.695965809105
 10
868.0033258985472
 20
2046.713076011926
 10
868.0601001186836
 20
2046.732472092806
 10
868.1160532891396
 20
2046.754123022151
 10
868.171095896778
 20
2046.777994163095
 10
868.2251398851688
 20
2046.804047326904
 10
868.278098795459
 20
2046.832240834072
 10
868.3298879046894
 20
2046.862529581004
 10
868.3804243613334
 20
2046.894865112165
 10
868.4296273178404
 20
2046.929195697604
 10
868.4774180599763
 20
2046.965466415707
 10
868.5237201327486
 20
2047.003619241062
 10
868.5684594627181
 20
2047.043593137289
 10
868.6115644765004
 20
2047.085324154679
 10
868.6529662152691
 20
2047.128745532507
 10
868.6925984450741
 20
2047.173787805832
 10
868.7303977628017
 20
2047.220378916625
 10
868.7663036976072
 20
2047.268444329048
 10
868.8002588076544
 20
2047.317907148693
 10
868.8322087720107
 20
2047.368688245601
 10
868.8621024775489
 20
2047.420706380851
 10
868.8898921007167
 20
2047.473878336521
 10
868.9155331840455
 20
2047.528119048826
 10
868.9389847072714
 20
2047.583341744196
 10
868.9602091529605
 20
2047.6394580781
 10
868.9791725665267
 20
2047.696378276373
 10
868.9958446105542
 20
2047.754011278842
 10
869.0101986133289
 20
2047.812264884996
 10
869.0222116115085
 20
2047.871045901493
 10
869.0318643868581
 20
2047.930260291244
 10
869.0391414969965
 20
2047.989813323859
 10
869.0440313001001
 20
2048.049609727189
 10
869.0465259735267
 20
2048.109553839744
 10
869.0468756419575
 20
2048.141940303334
1001
REVIT
1002
{
1070
     3
1000
963222
1002
}
  0
LWPOLYLINE
  5
92
330
87
100
AcDbEntity
  8
M-PIPE
100
AcDbPolyline
 90
       80
 70
   128
 43
0.0
 10
869.0468756419575
 20
1951.858059696658
 10
869.0456758019488
 20
1951.918043697938
 10
869.0420782014113
 20
1951.977931737611
 10
869.0360885957383
 20
1952.037628007591
 10
869.0277165670208
 20
1952.09703700658
 10
869.0169755087193
 20
1952.156063692851
 10
869.0038826042352
 20
1952.214613636299
 10
868.9884587994235
 20
1952.272593169504
 10
868.9707287690811
 20
1952.329909537582
 10
868.9507208774742
 20
1952.386471046571
 10
868.9284671329618
 20
1952.442187210121
 10
868.9040031367873
 20
1952.496968894257
 10
868.8773680261263
 20
1952.55072845997
 10
868.8486044114737
 20
1952.603379903424
 10
868.8177583084774
 20
1952.654838993539
 10
868.7848790643219
 20
1952.705023406751
 10
868.7500192787837
 20
1952.753852858702
 10
868.7132347200837
 20
1952.801249232686
 10
868.6745842356687
 20
1952.847136704615
 10
868.6341296580687
 20
1952.891441864324
 10
868.5919357059781
 20
1952.934093833007
 10
868.5480698807193
 20
1952.975024376614
 10
868.5026023582553
 20
1953.014168015007
 10
868.4556058769226
 20
1953.051462126713
 10
868.407155621066
 20
1953.08684704911
 10
868.3573291007597
 20
1953.12026617387
 10
868.3062060278066
 20
1953.151666037523
 10
868.253868188218
 20
1953.180996406986
 10
868.2003993113724
 20
1953.208210359923
 10
868.1458849360668
 20
1953.233264359816
 10
868.0904122736723
 20
1953.256118325609
 10
868.0340700686157
 20
1953.276735695832
 10
867.9769484564053
 20
1953.295083487092
 10
867.9191388194359
 20
1953.311132346836
 10
867.8607336407946
 20
1953.324856600311
 10
867.8018263563076
 20
1953.336234291641
 10
867.7425112050647
 20
1953.345247218946
 10
867.682883078654
 20
1953.351880963464
 10
867.6230373693577
 20
1953.356124912622
 10
867.5630698175448
 20
1953.357972277003
 10
867.5030763585054
 20
1953.35742010122
 10
867.4431529689762
 20
1953.354469268637
 10
867.3833955135975
 20
1953.349124499955
 10
867.3238995915504
 20
1953.341394345665
 10
867.264760383618
 20
1953.331291172364
 10
867.2060724999179
 20
1953.318831142976
 10
867.147929828544
 20
1953.304034190887
 10
867.0904253853676
 20
1953.286923988065
 10
867.033651165231
 20
1953.267527907186
 10
866.9776979947751
 20
1953.24587697784
 10
866.9226553871366
 20
1953.222005836897
 10
866.868611398746
 20
1953.195952673088
 10
866.8156524884558
 20
1953.16775916592
 10
866.7638633792252
 20
1953.137470418987
 10
866.7133269225814
 20
1953.105134887826
 10
866.6641239660743
 20
1953.070804302387
 10
866.6163332239383
 20
1953.034533584285
 10
866.570031151166
 20
1952.99638075893
 10
866.5252918211967
 20
1952.956406862703
 10
866.4821868074144
 20
1952.914675845313
 10
866.4407850686457
 20
1952.871254467485
 10
866.4011528388407
 20
1952.82621219416
 10
866.3633535211131
 20
1952.779621083367
 10
866.3274475863074
 20
1952.731555670944
 10
866.2934924762602
 20
1952.682092851299
 10
866.2615425119039
 20
1952.63131175439
 10
866.2316488063659
 20
1952.579293619141
 10
866.2038591831979
 20
1952.526121663471
 10
866.1782180998693
 20
1952.471880951166
 10
866.1547665766434
 20
1952.416658255796
 10
866.1335421309543
 20
1952.360541921892
 10
866.1145787173879
 20
1952.303621723618
 10
866.0979066733604
 20
1952.24598872115
 10
866.0835526705856
 20
1952.187735114996
 10
866.0715396724063
 20
1952.1289540985
 10
866.0618868970566
 20
1952.069739708748
 10
866.0546097869183
 20
1952.010186676133
 10
866.0497199838145
 20
1951.950390272803
 10
866.0472253103877
 20
1951.890446160247
 10
866.0468756419573
 20
1951.858059696658
1001
REVIT
1002
{
1070
     3
1000
963222
1002
}
  0
LWPOLYLINE
  5
93
330
87
100
AcDbEntity
  8
M-PIPE
100
AcDbPolyline
 90
       80
 70
   128
 43
0.0
 10
1000.046875641958
 20
2048.141940303334
 10
1000.048075481966
 20
2048.081956302054
 10
1000.051673082503
 20
2048.02206826238
 10
1000.057662688177
 20
2047.9623719924
 10
1000.066034716894
 20
2047.902962993413
 10
1000.076775775196
 20
2047.843936307141
 10
1000.08986867968
 20
2047.785386363693
 10
1000.105292484491
 20
2047.727406830487
 10
1000.123022514834
 20
2047.67009046241
 10
1000.143030406441
 20
2047.613528953421
 10
1000.165284150953
 20
2047.55781278987
 10
1000.189748147128
 20
2047.503031105735
 10
1000.216383257789
 20
2047.449271540022
 10
1000.245146872441
 20
2047.396620096568
 10
1000.275992975437
 20
2047.345161006453
 10
1000.308872219593
 20
2047.294976593241
 10
1000.343732005131
 20
2047.24614714129
 10
1000.380516563831
 20
2047.198750767306
 10
1000.419167048246
 20
2047.152863295377
 10
1000.459621625846
 20
2047.108558135668
 10
1000.501815577937
 20
2047.065906166984
 10
1000.545681403195
 20
2047.024975623378
 10
1000.59114892566
 20
2046.985831984985
 10
1000.638145406992
 20
2046.948537873279
 10
1000.686595662849
 20
2046.913152950882
 10
1000.736422183155
 20
2046.879733826122
 10
1000.787545256108
 20
2046.848333962469
 10
1000.839883095697
 20
2046.819003593006
 10
1000.893351972543
 20
2046.791789640069
 10
1000.947866347848
 20
2046.766735640176
 10
1001.003339010242
 20
2046.743881674383
 10
1001.059681215299
 20
2046.723264304159
 10
1001.116802827509
 20
2046.7049165129
 10
1001.174612464479
 20
2046.688867653156
 10
1001.23301764312
 20
2046.675143399681
 10
1001.291924927607
 20
2046.663765708351
 10
1001.35124007885
 20
2046.654752781046
 10
1001.410868205261
 20
2046.648119036527
 10
1001.470713914557
 20
2046.643875087371
 10
1001.53068146637
 20
2046.642027722989
 10
1001.590674925409
 20
2046.642579898771
 10
1001.650598314939
 20
2046.645530731355
 10
1001.710355770317
 20
2046.650875500036
 10
1001.769851692364
 20
2046.658605654327
 10
1001.828990900297
 20
2046.668708827628
 10
1001.887678783997
 20
2046.681168857016
 10
1001.945821455371
 20
2046.695965809105
 10
1002.003325898547
 20
2046.713076011926
 10
1002.060100118684
 20
2046.732472092806
 10
1002.11605328914
 20
2046.754123022151
 10
1002.171095896778
 20
2046.777994163095
 10
1002.225139885169
 20
2046.804047326904
 10
1002.278098795459
 20
2046.832240834072
 10
1002.32988790469
 20
2046.862529581004
 10
1002.380424361334
 20
2046.894865112165
 10
1002.429627317841
 20
2046.929195697604
 10
1002.477418059977
 20
2046.965466415707
 10
1002.523720132749
 20
2047.003619241062
 10
1002.568459462718
 20
2047.043593137289
 10
1002.611564476501
 20
2047.085324154679
 10
1002.652966215269
 20
2047.128745532507
 10
1002.692598445074
 20
2047.173787805832
 10
1002.730397762802
 20
2047.220378916625
 10
1002.766303697607
 20
2047.268444329048
 10
1002.800258807655
 20
2047.317907148693
 10
1002.832208772011
 20
2047.368688245601
 10
1002.862102477549
 20
2047.420706380851
 10
1002.889892100717
 20
2047.473878336521
 10
1002.915533184046
 20
2047.528119048826
 10
1002.938984707272
 20
2047.583341744196
 10
1002.960209152961
 20
2047.6394580781
 10
1002.979172566527
 20
2047.696378276373
 10
1002.995844610554
 20
2047.754011278842
 10
1003.010198613329
 20
2047.812264884996
 10
1003.022211611509
 20
2047.871045901493
 10
1003.031864386858
 20
2047.930260291244
 10
1003.039141496997
 20
2047.989813323859
 10
1003.0440313001
 20
2048.049609727189
 10
1003.046525973527
 20
2048.109553839744
 10
1003.046875641958
 20
2048.141940303334
1001
REVIT
1002
{
1070
     3
1000
963222
1002
}
  0
LWPOLYLINE
  5
94
330
87
100
AcDbEntity
  8
M-PIPE
100
AcDbPolyline
 90
       80
 70
   128
 43
0.0
 10
1003.046875641958
 20
1951.858059696658
 10
1003.045675801949
 20
1951.918043697938
 10
1003.042078201412
 20
1951.977931737611
 10
1003.036088595738
 20
1952.037628007591
 10
1003.027716567021
 20
1952.09703700658
 10
1003.016975508719
 20
1952.156063692851
 10
1003.003882604236
 20
1952.214613636299
 10
1002.988458799424
 20
1952.272593169504
 10
1002.970728769081
 20
1952.329909537582
 10
1002.950720877474
 20
1952.386471046571
 10
1002.928467132962
 20
1952.442187210121
 10
1002.904003136787
 20
1952.496968894257
 10
1002.877368026126
 20
1952.55072845997
 10
1002.848604411474
 20
1952.603379903424
 10
1002.817758308478
 20
1952.654838993539
 10
1002.784879064322
 20
1952.705023406751
 10
1002.750019278784
 20
1952.753852858702
 10
1002.713234720084
 20
1952.801249232686
 10
1002.674584235669
 20
1952.847136704615
 10
1002.634129658069
 20
1952.891441864324
 10
1002.591935705978
 20
1952.934093833007
 10
1002.548069880719
 20
1952.975024376614
 10
1002.502602358255
 20
1953.014168015007
 10
1002.455605876923
 20
1953.051462126713
 10
1002.407155621066
 20
1953.08684704911
 10
1002.35732910076
 20
1953.12026617387
 10
1002.306206027807
 20
1953.151666037523
 10
1002.253868188218
 20
1953.180996406986
 10
1002.200399311373
 20
1953.208210359923
 10
1002.145884936067
 20
1953.233264359816
 10
1002.090412273672
 20
1953.256118325609
 10
1002.034070068616
 20
1953.276735695832
 10
1001.976948456405
 20
1953.295083487092
 10
1001.919138819436
 20
1953.311132346836
 10
1001.860733640795
 20
1953.324856600311
 10
1001.801826356308
 20
1953.336234291641
 10
1001.742511205065
 20
1953.345247218946
 10
1001.682883078654
 20
1953.351880963464
 10
1001.623037369358
 20
1953.356124912622
 10
1001.563069817545
 20
1953.357972277003
 10
1001.503076358505
 20
1953.35742010122
 10
1001.443152968976
 20
1953.354469268637
 10
1001.383395513598
 20
1953.349124499955
 10
1001.32389959155
 20
1953.341394345665
 10
1001.264760383618
 20
1953.331291172364
 10
1001.206072499918
 20
1953.318831142976
 10
1001.147929828544
 20
1953.304034190887
 10
1001.090425385368
 20
1953.286923988065
 10
1001.033651165231
 20
1953.267527907186
 10
1000.977697994775
 20
1953.24587697784
 10
1000.922655387137
 20
1953.222005836897
 10
1000.868611398746
 20
1953.195952673088
 10
1000.815652488456
 20
1953.16775916592
 10
1000.763863379225
 20
1953.137470418987
 10
1000.713326922581
 20
1953.105134887826
 10
1000.664123966074
 20
1953.070804302387
 10
1000.616333223939
 20
1953.034533584285
 10
1000.570031151166
 20
1952.99638075893
 10
1000.525291821197
 20
1952.956406862703
 10
1000.482186807414
 20
1952.914675845313
 10
1000.440785068646
 20
1952.871254467485
 10
1000.401152838841
 20
1952.82621219416
 10
1000.363353521113
 20
1952.779621083367
 10
1000.327447586308
 20
1952.731555670944
 10
1000.29349247626
 20
1952.682092851299
 10
1000.261542511904
 20
1952.63131175439
 10
1000.231648806366
 20
1952.579293619141
 10
1000.203859183198
 20
1952.526121663471
 10
1000.17821809987
 20
1952.471880951166
 10
1000.154766576643
 20
1952.416658255796
 10
1000.133542130954
 20
1952.360541921892
 10
1000.114578717388
 20
1952.303621723618
 10
1000.097906673361
 20
1952.24598872115
 10
1000.083552670586
 20
1952.187735114996
 10
1000.071539672406
 20
1952.1289540985
 10
1000.061886897057
 20
1952.069739708748
 10
1000.054609786918
 20
1952.010186676133
 10
1000.049719983815
 20
1951.950390272803
 10
1000.047225310388
 20
1951.890446160247
 10
1000.046875641958
 20
1951.858059696658
1001
REVIT
1002
{
1070
     3
1000
963222
1002
}
  0
LINE
  5
95
330
87
100
AcDbEntity
  8
M-PIPE
100
AcDbLine
 10
1009.546875641956
 20
2047.499999999995
 30
0.0
 11
1009.546875641956
 21
2031.499999999995
 31
0.0
1001
REVIT
1002
{
1070
     3
1000
963222
1002
}
  0
LINE
  5
96
330
87
100
AcDbEntity
  8
M-PIPE
100
AcDbLine
 10
1009.546875641956
 20
2031.499999999995
 30
0.0
 11
1009.546875641956
 21
1999.999999999995
 31
0.0
1001
REVIT
1002
{
1070
     3
1000
963222
1002
}
  0
LINE
  5
97
330
87
100
AcDbEntity
  8
M-PIPE
100
AcDbLine
 10
1009.546875641956
 20
1999.999999999994
 30
0.0
 11
1009.546875641956
 21
1968.499999999995
 31
0.0
1001
REVIT
1002
{
1070
     3
1000
963222
1002
}
  0
LINE
  5
98
330
87
100
AcDbEntity
  8
M-PIPE
100
AcDbLine
 10
1009.546875641956
 20
1968.499999999994
 30
0.0
 11
1009.546875641956
 21
1952.499999999994
 31
0.0
1001
REVIT
1002
{
1070
     3
1000
963222
1002
}
  0
ARC
  5
99
330
87
100
AcDbEntity
  8
M-PIPE
100
AcDbCircle
 10
1004.046875641955
 20
1952.499999999994
 30
0.0
 40
5.499999999999929
100
AcDbArc
 50
269.9999999999985
 51
359.9999999999984
1001
REVIT
1002
{
1070
     3
1000
963222
1002
}
  0
ARC
  5
9A
330
87
100
AcDbEntity
  8
M-PIPE
100
AcDbCircle
 10
1004.046875641956
 20
2047.499999999995
 30
0.0
 40
5.499999999999943
100
AcDbArc
 50
0.0000000000005979
 51
90.00000000000062
1001
REVIT
1002
{
1070
     3
1000
963222
1002
}
  0
LINE
  5
9B
330
87
100
AcDbEntity
  8
M-PIPE
100
AcDbLine
 10
1004.046875641955
 20
1946.999999999995
 30
0.0
 11
1003.046875641956
 21
1946.999999999995
 31
0.0
1001
REVIT
1002
{
1070
     3
1000
963222
1002
}
  0
LINE
  5
9C
330
87
100
AcDbEntity
  8
M-PIPE
100
AcDbLine
 10
1003.046875641956
 20
2052.999999999994
 30
0.0
 11
1004.046875641956
 21
2052.999999999994
 31
0.0
1001
REVIT
1002
{
1070
     3
1000
963222
1002
}
  0
LINE
  5
9D
330
87
100
AcDbEntity
  8
M-PIPE
100
AcDbLine
 10
1000.046875641956
 20
1946.999999999995
 30
0.0
 11
934.5468756419556
 21
1946.999999999995
 31
0.0
1001
REVIT
1002
{
1070
     3
1000
963222
1002
}
  0
LINE
  5
9E
330
87
100
AcDbEntity
  8
M-PIPE
100
AcDbLine
 10
994.939180487368
 20
2052.999999999994
 30
0.0
 11
1000.046875641956
 21
2052.999999999994
 31
0.0
1001
REVIT
1002
{
1070
     3
1000
963222
1002
}
  0
LINE
  5
9F
330
87
100
AcDbEntity
  8
M-PIPE
100
AcDbLine
 10
869.0468756419559
 20
2052.999999999995
 30
0.0
 11
874.1545707965421
 21
2052.999999999995
 31
0.0
1001
REVIT
1002
{
1070
     3
1000
963222
1002
}
  0
LINE
  5
A0
330
87
100
AcDbEntity
  8
M-PIPE
100
AcDbLine
 10
934.5468756419556
 20
1946.999999999994
 30
0.0
 11
869.0468756419559
 21
1946.999999999995
 31
0.0
1001
REVIT
1002
{
1070
     3
1000
963222
1002
}
  0
LINE
  5
A1
330
87
100
AcDbEntity
  8
M-PIPE
100
AcDbLine
 10
865.0468756419559
 20
2052.999999999995
 30
0.0
 11
866.0468756419557
 21
2052.999999999995
 31
0.0
1001
REVIT
1002
{
1070
     3
1000
963222
1002
}
  0
LINE
  5
A2
330
87
100
AcDbEntity
  8
M-PIPE
100
AcDbLine
 10
866.0468756419557
 20
1946.999999999995
 30
0.0
 11
865.0468756419556
 21
1946.999999999995
 31
0.0
1001
REVIT
1002
{
1070
     3
1000
963222
1002
}
  0
ARC
  5
A3
330
87
100
AcDbEntity
  8
M-PIPE
100
AcDbCircle
 10
865.0468756419556
 20
1952.499999999995
 30
0.0
 40
5.5
100
AcDbArc
 50
180.0
 51
269.9999999999997
1001
REVIT
1002
{
1070
     3
1000
963222
1002
}
  0
ARC
  5
A4
330
87
100
AcDbEntity
  8
M-PIPE
100
AcDbCircle
 10
865.0468756419559
 20
2047.499999999995
 30
0.0
 40
5.5
100
AcDbArc
 50
90.0
 51
180.0
1001
REVIT
1002
{
1070
     3
1000
963222
1002
}
  0
LINE
  5
A5
330
87
100
AcDbEntity
  8
M-PIPE
100
AcDbLine
 10
859.5468756419556
 20
1952.499999999995
 30
0.0
 11
859.5468756419556
 21
1968.499999999995
 31
0.0
1001
REVIT
1002
{
1070
     3
1000
963222
1002
}
  0
LINE
  5
A6
330
87
100
AcDbEntity
  8
M-PIPE
100
AcDbLine
 10
859.5468756419558
 20
1968.499999999995
 30
0.0
 11
859.546875641956
 21
1999.999999999994
 31
0.0
1001
REVIT
1002
{
1070
     3
1000
963222
1002
}
  0
LINE
  5
A7
330
87
100
AcDbEntity
  8
M-PIPE
100
AcDbLine
 10
859.546875641956
 20
1999.999999999995
 30
0.0
 11
859.546875641956
 21
2031.499999999995
 31
0.0
1001
REVIT
1002
{
1070
     3
1000
963222
1002
}
  0
LINE
  5
A8
330
87
100
AcDbEntity
  8
M-PIPE
100
AcDbLine
 10
859.546875641956
 20
2031.499999999995
 30
0.0
 11
859.546875641956
 21
2047.499999999995
 31
0.0
1001
REVIT
1002
{
1070
     3
1000
963222
1002
}
  0
LINE
  5
A9
330
87
100
AcDbEntity
  8
M-PIPE
100
AcDbLine
 10
869.0468756419559
 20
2048.141940303333
 30
0.0
 11
869.0468756419559
 21
2052.999999999995
 31
0.0
1001
REVIT
1002
{
1070
     3
1000
963222
1002
}
  0
LINE
  5
AA
330
87
100
AcDbEntity
  8
M-PIPE
100
AcDbLine
 10
869.0468756419559
 20
1946.999999999995
 30
0.0
 11
869.0468756419559
 21
1951.858059696657
 31
0.0
1001
REVIT
1002
{
1070
     3
1000
963222
1002
}
  0
ARC
  5
AB
330
87
100
AcDbEntity
  8
M-PIPE
100
AcDbCircle
 10
867.5468756419558
 20
1951.858059696657
 30
0.0
 40
1.500000000000113
100
AcDbArc
 50
0.0
 51
180.0
1001
REVIT
1002
{
1070
     3
1000
963222
1002
}
  0
ARC
  5
AC
330
87
100
AcDbEntity
  8
M-PIPE
100
AcDbCircle
 10
867.5468756419558
 20
2048.141940303333
 30
0.0
 40
1.5
100
AcDbArc
 50
180.0
 51
0.0
1001
REVIT
1002
{
1070
     3
1000
963222
1002
}
  0
LINE
  5
AD
330
87
100
AcDbEntity
  8
M-PIPE
100
AcDbLine
 10
866.0468756419557
 20
1951.858059696657
 30
0.0
 11
866.0468756419557
 21
1946.999999999995
 31
0.0
1001
REVIT
1002
{
1070
     3
1000
963222
1002
}
  0
LINE
  5
AE
330
87
100
AcDbEntity
  8
M-PIPE
100
AcDbLine
 10
866.0468756419557
 20
2052.999999999995
 30
0.0
 11
866.0468756419557
 21
2048.141940303333
 31
0.0
1001
REVIT
1002
{
1070
     3
1000
963222
1002
}
  0
LINE
  5
AF
330
87
100
AcDbEntity
  8
M-PIPE
100
AcDbLine
 10
1000.046875641956
 20
1951.858059696657
 30
0.0
 11
1000.046875641956
 21
1946.999999999995
 31
0.0
1001
REVIT
1002
{
1070
     3
1000
963222
1002
}
  0
LINE
  5
B0
330
87
100
AcDbEntity
  8
M-PIPE
100
AcDbLine
 10
1000.046875641956
 20
2052.999999999995
 30
0.0
 11
1000.046875641956
 21
2048.141940303333
 31
0.0
1001
REVIT
1002
{
1070
     3
1000
963222
1002
}
  0
ARC
  5
B1
330
87
100
AcDbEntity
  8
M-PIPE
100
AcDbCircle
 10
1001.546875641956
 20
2048.141940303333
 30
0.0
 40
1.5
100
AcDbArc
 50
180.0
 51
0.0
1001
REVIT
1002
{
1070
     3
1000
963222
1002
}
  0
ARC
  5
B2
330
87
100
AcDbEntity
  8
M-PIPE
100
AcDbCircle
 10
1001.546875641956
 20
1951.858059696657
 30
0.0
 40
1.500000000000113
100
AcDbArc
 50
0.0
 51
180.0
1001
REVIT
1002
{
1070
     3
1000
963222
1002
}
  0
LINE
  5
B3
330
87
100
AcDbEntity
  8
M-PIPE
100
AcDbLine
 10
1003.046875641956
 20
2048.141940303333
 30
0.0
 11
1003.046875641956
 21
2052.999999999995
 31
0.0
1001
REVIT
1002
{
1070
     3
1000
963222
1002
}
  0
LINE
  5
B4
330
87
100
AcDbEntity
  8
M-PIPE
100
AcDbLine
 10
1003.046875641956
 20
1946.999999999995
 30
0.0
 11
1003.046875641956
 21
1951.858059696657
 31
0.0
1001
REVIT
1002
{
1070
     3
1000
963222
1002
}
  0
LINE
  5
B5
330
87
100
AcDbEntity
  8
M-PIPE
100
AcDbLine
 10
907.6795582166068
 20
2046.999999999995
 30
0.0
 11
906.5468756419559
 21
2046.999999999995
 31
0.0
1001
REVIT
1002
{
1070
     3
1000
963222
1002
}
  0
LINE
  5
B6
330
87
100
AcDbEntity
  8
M-PIPE
100
AcDbLine
 10
906.5468756419559
 20
2046.999999999995
 30
0.0
 11
906.5468756419559
 21
2031.499999999995
 31
0.0
1001
REVIT
1002
{
1070
     3
1000
963222
1002
}
  0
SPLINE
  5
B7
330
87
100
AcDbEntity
  8
M-PIPE
100
AcDbSpline
210
0.0
220
0.0
230
1.0
 70
     8
 71
     3
 72
    11
 73
     7
 74
     0
 42
0.000000001
 43
0.0000000001
 40
0.0
 40
0.0
 40
0.0
 40
0.0
 40
0.0555555555555556
 40
0.0833333333333333
 40
0.1111111111111111
 40
0.1131563803763915
 40
0.1131563803763915
 40
0.1131563803763915
 40
0.1131563803763915
 10
906.5468756419559
 20
2031.499999999995
 30
0.0
 10
906.5468756419559
 20
2031.430970591917
 30
0.0
 10
906.8092603207658
 20
2031.167794393055
 30
0.0
 10
907.6208873404397
 20
2030.490480193396
 30
0.0
 10
908.1891255308333
 20
2030.036427801912
 30
0.0
 10
908.5202039614555
 20
2029.761746461335
 30
0.0
 10
908.5430814228752
 20
2029.742723249493
 30
0.0
1001
REVIT
1002
{
1070
     3
1000
963222
1002
}
  0
SPLINE
  5
B8
330
87
100
AcDbEntity
  8
M-PIPE
100
AcDbSpline
210
0.0
220
0.0
230
1.0
 70
     8
 71
     3
 72
    11
 73
     7
 74
     0
 42
0.000000001
 43
0.0000000001
 40
0.8868401838808553
 40
0.8868401838808553
 40
0.8868401838808553
 40
0.8868401838808553
 40
0.8888888888888889
 40
0.9166666666666666
 40
0.9444444444444444
 40
1.0
 40
1.0
 40
1.0
 40
1.0
 10
960.5506830798216
 20
2029.742729350065
 30
0.0
 10
960.5736040356671
 20
2029.76179257494
 30
0.0
 10
960.9047862743127
 20
2030.036614695885
 30
0.0
 10
961.4730709749425
 20
2030.490793041164
 30
0.0
 10
962.2846159684375
 20
2031.168166602798
 30
0.0
 10
962.5468756419559
 20
2031.431172326208
 30
0.0
 10
962.5468756419559
 20
2031.499999999995
 30
0.0
1001
REVIT
1002
{
1070
     3
1000
963222
1002
}
  0
LINE
  5
B9
330
87
100
AcDbEntity
  8
M-PIPE
100
AcDbLine
 10
962.5468756419559
 20
2031.499999999995
 30
0.0
 11
962.5468756419559
 21
2046.999999999995
 31
0.0
1001
REVIT
1002
{
1070
     3
1000
963222
1002
}
  0
LINE
  5
BA
330
87
100
AcDbEntity
  8
M-PIPE
100
AcDbLine
 10
962.5468756419559
 20
2046.999999999995
 30
0.0
 11
961.4141930673051
 21
2046.999999999995
 31
0.0
1001
REVIT
1002
{
1070
     3
1000
963222
1002
}
  0
LINE
  5
BB
330
87
100
AcDbEntity
  8
M-PIPE
100
AcDbLine
 10
984.546875641956
 20
2046.999999999995
 30
0.0
 11
994.939180487368
 21
2052.999999999994
 31
0.0
1001
REVIT
1002
{
1070
     3
1000
963222
1002
}
  0
LINE
  5
BC
330
87
100
AcDbEntity
  8
M-PIPE
100
AcDbLine
 10
874.1545707965421
 20
2052.999999999995
 30
0.0
 11
884.546875641956
 21
2046.999999999995
 31
0.0
1001
REVIT
1002
{
1070
     3
1000
963222
1002
}
  0
LINE
  5
BD
330
87
100
AcDbEntity
  8
M-PIPE
100
AcDbLine
 10
884.546875641956
 20
2046.999999999995
 30
0.0
 11
906.5468756419559
 21
2046.999999999995
 31
0.0
1001
REVIT
1002
{
1070
     3
1000
963222
1002
}
  0
LINE
  5
BE
330
87
100
AcDbEntity
  8
M-PIPE
100
AcDbLine
 10
962.5468756419561
 20
2046.999999999995
 30
0.0
 11
984.546875641956
 21
2046.999999999995
 31
0.0
1001
REVIT
1002
{
1070
     3
1000
963222
1002
}
  0
LINE
  5
BF
330
87
100
AcDbEntity
  8
M-PIPE
100
AcDbLine
 10
859.5468756419556
 20
1968.499999999995
 30
0.0
 11
885.4063422756018
 21
1968.499999999995
 31
0.0
1001
REVIT
1002
{
1070
     3
1000
963222
1002
}
  0
LINE
  5
C0
330
87
100
AcDbEntity
  8
M-PIPE
100
AcDbLine
 10
896.5468756419555
 20
1968.499999999995
 30
0.0
 11
972.5468756419559
 21
1968.499999999995
 31
0.0
1001
REVIT
1002
{
1070
     3
1000
963222
1002
}
  0
LINE
  5
C1
330
87
100
AcDbEntity
  8
M-PIPE
100
AcDbLine
 10
983.6874090083099
 20
1968.499999999995
 30
0.0
 11
1009.546875641956
 21
1968.499999999995
 31
0.0
1001
REVIT
1002
{
1070
     3
1000
963222
1002
}
  0
LINE
  5
C2
330
87
100
AcDbEntity
  8
M-PIPE
100
AcDbLine
 10
1009.546875641956
 20
2031.499999999995
 30
0.0
 11
983.6874090083098
 21
2031.499999999995
 31
0.0
1001
REVIT
1002
{
1070
     3
1000
963222
1002
}
  0
LINE
  5
C3
330
87
100
AcDbEntity
  8
M-PIPE
100
AcDbLine
 10
972.5468756419557
 20
2031.499999999995
 30
0.0
 11
962.5468756419559
 21
2031.499999999995
 31
0.0
1001
REVIT
1002
{
1070
     3
1000
963222
1002
}
  0
LINE
  5
C4
330
87
100
AcDbEntity
  8
M-PIPE
100
AcDbLine
 10
906.5468756419559
 20
2031.499999999995
 30
0.0
 11
896.5468756419557
 21
2031.499999999995
 31
0.0
1001
REVIT
1002
{
1070
     3
1000
963222
1002
}
  0
LINE
  5
C5
330
87
100
AcDbEntity
  8
M-PIPE
100
AcDbLine
 10
885.4063422756022
 20
2031.499999999995
 30
0.0
 11
859.546875641956
 21
2031.499999999995
 31
0.0
1001
REVIT
1002
{
1070
     3
1000
963222
1002
}
  0
LWPOLYLINE
  5
C6
330
87
100
AcDbEntity
  8
P-SANR-FIXT
100
AcDbPolyline
 90
       64
 70
   128
 43
0.0
 10
949.7406169521154
 20
2085.999999999996
 10
949.5279170687009
 20
2085.999999999996
 10
949.2912507147883
 20
2085.999999999996
 10
949.0309965060582
 20
2085.999999999996
 10
948.7475707937262
 20
2085.999999999996
 10
948.4414269984718
 20
2085.999999999996
 10
948.1130548850599
 20
2085.999999999996
 10
947.7629797788228
 20
2085.999999999996
 10
947.3917617252521
 20
2085.999999999996
 10
946.9999945940442
 20
2085.999999999996
 10
946.5883051290363
 20
2085.999999999996
 10
946.1573519455509
 20
2085.999999999996
 10
945.7078244767489
 20
2085.999999999996
 10
945.2404418706867
 20
2085.999999999996
 10
944.7559518398314
 20
2085.999999999996
 10
944.2551294648792
 20
2085.999999999996
 10
943.7387759547943
 20
2085.999999999996
 10
943.2077173650426
 20
2085.999999999996
 10
942.6628032760818
 20
2085.999999999996
 10
942.1049054342121
 20
2085.999999999996
 10
941.5349163569688
 20
2085.999999999996
 10
940.9537479052834
 20
2085.999999999996
 10
940.3623298247035
 20
2085.999999999996
 10
939.7616082579952
 20
2085.999999999996
 10
939.1525442315183
 20
2085.999999999996
 10
938.5361121177883
 20
2085.999999999996
 10
937.9132980766886
 20
2085.999999999996
 10
937.2850984778253
 20
2085.999999999996
 10
936.6525183065476
 20
2085.999999999996
 10
936.0165695561864
 20
2085.999999999996
 10
935.3782696090803
 20
2085.999999999996
 10
934.7386396089815
 20
2085.999999999996
 10
934.0987028274428
 20
2085.999999999996
 10
933.4594830268024
 20
2085.999999999996
 10
932.8220028223814
 20
2085.999999999996
 10
932.1872820465184
 20
2085.999999999996
 10
931.556336117055
 20
2085.999999999996
 10
930.9301744128838
 20
2085.999999999996
 10
930.3097986591573
 20
2085.999999999996
 10
929.6962013247417
 20
2085.999999999996
 10
929.0903640344785
 20
2085.999999999996
 10
928.4932559987932
 20
2085.999999999996
 10
927.9058324631673
 20
2085.999999999996
 10
927.329033179947
 20
2085.999999999996
 10
926.7637809049416
 20
2085.999999999996
 10
926.2109799212105
 20
2085.999999999996
 10
925.6715145924031
 20
2085.999999999996
 10
925.1462479479654
 20
2085.999999999996
 10
924.636020302478
 20
2085.999999999996
 10
924.1416479113306
 20
2085.999999999996
 10
923.6639216648889
 20
2085.999999999996
 10
923.2036058232374
 20
2085.999999999996
 10
922.761436793527
 20
2085.999999999996
 10
922.3381219518815
 20
2085.999999999996
 10
921.9343385117451
 20
2085.999999999996
 10
921.5507324404855
 20
2085.999999999996
 10
921.1879174259859
 20
2085.999999999996
 10
920.8464738948727
 20
2085.999999999996
 10
920.5269480839584
 20
2085.999999999996
 10
920.2298511663784
 20
2085.999999999996
 10
919.9556584338237
 20
2085.999999999996
 10
919.704808536175
 20
2085.999999999996
 10
919.4777027797568
 20
2085.999999999996
 10
919.3531343317996
 20
2085.999999999996
  0
ARC
  5
C7
330
87
100
AcDbEntity
  8
P-SANR-FIXT
100
AcDbCircle
 10
915.1035339194754
 20
2082.499999999995
 30
0.0
 40
3.5
100
AcDbArc
 50
90.0
 51
169.8393830430375
  0
ARC
  5
C8
330
87
100
AcDbEntity
  8
P-SANR-FIXT
100
AcDbCircle
 10
1108.521843498355
 20
2047.835789066398
 30
0.0
 40
200.0000000000001
100
AcDbArc
 50
169.8393830430387
 51
179.093482519637
  0
LINE
  5
C9
330
87
100
AcDbEntity
  8
P-SANR-FIXT
100
AcDbLine
 10
908.5468756419558
 20
2050.999999999995
 30
0.0
 11
911.3323914779689
 21
2050.999999999995
 31
0.0
  0
LINE
  5
CA
330
87
100
AcDbEntity
  8
P-SANR-FIXT
100
AcDbLine
 10
919.353134331798
 20
2085.999999999995
 30
0.0
 11
915.1035339194754
 21
2085.999999999995
 31
0.0
  0
ARC
  5
CB
330
87
100
AcDbEntity
  8
P-SANR-FIXT
100
AcDbCircle
 10
760.5719077855572
 20
2047.835789066398
 30
0.0
 40
200.0000000000001
100
AcDbArc
 50
0.9065174803621761
 51
10.1606169569605
  0
ARC
  5
CC
330
87
100
AcDbEntity
  8
P-SANR-FIXT
100
AcDbCircle
 10
953.9902173644364
 20
2082.499999999995
 30
0.0
 40
3.500000000000019
100
AcDbArc
 50
10.16061695696301
 51
89.99999999999813
  0
LINE
  5
CD
330
87
100
AcDbEntity
  8
P-SANR-FIXT
100
AcDbLine
 10
953.9902173644364
 20
2085.999999999995
 30
0.0
 11
949.740616952114
 21
2085.999999999995
 31
0.0
  0
LINE
  5
CE
330
87
100
AcDbEntity
  8
P-SANR-FIXT
100
AcDbLine
 10
957.7613598059429
 20
2050.999999999995
 30
0.0
 11
960.5468756419559
 21
2050.999999999995
 31
0.0
  0
SPLINE
  5
CF
330
87
100
AcDbEntity
  8
P-SANR-FIXT
100
AcDbSpline
210
0.0
220
0.0
230
1.0
 70
     8
 71
     3
 72
    11
 73
     7
 74
     0
 42
0.000000001
 43
0.0000000001
 40
0.0
 40
0.0
 40
0.0
 40
0.0
 40
0.2857142857142857
 40
0.4285714285714286
 40
0.5714285714285714
 40
1.0
 40
1.0
 40
1.0
 40
1.0
 10
915.7027843929729
 20
2082.499999999995
 30
0.0
 10
915.7047772233608
 20
2083.044754193212
 30
0.0
 10
915.8974674826991
 20
2083.834623718523
 30
0.0
 10
916.4963744146509
 20
2084.733080331817
 30
0.0
 10
917.479991673753
 20
2085.655323718545
 30
0.0
 10
918.5382248141161
 20
2085.99934067439
 30
0.0
 10
919.353134331798
 20
2085.999999999995
 30
0.0
  0
SPLINE
  5
D0
330
87
100
AcDbEntity
  8
P-SANR-FIXT
100
AcDbSpline
210
0.0
220
0.0
230
1.0
 70
     8
 71
     3
 72
    12
 73
     8
 74
     0
 42
0.000000001
 43
0.0000000001
 40
0.0
 40
0.0
 40
0.0
 40
0.0
 40
0.2857142857142857
 40
0.4285714285714286
 40
0.5714285714285714
 40
0.7857142857142857
 40
1.0
 40
1.0
 40
1.0
 40
1.0
 10
949.740616952114
 20
2085.999999999995
 30
0.0
 10
950.2838899639018
 20
2085.999560449591
 30
0.0
 10
951.0776564505968
 20
2085.831564453451
 30
0.0
 10
952.0084673520106
 20
2085.285575206519
 30
0.0
 10
952.6953900650468
 20
2084.64151494962
 30
0.0
 10
953.2466472036889
 20
2083.700186445385
 30
0.0
 10
953.389472268148
 20
2082.908565644908
 30
0.0
 10
953.3909668909389
 20
2082.499999999995
 30
0.0
  0
LINE
  5
D1
330
87
100
AcDbEntity
  8
P-SANR-FIXT
100
AcDbLine
 10
915.7027843929729
 20
2060.336390687114
 30
0.0
 11
915.7027843929729
 21
2082.499999999995
 31
0.0
  0
LINE
  5
D2
330
87
100
AcDbEntity
  8
P-SANR-FIXT
100
AcDbLine
 10
953.3909668909389
 20
2082.499999999995
 30
0.0
 11
953.3909668909389
 21
2060.336390687114
 31
0.0
  0
SPLINE
  5
D3
330
87
100
AcDbEntity
  8
P-SANR-FIXT
100
AcDbSpline
210
0.0
220
0.0
230
1.0
 70
     8
 71
     3
 72
     9
 73
     5
 74
     0
 42
0.000000001
 43
0.0000000001
 40
0.0
 40
0.0
 40
0.0
 40
0.0
 40
0.5
 40
1.0
 40
1.0
 40
1.0
 40
1.0
 10
914.7949046127187
 20
2058.215070343555
 30
0.0
 10
915.0820519838191
 20
2058.493804832627
 30
0.0
 10
915.5369268713602
 20
2059.151961923508
 30
0.0
 10
915.7016857119055
 20
2059.9353871743
 30
0.0
 10
915.7027843929729
 20
2060.336390687114
 30
0.0
  0
SPLINE
  5
D4
330
87
100
AcDbEntity
  8
P-SANR-FIXT
100
AcDbSpline
210
0.0
220
0.0
230
1.0
 70
     8
 71
     3
 72
     9
 73
     5
 74
     0
 42
0.000000001
 43
0.0000000001
 40
0.0
 40
0.0
 40
0.0
 40
0.0
 40
0.5
 40
1.0
 40
1.0
 40
1.0
 40
1.0
 10
953.3909668909389
 20
2060.336390687114
 30
0.0
 10
953.3920655720063
 20
2059.9353871743
 30
0.0
 10
953.5568244125515
 20
2059.151961923508
 30
0.0
 10
954.0116993000927
 20
2058.493804832627
 30
0.0
 10
954.298846671193
 20
2058.215070343555
 30
0.0
  0
ARC
  5
D5
330
87
100
AcDbEntity
  8
P-SANR-FIXT
100
AcDbCircle
 10
1671.916573232706
 20
1277.23245445541
 30
0.0
 40
1087.734833226096
100
AcDbArc
 50
134.1112293672245
 51
134.2995430392625
  0
ARC
  5
D6
330
87
100
AcDbEntity
  8
P-SANR-FIXT
100
AcDbCircle
 10
197.1771780544388
 20
1277.232454458734
 30
0.0
 40
1087.73483322146
100
AcDbArc
 50
45.70045696073722
 51
45.88877063277593
  0
SPLINE
  5
D7
330
87
100
AcDbEntity
  8
P-SANR-FIXT
100
AcDbSpline
210
0.0
220
0.0
230
1.0
 70
     8
 71
     3
 72
     9
 73
     5
 74
     0
 42
0.000000001
 43
0.0000000001
 40
0.0
 40
0.0
 40
0.0
 40
0.0
 40
0.5
 40
1.0
 40
1.0
 40
1.0
 40
1.0
 10
911.3323914779689
 20
2053.601109312876
 30
0.0
 10
911.3333247676031
 20
2054.000898281975
 30
0.0
 10
911.4951572858368
 20
2054.783018667434
 30
0.0
 10
911.9461864563177
 20
2055.442727013844
 30
0.0
 10
912.2321480106867
 20
2055.722429656436
 30
0.0
  0
SPLINE
  5
D8
330
87
100
AcDbEntity
  8
P-SANR-FIXT
100
AcDbSpline
210
0.0
220
0.0
230
1.0
 70
     8
 71
     3
 72
     9
 73
     5
 74
     0
 42
0.000000001
 43
0.0000000001
 40
0.0
 40
0.0
 40
0.0
 40
0.0
 40
0.5
 40
1.0
 40
1.0
 40
1.0
 40
1.0
 10
956.8616032732251
 20
2055.722429656436
 30
0.0
 10
957.147564827594
 20
2055.442727013844
 30
0.0
 10
957.598593998075
 20
2054.783018667434
 30
0.0
 10
957.7604265163087
 20
2054.000898281975
 30
0.0
 10
957.7613598059429
 20
2053.601109312876
 30
0.0
  0
LINE
  5
D9
330
87
100
AcDbEntity
  8
P-SANR-FIXT
100
AcDbLine
 10
911.3323914779689
 20
2050.999999999995
 30
0.0
 11
911.3323914779689
 21
2053.601109312876
 31
0.0
  0
LINE
  5
DA
330
87
100
AcDbEntity
  8
P-SANR-FIXT
100
AcDbLine
 10
957.7613598059429
 20
2053.601109312876
 30
0.0
 11
957.7613598059429
 21
2050.999999999995
 31
0.0
  0
LINE
  5
DB
330
87
100
AcDbEntity
  8
P-SANR-FIXT
100
AcDbLine
 10
911.3323914779689
 20
2050.999999999995
 30
0.0
 11
957.7613598059429
 21
2050.999999999995
 31
0.0
  0
LINE
  5
DC
330
87
100
AcDbEntity
  8
P-SANR-FIXT
100
AcDbLine
 10
884.5468756419574
 20
1969.999999999996
 30
0.0
 11
886.134588882229
 21
1967.249999999996
 31
0.0
  0
LINE
  5
DD
330
87
100
AcDbEntity
  8
P-SANR-FIXT
100
AcDbLine
 10
886.134588882229
 20
2032.749999999996
 30
0.0
 11
884.5468756419574
 21
2029.999999999996
 31
0.0
  0
LINE
  5
DE
330
87
100
AcDbEntity
  8
P-SANR-FIXT
100
AcDbLine
 10
886.134588882229
 20
1967.249999999996
 30
0.0
 11
895.2968756419574
 21
1967.249999999996
 31
0.0
  0
LINE
  5
DF
330
87
100
AcDbEntity
  8
P-SANR-FIXT
100
AcDbLine
 10
895.2968756419574
 20
2032.749999999996
 30
0.0
 11
886.134588882229
 21
2032.749999999996
 31
0.0
  0
LWPOLYLINE
  5
E0
330
87
100
AcDbEntity
  8
P-SANR-FIXT
100
AcDbPolyline
 90
       21
 70
   128
 43
0.0
 10
901.4610892043306
 20
2026.585786437623
 10
901.518773883096
 20
2026.530364198874
 10
901.578628718698
 20
2026.477293063902
 10
901.6405579561673
 20
2026.426657935201
 10
901.7044625219357
 20
2026.378539818175
 10
901.7702401823299
 20
2026.333015691546
 10
901.8377857071246
 20
2026.290158384207
 10
901.9069910378899
 20
2026.250036458707
 10
901.977745460859
 20
2026.212714101566
 10
902.0499357840485
 20
2026.178251020596
 10
902.1234465183418
 20
2026.146702349374
 10
902.1981600622448
 20
2026.118118559045
 10
902.2739568900252
 20
2026.092545377573
 10
902.3507157429284
 20
2026.070023716596
 10
902.4283138231636
 20
2026.050589605965
 10
902.5066269903557
 20
2026.034274136114
 10
902.5855299601438
 20
2026.021103408312
 10
902.6648965046073
 20
2026.011098492915
 10
902.7445996542057
 20
2026.004275395652
 10
902.8245119009024
 20
2026.000645032024
 10
902.8753027667034
 20
2025.999999999996
  0
LWPOLYLINE
  5
E1
330
87
100
AcDbEntity
  8
P-SANR-FIXT
100
AcDbPolyline
 90
       21
 70
   128
 43
0.0
 10
902.8753027667034
 20
1973.999999999996
 10
902.7953240983304
 20
1973.998400213318
 10
902.7154733787652
 20
1973.993603412601
 10
902.6358783521256
 20
1973.985617271704
 10
902.5566663534752
 20
1973.974454566747
 10
902.4779641051136
 20
1973.960133155678
 10
902.3998975138493
 20
1973.9426759497
 10
902.3225914695753
 20
1973.922110876618
 10
902.2461696454714
 20
1973.898470836161
 10
902.1707543001534
 20
1973.871793647352
 10
902.0964660820864
 20
1973.842121988002
 10
902.0234238365715
 20
1973.809503326436
 10
901.9517444156205
 20
1973.773989845554
 10
901.8815424910162
 20
1973.735638359351
 10
901.8129303708617
 20
1973.694510222023
 10
901.7460178199135
 20
1973.650671229815
 10
901.6809118839788
 20
1973.604191515764
 10
901.6177167186667
 20
1973.555145437497
 10
901.5565334227606
 20
1973.503611458278
 10
901.4974598764824
 20
1973.449672021478
 10
901.4610892043306
 20
1973.414213562369
  0
LINE
  5
E2
330
87
100
AcDbEntity
  8
P-SANR-FIXT
100
AcDbLine
 10
901.4610892043306
 20
2026.585786437623
 30
0.0
 11
895.2968756419574
 21
2032.749999999996
 31
0.0
  0
LINE
  5
E3
330
87
100
AcDbEntity
  8
P-SANR-FIXT
100
AcDbLine
 10
895.2968756419574
 20
1967.249999999996
 30
0.0
 11
901.4610892043306
 21
1973.414213562369
 31
0.0
  0
LINE
  5
E4
330
87
100
AcDbEntity
  8
P-SANR-FIXT
100
AcDbLine
 10
902.8753027667034
 20
1973.999999999996
 30
0.0
 11
910.7294270636899
 21
1973.999999999996
 31
0.0
  0
LINE
  5
E5
330
87
100
AcDbEntity
  8
P-SANR-FIXT
100
AcDbLine
 10
908.5468756419574
 20
2025.999999999996
 30
0.0
 11
902.8753027667034
 21
2025.999999999996
 31
0.0
  0
LINE
  5
E6
330
87
100
AcDbEntity
  8
P-SANR-FIXT
100
AcDbLine
 10
910.7294270636899
 20
1973.999999999996
 30
0.0
 11
911.3468756419576
 21
1974.499999999996
 31
0.0
  0
LINE
  5
E7
330
87
100
AcDbEntity
  8
P-SANR-FIXT
100
AcDbLine
 10
911.3468756419576
 20
1974.499999999996
 30
0.0
 11
934.5468756419572
 21
1974.499999999996
 31
0.0
  0
LWPOLYLINE
  5
E8
330
87
100
AcDbEntity
  8
P-SANR-FIXT
100
AcDbPolyline
 90
       18
 70
   128
 43
0.0
 10
952.649859099773
 20
1980.543194139946
 10
951.6719140872973
 20
1979.838539745459
 10
950.6665726664556
 20
1979.173556369247
 10
949.6354431690598
 20
1978.549307842859
 10
948.5801751823437
 20
1977.966792830769
 10
947.5024569099735
 20
1977.426943232735
 10
946.4040124712848
 20
1976.930622692952
 10
945.2865991430565
 20
1976.478625218406
 10
944.1520045482455
 20
1976.071673908637
 10
943.002043796169
 20
1975.710419798928
 10
941.838556578719
 20
1975.395440818791
 10
940.6634042272457
 20
1975.127240867403
 10
939.4784667348261
 20
1974.906249007472
 10
938.2856397486742
 20
1974.732818778834
 10
937.0868315375121
 20
1974.607227632856
 10
935.8839599387458
 20
1974.52967648858
 10
934.6789492903335
 20
1974.500289411295
 10
934.5468756419572
 20
1974.499999999996
  0
LWPOLYLINE
  5
E9
330
87
100
AcDbEntity
  8
P-SANR-FIXT
100
AcDbPolyline
 90
       48
 70
   128
 43
0.0
 10
956.3867042857044
 20
1979.433466114355
 10
956.3517014805523
 20
1979.523962009941
 10
956.3131078032998
 20
1979.612985779591
 10
956.2709849955975
 20
1979.700395004264
 10
956.2254004449524
 20
1979.786049847845
 10
956.1764270769209
 20
1979.869813280858
 10
956.1241432384447
 20
1979.951551299679
 10
956.0686325725123
 20
1980.031133140913
 10
956.0099838843477
 20
1980.108431490592
 10
955.9482909993405
 20
1980.183322687845
 10
955.8836526129468
 20
1980.255686922734
 10
955.8161721327955
 20
1980.325408427917
 10
955.74595751326
 20
1980.392375663862
 10
955.6731210827532
 20
1980.456481497274
 10
955.5977793640265
 20
1980.517623372497
 10
955.5200528877575
 20
1980.575703475573
 10
955.4400659997277
 20
1980.630628890727
 10
955.3579466618952
 20
1980.682311749012
 10
955.273826247682
 20
1980.730669368878
 10
955.1878393318066
 20
1980.77562438845
 10
955.1001234749914
 20
1980.817104889288
 10
955.0108190038955
 20
1980.855044511437
 10
954.9200687866225
 20
1980.889382559596
 10
954.8280180041601
 20
1980.920064100213
 10
954.7348139181249
 20
1980.947040049368
 10
954.6406056351711
 20
1980.970267251297
 10
954.5455438684555
 20
1980.989708547431
 10
954.4497806965255
 20
1981.005332835845
 10
954.3534693200282
 20
1981.01711512101
 10
954.2567638166204
 20
1981.025036553782
 10
954.1598188944783
 20
1981.02908446156
 10
954.0627896447968
 20
1981.029252368554
 10
953.9658312936769
 20
1981.025540006149
 10
953.869098953797
 20
1981.017953313332
 10
953.7727473762659
 20
1981.006504427195
 10
953.6769307030537
 20
1980.991211663512
 10
953.5818022203978
 20
1980.972099487443
 10
953.4875141135772
 20
1980.949198474393
 10
953.3942172234494
 20
1980.922545261097
 10
953.302060805136
 20
1980.892182487011
 10
953.2111922892477
 20
1980.858158726096
 10
953.1217570460254
 20
1980.820528409113
 10
953.0338981527799
 20
1980.77935173654
 10
952.9477561649983
 20
1980.73469458227
 10
952.8634688914845
 20
1980.686628388222
 10
952.7811711738964
 20
1980.635230050056
 10
952.700994671026
 20
1980.580581794146
 10
952.6498590997732
 20
1980.543194139946
  0
LINE
  5
EA
330
87
100
AcDbEntity
  8
P-SANR-FIXT
100
AcDbLine
 10
956.3867042857044
 20
1979.433466114355
 30
0.0
 11
957.8853540550728
 21
1975.315959713344
 31
0.0
  0
LWPOLYLINE
  5
EB
330
87
100
AcDbEntity
  8
P-SANR-FIXT
100
AcDbPolyline
 90
       32
 70
   128
 43
0.0
 10
959.7647392966445
 20
1973.999999999996
 10
959.6847606282715
 20
1974.001599786674
 10
959.6049099087062
 20
1974.00639658739
 10
959.5253148820667
 20
1974.014382728288
 10
959.4461028834158
 20
1974.025545433244
 10
959.3674006350545
 20
1974.039866844313
 10
959.2893340437903
 20
1974.057324050292
 10
959.2120279995162
 20
1974.077889123374
 10
959.1356061754124
 20
1974.101529163831
 10
959.0601908300943
 20
1974.12820635264
 10
958.9859026120272
 20
1974.15787801199
 10
958.9128603665125
 20
1974.190496673556
 10
958.8411809455616
 20
1974.226010154437
 10
958.770979020957
 20
1974.26436164064
 10
958.7023669008027
 20
1974.305489777969
 10
958.6354543498545
 20
1974.349328770176
 10
958.5703484139198
 20
1974.395808484227
 10
958.5071532486077
 20
1974.444854562494
 10
958.4459699527016
 20
1974.496388541714
 10
958.3868964064235
 20
1974.550327978514
 10
958.3300271148456
 20
1974.606586581301
 10
958.2754530567028
 20
1974.665074348313
 10
958.2232615388466
 20
1974.725697711599
 10
958.1735360565717
 20
1974.788359686709
 10
958.1263561600426
 20
1974.852960027851
 10
958.0817973270287
 20
1974.919395388259
 10
958.0399308421579
 20
1974.98755948553
 10
958.0008236828748
 20
1975.057343271648
 10
957.9645384122915
 20
1975.128635107443
 10
957.9311330791011
 20
1975.201320941183
 10
957.90066112471
 20
1975.275284491042
 10
957.8853540550728
 20
1975.315959713344
  0
LINE
  5
EC
330
87
100
AcDbEntity
  8
P-SANR-FIXT
100
AcDbLine
 10
959.7647392966445
 20
1973.999999999995
 30
0.0
 11
966.2184485172115
 21
1973.999999999995
 31
0.0
  0
LINE
  5
ED
330
87
100
AcDbEntity
  8
P-SANR-FIXT
100
AcDbLine
 10
966.2184485172113
 20
2025.999999999996
 30
0.0
 11
960.5468756419575
 21
2025.999999999996
 31
0.0
  0
LWPOLYLINE
  5
EE
330
87
100
AcDbEntity
  8
P-SANR-FIXT
100
AcDbPolyline
 90
       21
 70
   128
 43
0.0
 10
966.2184485172113
 20
2025.999999999996
 10
966.2984271855846
 20
2026.001599786674
 10
966.3782779051498
 20
2026.006396587391
 10
966.4578729317893
 20
2026.014382728288
 10
966.53708493044
 20
2026.025545433244
 10
966.6157871788014
 20
2026.039866844314
 10
966.6938537700657
 20
2026.057324050292
 10
966.7711598143396
 20
2026.077889123374
 10
966.8475816384436
 20
2026.101529163831
 10
966.9229969837616
 20
2026.12820635264
 10
966.9972852018288
 20
2026.15787801199
 10
967.0703274473435
 20
2026.190496673556
 10
967.1420068682945
 20
2026.226010154437
 10
967.2122087928991
 20
2026.264361640641
 10
967.2808209130533
 20
2026.305489777969
 10
967.3477334640015
 20
2026.349328770177
 10
967.4128393999362
 20
2026.395808484227
 10
967.4760345652483
 20
2026.444854562494
 10
967.5372178611544
 20
2026.496388541714
 10
967.5962914074325
 20
2026.550327978514
 10
967.6326620795846
 20
2026.585786437623
  0
LWPOLYLINE
  5
EF
330
87
100
AcDbEntity
  8
P-SANR-FIXT
100
AcDbPolyline
 90
       21
 70
   128
 43
0.0
 10
967.6326620795846
 20
1973.414213562369
 10
967.574977400819
 20
1973.469635801117
 10
967.515122565217
 20
1973.52270693609
 10
967.4531933277474
 20
1973.573342064791
 10
967.3892887619793
 20
1973.621460181817
 10
967.323511101585
 20
1973.666984308446
 10
967.2559655767901
 20
1973.709841615785
 10
967.1867602460251
 20
1973.749963541285
 10
967.116005823056
 20
1973.787285898425
 10
967.0438154998665
 20
1973.821748979396
 10
966.9703047655733
 20
1973.853297650617
 10
966.8955912216706
 20
1973.881881440948
 10
966.8197943938897
 20
1973.907454622418
 10
966.7430355409866
 20
1973.929976283396
 10
966.6654374607515
 20
1973.949410394026
 10
966.587124293559
 20
1973.965725863878
 10
966.5082213237713
 20
1973.97889659168
 10
966.4288547793079
 20
1973.988901507077
 10
966.3491516297094
 20
1973.99572460434
 10
966.2692393830125
 20
1973.999354967967
 10
966.2184485172113
 20
1973.999999999996
  0
LINE
  5
F0
330
87
100
AcDbEntity
  8
P-SANR-FIXT
100
AcDbLine
 10
967.6326620795846
 20
1973.414213562369
 30
0.0
 11
973.7968756419578
 21
1967.249999999996
 31
0.0
  0
LINE
  5
F1
330
87
100
AcDbEntity
  8
P-SANR-FIXT
100
AcDbLine
 10
973.7968756419581
 20
2032.749999999996
 30
0.0
 11
967.6326620795846
 21
2026.585786437623
 31
0.0
  0
LINE
  5
F2
330
87
100
AcDbEntity
  8
P-SANR-FIXT
100
AcDbLine
 10
973.7968756419581
 20
1967.249999999996
 30
0.0
 11
982.9591624016861
 21
1967.249999999996
 31
0.0
  0
LINE
  5
F3
330
87
100
AcDbEntity
  8
P-SANR-FIXT
100
AcDbLine
 10
982.959162401686
 20
2032.749999999996
 30
0.0
 11
973.7968756419578
 21
2032.749999999996
 31
0.0
  0
LINE
  5
F4
330
87
100
AcDbEntity
  8
P-SANR-FIXT
100
AcDbLine
 10
982.9591624016861
 20
1967.249999999996
 30
0.0
 11
984.5468756419576
 21
1969.999999999996
 31
0.0
  0
LINE
  5
F5
330
87
100
AcDbEntity
  8
P-SANR-FIXT
100
AcDbLine
 10
984.5468756419576
 20
2029.999999999996
 30
0.0
 11
982.959162401686
 21
2032.749999999996
 31
0.0
  0
LINE
  5
F6
330
87
100
AcDbEntity
  8
P-SANR-FIXT
100
AcDbLine
 10
908.5468756419574
 20
2047.499999999996
 30
0.0
 11
907.1316489642965
 21
2046.682918496684
 31
0.0
  0
LINE
  5
F7
330
87
100
AcDbEntity
  8
P-SANR-FIXT
100
AcDbLine
 10
907.1131371105554
 20
2046.672230672943
 30
0.0
 11
907.0468756419575
 21
2046.633974596212
 31
0.0
  0
LINE
  5
F8
330
87
100
AcDbEntity
  8
P-SANR-FIXT
100
AcDbLine
 10
962.0468756419574
 20
2046.633974596212
 30
0.0
 11
961.9806141733596
 21
2046.672230672943
 31
0.0
  0
LINE
  5
F9
330
87
100
AcDbEntity
  8
P-SANR-FIXT
100
AcDbLine
 10
961.9621023196186
 20
2046.682918496684
 30
0.0
 11
960.5468756419575
 21
2047.499999999996
 31
0.0
  0
LINE
  5
FA
330
87
100
AcDbEntity
  8
P-SANR-FIXT
100
AcDbLine
 10
907.0468756419575
 20
2046.633974596212
 30
0.0
 11
907.0468756419575
 21
2042.199999999996
 31
0.0
  0
LINE
  5
FB
330
87
100
AcDbEntity
  8
P-SANR-FIXT
100
AcDbLine
 10
962.0468756419574
 20
2042.199999999996
 30
0.0
 11
962.0468756419574
 21
2046.633974596212
 31
0.0
  0
LINE
  5
FC
330
87
100
AcDbEntity
  8
P-SANR-FIXT
100
AcDbLine
 10
907.0468756419575
 20
2042.199999999996
 30
0.0
 11
907.9610892043305
 21
2041.285786437623
 31
0.0
  0
LINE
  5
FD
330
87
100
AcDbEntity
  8
P-SANR-FIXT
100
AcDbLine
 10
961.1326620795844
 20
2041.285786437623
 30
0.0
 11
962.0468756419574
 21
2042.199999999996
 31
0.0
  0
LWPOLYLINE
  5
FE
330
87
100
AcDbEntity
  8
P-SANR-FIXT
100
AcDbPolyline
 90
       21
 70
   128
 43
0.0
 10
961.1326620795844
 20
2041.285786437623
 10
961.0772398408359
 20
2041.228101758857
 10
961.0241687058636
 20
2041.168246923255
 10
960.9735335771624
 20
2041.106317685786
 10
960.9254154601362
 20
2041.042413120018
 10
960.8798913335078
 20
2040.976635459624
 10
960.8370340261688
 20
2040.909089934829
 10
960.7969121006684
 20
2040.839884604063
 10
960.7595897435281
 20
2040.769130181095
 10
960.725126662558
 20
2040.696939857905
 10
960.693577991336
 20
2040.623429123612
 10
960.664994201006
 20
2040.548715579709
 10
960.6394210195349
 20
2040.472918751928
 10
960.6168993585574
 20
2040.396159899025
 10
960.5974652479273
 20
2040.31856181879
 10
960.5811497780756
 20
2040.240248651597
 10
960.5679790502737
 20
2040.161345681809
 10
960.5579741348762
 20
2040.081979137346
 10
960.5511510376139
 20
2040.002275987748
 10
960.5475206739862
 20
2039.922363741051
 10
960.5468756419575
 20
2039.87157287525
  0
LWPOLYLINE
  5
FF
330
87
100
AcDbEntity
  8
P-SANR-FIXT
100
AcDbPolyline
 90
       21
 70
   128
 43
0.0
 10
908.5468756419574
 20
2039.87157287525
 10
908.5452758552793
 20
2039.951551543623
 10
908.5404790545627
 20
2040.031402263188
 10
908.5324929136653
 20
2040.110997289827
 10
908.5213302087087
 20
2040.190209288478
 10
908.5070087976399
 20
2040.26891153684
 10
908.4895515916615
 20
2040.346978128104
 10
908.468986518579
 20
2040.424284172378
 10
908.4453464781223
 20
2040.500705996482
 10
908.4186692893135
 20
2040.5761213418
 10
908.3889976299632
 20
2040.650409559867
 10
908.3563789683974
 20
2040.723451805382
 10
908.3208654875161
 20
2040.795131226333
 10
908.2825140013127
 20
2040.865333150938
 10
908.2413858639842
 20
2040.933945271092
 10
908.197546871777
 20
2041.00085782204
 10
908.1510671577261
 20
2041.065963757975
 10
908.1020210794592
 20
2041.129158923287
 10
908.0504871002393
 20
2041.190342219193
 10
907.9965476634393
 20
2041.249415765471
 10
907.9610892043305
 20
2041.285786437623
  0
LINE
  5
100
330
87
100
AcDbEntity
  8
P-SANR-FIXT
100
AcDbLine
 10
908.5468756419574
 20
2039.87157287525
 30
0.0
 11
908.5468756419574
 21
2025.999999999996
 31
0.0
  0
LINE
  5
101
330
87
100
AcDbEntity
  8
P-SANR-FIXT
100
AcDbLine
 10
960.5468756419575
 20
2025.999999999996
 30
0.0
 11
960.5468756419575
 21
2039.87157287525
 31
0.0
  0
LINE
  5
102
330
87
100
AcDbEntity
  8
P-SANR-FIXT
100
AcDbLine
 10
909.5468756419576
 20
2050.799999999996
 30
0.0
 11
908.5468756419574
 21
2049.799999999996
 31
0.0
  0
LINE
  5
103
330
87
100
AcDbEntity
  8
P-SANR-FIXT
100
AcDbLine
 10
960.5468756419575
 20
2049.799999999996
 30
0.0
 11
959.5468756419576
 21
2050.799999999996
 31
0.0
  0
LINE
  5
104
330
87
100
AcDbEntity
  8
P-SANR-FIXT
100
AcDbLine
 10
908.5468756419574
 20
2049.799999999996
 30
0.0
 11
908.5468756419574
 21
2047.499999999996
 31
0.0
  0
LINE
  5
105
330
87
100
AcDbEntity
  8
P-SANR-FIXT
100
AcDbLine
 10
960.5468756419575
 20
2047.499999999996
 30
0.0
 11
960.5468756419575
 21
2049.799999999996
 31
0.0
  0
LINE
  5
106
330
87
100
AcDbEntity
  8
P-SANR-FIXT
100
AcDbLine
 10
916.2846858173976
 20
2050.999999999996
 30
0.0
 11
916.2846858173976
 21
2050.799999999996
 31
0.0
  0
LINE
  5
107
330
87
100
AcDbEntity
  8
P-SANR-FIXT
100
AcDbLine
 10
952.8090654665174
 20
2050.799999999996
 30
0.0
 11
952.8090654665174
 21
2050.999999999996
 31
0.0
  0
LINE
  5
108
330
87
100
AcDbEntity
  8
P-SANR-FIXT
100
AcDbLine
 10
884.546875641956
 20
1998.995450246311
 30
0.0
 11
884.546875641956
 21
2001.075669057118
 31
0.0
  0
LINE
  5
109
330
87
100
AcDbEntity
  8
P-SANR-FIXT
100
AcDbLine
 10
884.5468756419558
 20
2001.075669057118
 30
0.0
 11
884.5468756419558
 21
1998.995450246312
 31
0.0
  0
LINE
  5
10A
330
87
100
AcDbEntity
  8
P-SANR-FIXT
100
AcDbLine
 10
884.5468756419558
 20
2026.526737794092
 30
0.0
 11
884.5468756419558
 21
2025.484375904675
 31
0.0
  0
LINE
  5
10B
330
87
100
AcDbEntity
  8
P-SANR-FIXT
100
AcDbLine
 10
884.5468756419558
 20
1974.549469181244
 30
0.0
 11
884.5468756419558
 21
1973.542362069544
 31
0.0
  0
SPLINE
  5
10C
330
87
100
AcDbEntity
  8
P-SANR-FIXT
100
AcDbSpline
210
0.0
220
0.0
230
1.0
 70
     8
 71
     3
 72
     8
 73
     4
 74
     0
 42
0.000000001
 43
0.0000000001
 40
-0.502935316239055
 40
-0.502935316239055
 40
-0.502935316239055
 40
-0.502935316239055
 40
-0.5
 40
-0.5
 40
-0.5
 40
-0.5
 10
884.5469432835859
 20
2026.000998761476
 30
0.0
 10
884.5469068042389
 20
2025.98814527102
 30
0.0
 10
884.546870431345
 20
2025.975291781791
 30
0.0
 10
884.5468885645651
 20
2025.962438921603
 30
0.0
  0
SPLINE
  5
10D
330
87
100
AcDbEntity
  8
P-SANR-FIXT
100
AcDbSpline
210
0.0
220
0.0
230
1.0
 70
     8
 71
     3
 72
     8
 73
     4
 74
     0
 42
0.000000001
 43
0.0000000001
 40
-0.5014676581195258
 40
-0.5014676581195258
 40
-0.5014676581195258
 40
-0.5014676581195258
 40
-0.5
 40
-0.5
 40
-0.5
 40
-0.5
 10
884.5469022443204
 20
2000.001913140269
 30
0.0
 10
884.5468931244838
 20
1999.989059860311
 30
0.0
 10
884.5468840179925
 20
1999.976206580662
 30
0.0
 10
884.5468885645653
 20
1999.963353616145
 30
0.0
  0
SPLINE
  5
10E
330
87
100
AcDbEntity
  8
P-SANR-FIXT
100
AcDbSpline
210
0.0
220
0.0
230
1.0
 70
     8
 71
     3
 72
     8
 73
     4
 74
     0
 42
0.000000001
 43
0.0000000001
 40
-0.5029353162390602
 40
-0.5029353162390602
 40
-0.5029353162390602
 40
-0.5029353162390602
 40
-0.5
 40
-0.5
 40
-0.5
 40
-0.5
 10
884.5469432835859
 20
1974.039474534409
 30
0.0
 10
884.5469068042389
 20
1974.026621043953
 30
0.0
 10
884.546870431345
 20
1974.013767554725
 30
0.0
 10
884.5468885645651
 20
1974.000914694536
 30
0.0
  0
LINE
  5
10F
330
87
100
AcDbEntity
  8
P-SANR-FIXT
100
AcDbLine
 10
884.5468756419558
 20
1969.999999999995
 30
0.0
 11
884.5468756419558
 21
1973.503683696536
 31
0.0
  0
LINE
  5
110
330
87
100
AcDbEntity
  8
P-SANR-FIXT
100
AcDbLine
 10
884.5468756419558
 20
1973.542362069544
 30
0.0
 11
884.5468756419558
 21
1974.549469181243
 31
0.0
  0
LINE
  5
111
330
87
100
AcDbEntity
  8
P-SANR-FIXT
100
AcDbLine
 10
884.5468756419558
 20
1974.575913815768
 30
0.0
 11
884.5468756419558
 21
2025.424086184222
 31
0.0
  0
LINE
  5
112
330
87
100
AcDbEntity
  8
P-SANR-FIXT
100
AcDbLine
 10
884.5468756419558
 20
2025.484375904675
 30
0.0
 11
884.5468756419558
 21
2029.999999999995
 31
0.0
  0
SPLINE
  5
113
330
87
100
AcDbEntity
  8
P-SANR-FIXT
100
AcDbSpline
210
0.0
220
0.0
230
1.0
 70
     8
 71
     3
 72
     9
 73
     5
 74
     0
 42
0.000000001
 43
0.0000000001
 40
-1.0
 40
-1.0
 40
-1.0
 40
-1.0
 40
-0.5
 40
0.0
 40
0.0
 40
0.0
 40
0.0
 10
886.1345888822272
 20
1967.451085558752
 30
0.0
 10
885.0761220037858
 20
1969.652685129272
 30
0.0
 10
884.0176551253446
 20
1974.043668809029
 30
0.0
 10
885.0761220037856
 20
1978.410221566218
 30
0.0
 10
886.134588882227
 20
1980.587390214172
 30
0.0
  0
SPLINE
  5
114
330
87
100
AcDbEntity
  8
P-SANR-FIXT
100
AcDbSpline
210
0.0
220
0.0
230
1.0
 70
     8
 71
     3
 72
     9
 73
     5
 74
     0
 42
0.000000001
 43
0.0000000001
 40
-1.0
 40
-1.0
 40
-1.0
 40
-1.0
 40
-0.5
 40
0.0
 40
0.0
 40
0.0
 40
0.0
 10
886.134588882227
 20
1986.863695344576
 30
0.0
 10
885.0761220037856
 20
1991.266894485615
 30
0.0
 10
884.0176551253442
 20
2000.048861845129
 30
0.0
 10
885.0761220037856
 20
2008.781967359508
 30
0.0
 10
886.134588882227
 20
2013.136304655414
 30
0.0
  0
SPLINE
  5
115
330
87
100
AcDbEntity
  8
P-SANR-FIXT
100
AcDbSpline
210
0.0
220
0.0
230
1.0
 70
     8
 71
     3
 72
     8
 73
     4
 74
     0
 42
0.000000001
 43
0.0000000001
 40
-1.0
 40
-1.0
 40
-1.0
 40
-1.0
 40
-0.5520833333333341
 40
-0.5520833333333341
 40
-0.5520833333333341
 40
-0.5520833333333341
 10
886.134588882227
 20
2019.412609785819
 30
0.0
 10
885.1863789702901
 20
2021.384876067743
 30
0.0
 10
884.6628880814082
 20
2023.35224078979
 30
0.0
 10
884.5641162155814
 20
2025.31470395196
 30
0.0
  0
SPLINE
  5
116
330
87
100
AcDbEntity
  8
P-SANR-FIXT
100
AcDbSpline
210
0.0
220
0.0
230
1.0
 70
     8
 71
     3
 72
     9
 73
     5
 74
     0
 42
0.000000001
 43
0.0000000001
 40
-0.5467347866260304
 40
-0.5467347866260304
 40
-0.5467347866260304
 40
-0.5467347866260304
 40
-0.5
 40
0.0
 40
0.0
 40
0.0
 40
0.0
 10
884.5607596054367
 20
2025.385002828642
 30
0.0
 10
884.5515122448558
 20
2025.589750348141
 30
0.0
 10
884.4974213408505
 20
2027.984399503291
 30
0.0
 10
885.0761220037853
 20
2030.371745793285
 30
0.0
 10
886.1345888822272
 20
2032.548914441238
 30
0.0
  0
LINE
  5
117
330
87
100
AcDbEntity
  8
P-SANR-FIXT
100
AcDbLine
 10
886.134588882227
 20
1980.587390214171
 30
0.0
 11
886.134588882227
 21
1986.863695344575
 31
0.0
  0
LINE
  5
118
330
87
100
AcDbEntity
  8
P-SANR-FIXT
100
AcDbLine
 10
886.134588882227
 20
1980.587390214172
 30
0.0
 11
895.2968756419556
 21
1980.587390214172
 31
0.0
  0
LINE
  5
119
330
87
100
AcDbEntity
  8
P-SANR-FIXT
100
AcDbLine
 10
895.2968756419556
 20
1986.863695344576
 30
0.0
 11
886.134588882227
 21
1986.863695344576
 31
0.0
  0
LINE
  5
11A
330
87
100
AcDbEntity
  8
P-SANR-FIXT
100
AcDbLine
 10
886.134588882227
 20
2013.136304655414
 30
0.0
 11
886.134588882227
 21
2019.412609785818
 31
0.0
  0
LINE
  5
11B
330
87
100
AcDbEntity
  8
P-SANR-FIXT
100
AcDbLine
 10
886.134588882227
 20
2013.136304655415
 30
0.0
 11
895.2968756419556
 21
2013.136304655415
 31
0.0
  0
LINE
  5
11C
330
87
100
AcDbEntity
  8
P-SANR-FIXT
100
AcDbLine
 10
895.2968756419556
 20
2019.412609785819
 30
0.0
 11
886.134588882227
 21
2019.412609785819
 31
0.0
  0
LINE
  5
11D
330
87
100
AcDbEntity
  8
P-SANR-FIXT
100
AcDbLine
 10
895.2968756419558
 20
1967.451085558752
 30
0.0
 11
886.1345888822272
 21
1967.451085558752
 31
0.0
  0
LINE
  5
11E
330
87
100
AcDbEntity
  8
P-SANR-FIXT
100
AcDbLine
 10
886.1345888822272
 20
1967.249999999995
 30
0.0
 11
886.1345888822272
 21
1967.451085558752
 31
0.0
  0
LINE
  5
11F
330
87
100
AcDbEntity
  8
P-SANR-FIXT
100
AcDbLine
 10
886.1345888822272
 20
2032.548914441238
 30
0.0
 11
886.1345888822272
 21
2032.749999999995
 31
0.0
  0
LINE
  5
120
330
87
100
AcDbEntity
  8
P-SANR-FIXT
100
AcDbLine
 10
886.1345888822272
 20
2032.548914441238
 30
0.0
 11
895.2968756419558
 21
2032.548914441238
 31
0.0
  0
SPLINE
  5
121
330
87
100
AcDbEntity
  8
P-SANR-FIXT
100
AcDbSpline
210
0.0
220
0.0
230
1.0
 70
     8
 71
     3
 72
     8
 73
     4
 74
     0
 42
0.000000001
 43
0.0000000001
 40
-0.7998208994862109
 40
-0.7998208994862109
 40
-0.7998208994862109
 40
-0.7998208994862109
 40
-0.75
 40
-0.75
 40
-0.75
 40
-0.75
 10
902.544107456738
 20
1992.207363386896
 30
0.0
 10
902.5175611974679
 20
1992.222703969654
 30
0.0
 10
902.4913527612307
 20
1992.238081167102
 30
0.0
 10
902.465136166014
 20
1992.253538654671
 30
0.0
  0
SPLINE
  5
122
330
87
100
AcDbEntity
  8
P-SANR-FIXT
100
AcDbSpline
210
0.0
220
0.0
230
1.0
 70
     8
 71
     3
 72
     8
 73
     4
 74
     0
 42
0.000000001
 43
0.0000000001
 40
-0.25
 40
-0.25
 40
-0.25
 40
-0.25
 40
0.0
 40
0.0
 40
0.0
 40
0.0
 10
901.7548505714222
 20
1992.720264855728
 30
0.0
 10
901.6500040026233
 20
1992.796486511096
 30
0.0
 10
901.5520665177138
 20
1992.871147684043
 30
0.0
 10
901.4610892043288
 20
1992.94316006464
 30
0.0
  0
SPLINE
  5
123
330
87
100
AcDbEntity
  8
P-SANR-FIXT
100
AcDbSpline
210
0.0
220
0.0
230
1.0
 70
     8
 71
     3
 72
     8
 73
     4
 74
     0
 42
0.000000001
 43
0.0000000001
 40
-1.0
 40
-1.0
 40
-1.0
 40
-1.0
 40
-0.75
 40
-0.75
 40
-0.75
 40
-0.75
 10
901.4610892043288
 20
2007.05683993535
 30
0.0
 10
901.5520665177138
 20
2007.128852315947
 30
0.0
 10
901.6500040026233
 20
2007.203513488894
 30
0.0
 10
901.7548505714222
 20
2007.279735144263
 30
0.0
  0
SPLINE
  5
124
330
87
100
AcDbEntity
  8
P-SANR-FIXT
100
AcDbSpline
210
0.0
220
0.0
230
1.0
 70
     8
 71
     3
 72
     8
 73
     4
 74
     0
 42
0.000000001
 43
0.0000000001
 40
-0.25
 40
-0.25
 40
-0.25
 40
-0.25
 40
-0.2001791005139752
 40
-0.2001791005139752
 40
-0.2001791005139752
 40
-0.2001791005139752
 10
902.465136166014
 20
2007.746461345319
 30
0.0
 10
902.4912392145038
 20
2007.761903294161
 30
0.0
 10
902.5179375469532
 20
2007.777203048989
 30
0.0
 10
902.5450115043556
 20
2007.792413258026
 30
0.0
  0
ARC
  5
125
330
87
100
AcDbEntity
  8
P-SANR-FIXT
100
AcDbCircle
 10
962.0468756419557
 20
1999.999999999995
 30
0.0
 40
9.000000000000218
100
AcDbArc
 50
327.2660444507311
 51
332.7339555492661
  0
LINE
  5
126
330
87
100
AcDbEntity
  8
P-SANR-FIXT
100
AcDbLine
 10
970.0468756419557
 20
1995.876894374377
 30
0.0
 11
970.0468756419558
 21
2004.123105625613
 31
0.0
  0
ARC
  5
127
330
87
100
AcDbEntity
  8
P-SANR-FIXT
100
AcDbCircle
 10
962.0468756419557
 20
1999.999999999995
 30
0.0
 40
9.000000000000046
100
AcDbArc
 50
27.26604445073157
 51
32.73395554926819
  0
LINE
  5
128
330
87
100
AcDbEntity
  8
P-SANR-FIXT
100
AcDbLine
 10
969.6175898562271
 20
2004.866650417462
 30
0.0
 11
962.4761614276843
 21
2008.989756043079
 31
0.0
  0
ARC
  5
129
330
87
100
AcDbEntity
  8
P-SANR-FIXT
100
AcDbCircle
 10
962.0468756419557
 20
1999.999999999995
 30
0.0
 40
8.999999999999964
100
AcDbArc
 50
87.26604445073222
 51
92.73395554926633
  0
LINE
  5
12A
330
87
100
AcDbEntity
  8
P-SANR-FIXT
100
AcDbLine
 10
961.6175898562273
 20
2008.989756043079
 30
0.0
 11
954.4761614276842
 21
2004.866650417462
 31
0.0
  0
ARC
  5
12B
330
87
100
AcDbEntity
  8
P-SANR-FIXT
100
AcDbCircle
 10
962.0468756419557
 20
1999.999999999995
 30
0.0
 40
9.000000000000062
100
AcDbArc
 50
147.266044450732
 51
152.7339555492657
  0
LINE
  5
12C
330
87
100
AcDbEntity
  8
P-SANR-FIXT
100
AcDbLine
 10
954.0468756419558
 20
2004.123105625613
 30
0.0
 11
954.0468756419558
 21
1995.876894374377
 31
0.0
  0
ARC
  5
12D
330
87
100
AcDbEntity
  8
P-SANR-FIXT
100
AcDbCircle
 10
962.0468756419557
 20
1999.999999999995
 30
0.0
 40
8.999999999999948
100
AcDbArc
 50
207.2660444507326
 51
212.7339555492652
  0
LINE
  5
12E
330
87
100
AcDbEntity
  8
P-SANR-FIXT
100
AcDbLine
 10
954.4761614276842
 20
1995.133349582528
 30
0.0
 11
961.6175898562271
 21
1991.010243956911
 31
0.0
  0
ARC
  5
12F
330
87
100
AcDbEntity
  8
P-SANR-FIXT
100
AcDbCircle
 10
962.0468756419557
 20
1999.999999999995
 30
0.0
 40
9.000000000000071
100
AcDbArc
 50
267.2660444507326
 51
272.7339555492674
  0
LINE
  5
130
330
87
100
AcDbEntity
  8
P-SANR-FIXT
100
AcDbLine
 10
962.4761614276843
 20
1991.010243956911
 30
0.0
 11
969.6175898562271
 21
1995.133349582528
 31
0.0
  0
LINE
  5
131
330
87
100
AcDbEntity
  8
P-SANR-FIXT
100
AcDbLine
 10
984.546875641956
 20
1973.542362069544
 30
0.0
 11
984.546875641956
 21
1974.549469181244
 31
0.0
  0
LINE
  5
132
330
87
100
AcDbEntity
  8
P-SANR-FIXT
100
AcDbLine
 10
984.546875641956
 20
2025.484375904675
 30
0.0
 11
984.546875641956
 21
2026.526737794092
 31
0.0
  0
LINE
  5
133
330
87
100
AcDbEntity
  8
P-SANR-FIXT
100
AcDbLine
 10
984.5468756419561
 20
2001.075669057118
 30
0.0
 11
984.5468756419561
 21
1998.995450246311
 31
0.0
  0
LINE
  5
134
330
87
100
AcDbEntity
  8
P-SANR-FIXT
100
AcDbLine
 10
984.546875641956
 20
2029.999999999995
 30
0.0
 11
984.546875641956
 21
2025.484375904675
 31
0.0
  0
LINE
  5
135
330
87
100
AcDbEntity
  8
P-SANR-FIXT
100
AcDbLine
 10
984.546875641956
 20
2025.424086184222
 30
0.0
 11
984.546875641956
 21
1974.575913815768
 31
0.0
  0
LINE
  5
136
330
87
100
AcDbEntity
  8
P-SANR-FIXT
100
AcDbLine
 10
984.546875641956
 20
1974.549469181244
 30
0.0
 11
984.546875641956
 21
1973.542362069544
 31
0.0
  0
LINE
  5
137
330
87
100
AcDbEntity
  8
P-SANR-FIXT
100
AcDbLine
 10
984.546875641956
 20
1973.503683696536
 30
0.0
 11
984.546875641956
 21
1969.999999999995
 31
0.0
  0
LINE
  5
138
330
87
100
AcDbEntity
  8
P-SANR-FIXT
100
AcDbLine
 10
984.546875641956
 20
1998.995450246312
 30
0.0
 11
984.546875641956
 21
2001.075669057118
 31
0.0
  0
LINE
  5
139
330
87
100
AcDbEntity
  8
P-SANR-FIXT
100
AcDbLine
 10
895.2968756419558
 20
2032.548914441238
 30
0.0
 11
895.2968756419558
 21
2032.749999999995
 31
0.0
  0
SPLINE
  5
13A
330
87
100
AcDbEntity
  8
P-SANR-FIXT
100
AcDbSpline
210
0.0
220
0.0
230
1.0
 70
     8
 71
     3
 72
    10
 73
     6
 74
     0
 42
0.000000001
 43
0.0000000001
 40
-1.0
 40
-1.0
 40
-1.0
 40
-1.0
 40
-0.6666666666666666
 40
-0.3333333333333333
 40
0.0
 40
0.0
 40
0.0
 40
0.0
 10
895.2968756419558
 20
2032.548914441238
 30
0.0
 10
896.5020335805988
 20
2031.131842423697
 30
0.0
 10
898.1091975946934
 20
2028.267671611095
 30
0.0
 10
898.1337157944686
 20
2023.745105065797
 30
0.0
 10
896.5127871769913
 20
2020.851647139004
 30
0.0
 10
895.2968756419556
 20
2019.412609785819
 30
0.0
  0
LINE
  5
13B
330
87
100
AcDbEntity
  8
P-SANR-FIXT
100
AcDbLine
 10
895.2968756419556
 20
2013.136304655414
 30
0.0
 11
895.2968756419556
 21
2019.412609785818
 31
0.0
  0
SPLINE
  5
13C
330
87
100
AcDbEntity
  8
P-SANR-FIXT
100
AcDbSpline
210
0.0
220
0.0
230
1.0
 70
     8
 71
     3
 72
     9
 73
     5
 74
     0
 42
0.000000001
 43
0.0000000001
 40
-1.0
 40
-1.0
 40
-1.0
 40
-1.0
 40
-0.5
 40
0.0
 40
0.0
 40
0.0
 40
0.0
 10
895.2968756419556
 20
2013.136304655414
 30
0.0
 10
896.1889454966959
 20
2010.989738845641
 30
0.0
 10
897.5393486847693
 20
2006.65378892663
 30
0.0
 10
898.0222788300292
 20
2002.232202408695
 30
0.0
 10
898.0468756419558
 20
1999.999999999995
 30
0.0
  0
SPLINE
  5
13D
330
87
100
AcDbEntity
  8
P-SANR-FIXT
100
AcDbSpline
210
0.0
220
0.0
230
1.0
 70
     8
 71
     3
 72
     8
 73
     4
 74
     0
 42
0.000000001
 43
0.0000000001
 40
-0.9166666666666666
 40
-0.9166666666666666
 40
-0.9166666666666666
 40
-0.9166666666666666
 40
-0.8872920322118398
 40
-0.8872920322118398
 40
-0.8872920322118398
 40
-0.8872920322118398
 10
898.0820710827526
 20
2000.795107794534
 30
0.0
 10
898.0902246280267
 20
2000.887047623324
 30
0.0
 10
898.0997532066588
 20
2000.978425747192
 30
0.0
 10
898.1106131010184
 20
2001.069201411152
 30
0.0
  0
SPLINE
  5
13E
330
87
100
AcDbEntity
  8
P-SANR-FIXT
100
AcDbSpline
210
0.0
220
0.0
230
1.0
 70
     8
 71
     3
 72
     8
 73
     4
 74
     0
 42
0.000000001
 43
0.0000000001
 40
-0.7701884244198169
 40
-0.7701884244198169
 40
-0.7701884244198169
 40
-0.7701884244198169
 40
-0.75
 40
-0.75
 40
-0.75
 40
-0.75
 10
898.3010421370034
 20
2002.123774664037
 30
0.0
 10
898.3152993374295
 20
2002.182485410439
 30
0.0
 10
898.3301011753233
 20
2002.240859964999
 30
0.0
 10
898.3454344234194
 20
2002.298895543589
 30
0.0
  0
SPLINE
  5
13F
330
87
100
AcDbEntity
  8
P-SANR-FIXT
100
AcDbSpline
210
0.0
220
0.0
230
1.0
 70
     8
 71
     3
 72
     8
 73
     4
 74
     0
 42
0.000000001
 43
0.0000000001
 40
-0.6666666666666668
 40
-0.6666666666666668
 40
-0.6666666666666668
 40
-0.6666666666666668
 40
-0.6483623840980175
 40
-0.6483623840980175
 40
-0.6483623840980175
 40
-0.6483623840980175
 10
898.5614520296687
 20
2002.999592966454
 30
0.0
 10
898.579104323231
 20
2003.049527769651
 30
0.0
 10
898.5971408571039
 20
2003.099147615497
 30
0.0
 10
898.6155477644441
 20
2003.148441059942
 30
0.0
  0
SPLINE
  5
140
330
87
100
AcDbEntity
  8
P-SANR-FIXT
100
AcDbSpline
210
0.0
220
0.0
230
1.0
 70
     8
 71
     3
 72
     8
 73
     4
 74
     0
 42
0.000000001
 43
0.0000000001
 40
-0.2707080741126022
 40
-0.2707080741126022
 40
-0.2707080741126022
 40
-0.2707080741126022
 40
-0.25
 40
-0.25
 40
-0.25
 40
-0.25
 10
900.1102204041782
 20
2005.734354753769
 30
0.0
 10
900.1425285052246
 20
2005.773437258297
 30
0.0
 10
900.1751154324159
 20
2005.811936701435
 30
0.0
 10
900.2077977511103
 20
2005.850385765306
 30
0.0
  0
SPLINE
  5
141
330
87
100
AcDbEntity
  8
P-SANR-FIXT
100
AcDbSpline
210
0.0
220
0.0
230
1.0
 70
     8
 71
     3
 72
     9
 73
     5
 74
     0
 42
0.000000001
 43
0.0000000001
 40
-0.1666666666666666
 40
-0.1666666666666666
 40
-0.1666666666666666
 40
-0.1666666666666666
 40
-0.125
 40
-0.0833333333333333
 40
-0.0833333333333333
 40
-0.0833333333333333
 40
-0.0833333333333333
 10
900.6122946624198
 20
2006.292530567868
 30
0.0
 10
900.6810967585796
 20
2006.362889311297
 30
0.0
 10
900.8195848878294
 20
2006.501876965381
 30
0.0
 10
900.9614547489791
 20
2006.627626484215
 30
0.0
 10
901.0327546204845
 20
2006.689116571955
 30
0.0
  0
SPLINE
  5
142
330
87
100
AcDbEntity
  8
P-SANR-FIXT
100
AcDbSpline
210
0.0
220
0.0
230
1.0
 70
     8
 71
     3
 72
     9
 73
     5
 74
     0
 42
0.000000001
 43
0.0000000001
 40
-0.9166666666666666
 40
-0.9166666666666666
 40
-0.9166666666666666
 40
-0.9166666666666666
 40
-0.875
 40
-0.8333333333333333
 40
-0.8333333333333333
 40
-0.8333333333333333
 40
-0.8333333333333333
 10
901.0315991093463
 20
1993.305481523454
 30
0.0
 10
900.9607614422961
 20
1993.369132373026
 30
0.0
 10
900.819931541668
 20
1993.499743606447
 30
0.0
 10
900.6810967575848
 20
1993.637110687766
 30
0.0
 10
900.6122946607618
 20
1993.707469430577
 30
0.0
  0
SPLINE
  5
143
330
87
100
AcDbEntity
  8
P-SANR-FIXT
100
AcDbSpline
210
0.0
220
0.0
230
1.0
 70
     8
 71
     3
 72
     8
 73
     4
 74
     0
 42
0.000000001
 43
0.0000000001
 40
-0.75
 40
-0.75
 40
-0.75
 40
-0.75
 40
-0.7292919258874317
 40
-0.7292919258874317
 40
-0.7292919258874317
 40
-0.7292919258874317
 10
900.2077977511101
 20
1994.149614234684
 30
0.0
 10
900.1750583586945
 20
1994.187884997222
 30
0.0
 10
900.1425285060509
 20
1994.226562742402
 30
0.0
 10
900.1102204058359
 20
1994.265645247644
 30
0.0
  0
SPLINE
  5
144
330
87
100
AcDbEntity
  8
P-SANR-FIXT
100
AcDbSpline
210
0.0
220
0.0
230
1.0
 70
     8
 71
     3
 72
     8
 73
     4
 74
     0
 42
0.000000001
 43
0.0000000001
 40
-0.3516376159020145
 40
-0.3516376159020145
 40
-0.3516376159020145
 40
-0.3516376159020145
 40
-0.3333333333333334
 40
-0.3333333333333334
 40
-0.3333333333333334
 40
-0.3333333333333334
 10
898.6155477562308
 20
1996.851558925141
 30
0.0
 10
898.5971408522212
 20
1996.900852375631
 30
0.0
 10
898.5791247636374
 20
1996.950482810974
 30
0.0
 10
898.5614846715494
 20
1997.000423930061
 30
0.0
  0
SPLINE
  5
145
330
87
100
AcDbEntity
  8
P-SANR-FIXT
100
AcDbSpline
210
0.0
220
0.0
230
1.0
 70
     8
 71
     3
 72
     8
 73
     4
 74
     0
 42
0.000000001
 43
0.0000000001
 40
-0.25
 40
-0.25
 40
-0.25
 40
-0.25
 40
-0.2298115755802204
 40
-0.2298115755802204
 40
-0.2298115755802204
 40
-0.2298115755802204
 10
898.3454344234193
 20
1997.701104456401
 30
0.0
 10
898.3301011746245
 20
1997.759140033913
 30
0.0
 10
898.3155086686391
 20
1997.817609174745
 30
0.0
 10
898.3014672794018
 20
1997.876417434286
 30
0.0
  0
SPLINE
  5
146
330
87
100
AcDbEntity
  8
P-SANR-FIXT
100
AcDbSpline
210
0.0
220
0.0
230
1.0
 70
     8
 71
     3
 72
     8
 73
     4
 74
     0
 42
0.000000001
 43
0.0000000001
 40
-0.1127079677881877
 40
-0.1127079677881877
 40
-0.1127079677881877
 40
-0.1127079677881877
 40
-0.0833333333333333
 40
-0.0833333333333333
 40
-0.0833333333333333
 40
-0.0833333333333333
 10
898.1106131009115
 20
1998.930798588703
 30
0.0
 10
898.0997532065384
 20
1999.021574252645
 30
0.0
 10
898.0923496544701
 20
1999.113697510474
 30
0.0
 10
898.0867846502253
 20
1999.206545002998
 30
0.0
  0
SPLINE
  5
147
330
87
100
AcDbEntity
  8
P-SANR-FIXT
100
AcDbSpline
210
0.0
220
0.0
230
1.0
 70
     8
 71
     3
 72
     9
 73
     5
 74
     0
 42
0.000000001
 43
0.0000000001
 40
-1.0
 40
-1.0
 40
-1.0
 40
-1.0
 40
-0.5
 40
0.0
 40
0.0
 40
0.0
 40
0.0
 10
898.0468756419558
 20
1999.999999999995
 30
0.0
 10
898.026309789955
 20
1997.786508702969
 30
0.0
 10
897.5474106046206
 20
1993.383633296706
 30
0.0
 10
896.1929764566216
 20
1989.028972266023
 30
0.0
 10
895.2968756419556
 20
1986.863695344576
 30
0.0
  0
LINE
  5
148
330
87
100
AcDbEntity
  8
P-SANR-FIXT
100
AcDbLine
 10
895.2968756419556
 20
1980.587390214171
 30
0.0
 11
895.2968756419556
 21
1986.863695344575
 31
0.0
  0
SPLINE
  5
149
330
87
100
AcDbEntity
  8
P-SANR-FIXT
100
AcDbSpline
210
0.0
220
0.0
230
1.0
 70
     8
 71
     3
 72
    10
 73
     6
 74
     0
 42
0.000000001
 43
0.0000000001
 40
-1.0
 40
-1.0
 40
-1.0
 40
-1.0
 40
-0.6666666666666666
 40
-0.3333333333333333
 40
0.0
 40
0.0
 40
0.0
 40
0.0
 10
895.2968756419556
 20
1980.587390214172
 30
0.0
 10
896.5020335805986
 20
1979.170318196631
 30
0.0
 10
898.1091975946933
 20
1976.306147384029
 30
0.0
 10
898.1337157944688
 20
1971.783580838731
 30
0.0
 10
896.5127871769913
 20
1968.890122911937
 30
0.0
 10
895.2968756419558
 20
1967.451085558752
 30
0.0
  0
LINE
  5
14A
330
87
100
AcDbEntity
  8
P-SANR-FIXT
100
AcDbLine
 10
895.2968756419558
 20
1967.249999999995
 30
0.0
 11
895.2968756419558
 21
1967.451085558752
 31
0.0
  0
SPLINE
  5
14B
330
87
100
AcDbEntity
  8
P-SANR-FIXT
100
AcDbSpline
210
0.0
220
0.0
230
1.0
 70
     8
 71
     3
 72
     8
 73
     4
 74
     0
 42
0.000000001
 43
0.0000000001
 40
0.0
 40
0.0
 40
0.0
 40
0.0
 40
0.0183413444517449
 40
0.0183413444517449
 40
0.0183413444517449
 40
0.0183413444517449
 10
910.7294270636883
 20
1991.787886080528
 30
0.0
 10
910.6835759036981
 20
1991.767322171122
 30
0.0
 10
910.6375801657996
 20
1991.747157690326
 30
0.0
 10
910.5914456508317
 20
1991.727393007643
 30
0.0
  0
SPLINE
  5
14C
330
87
100
AcDbEntity
  8
P-SANR-FIXT
100
AcDbSpline
210
0.0
220
0.0
230
1.0
 70
     8
 71
     3
 72
     8
 73
     4
 74
     0
 42
0.000000001
 43
0.0000000001
 40
0.125
 40
0.125
 40
0.125
 40
0.125
 40
0.1501131678295786
 40
0.1501131678295786
 40
0.1501131678295786
 40
0.1501131678295786
 10
909.7736626670158
 20
1991.423218130917
 30
0.0
 10
909.7085534265845
 20
1991.402539798822
 30
0.0
 10
909.6431831731171
 20
1991.381881797079
 30
0.0
 10
909.5775796714754
 20
1991.361392380942
 30
0.0
  0
SPLINE
  5
14D
330
87
100
AcDbEntity
  8
P-SANR-FIXT
100
AcDbSpline
210
0.0
220
0.0
230
1.0
 70
     8
 71
     3
 72
     8
 73
     4
 74
     0
 42
0.000000001
 43
0.0000000001
 40
0.25
 40
0.25
 40
0.25
 40
0.25
 40
0.2826151907817996
 40
0.2826151907817996
 40
0.2826151907817996
 40
0.2826151907817996
 10
908.7886243942135
 20
1991.170565538803
 30
0.0
 10
908.7019982084388
 20
1991.153482920876
 30
0.0
 10
908.6149962288587
 20
1991.136462013915
 30
0.0
 10
908.5277170774846
 20
1991.119981307169
 30
0.0
  0
SPLINE
  5
14E
330
87
100
AcDbEntity
  8
P-SANR-FIXT
100
AcDbSpline
210
0.0
220
0.0
230
1.0
 70
     8
 71
     3
 72
     8
 73
     4
 74
     0
 42
0.000000001
 43
0.0000000001
 40
0.375
 40
0.375
 40
0.375
 40
0.375
 40
0.4140328280102862
 40
0.4140328280102862
 40
0.4140328280102862
 40
0.4140328280102862
 10
907.7853296320217
 20
1991.030630091582
 30
0.0
 10
907.6803312679837
 20
1991.02195512928
 30
0.0
 10
907.574892639294
 20
1991.013418330604
 30
0.0
 10
907.4693718818494
 20
1991.006620521664
 30
0.0
  0
SPLINE
  5
14F
330
87
100
AcDbEntity
  8
P-SANR-FIXT
100
AcDbSpline
210
0.0
220
0.0
230
1.0
 70
     8
 71
     3
 72
     8
 73
     4
 74
     0
 42
0.000000001
 43
0.0000000001
 40
0.625
 40
0.625
 40
0.625
 40
0.625
 40
0.6507364147256631
 40
0.6507364147256631
 40
0.6507364147256631
 40
0.6507364147256631
 10
905.7679571512851
 20
1991.091387988596
 30
0.0
 10
905.6992276726722
 20
1991.101264534395
 30
0.0
 10
905.6310092824633
 20
1991.113396501276
 30
0.0
 10
905.5632328518735
 20
1991.127481809861
 30
0.0
  0
SPLINE
  5
150
330
87
100
AcDbEntity
  8
P-SANR-FIXT
100
AcDbSpline
210
0.0
220
0.0
230
1.0
 70
     8
 71
     3
 72
     8
 73
     4
 74
     0
 42
0.000000001
 43
0.0000000001
 40
0.75
 40
0.75
 40
0.75
 40
0.75
 40
0.7826745176013015
 40
0.7826745176013015
 40
0.7826745176013015
 40
0.7826745176013015
 10
904.7754159953363
 20
1991.291506150806
 30
0.0
 10
904.6898622553333
 20
1991.313821921061
 30
0.0
 10
904.6053179685447
 20
1991.339588558792
 30
0.0
 10
904.5215294578234
 20
1991.367947361683
 30
0.0
  0
SPLINE
  5
151
330
87
100
AcDbEntity
  8
P-SANR-FIXT
100
AcDbSpline
210
0.0
220
0.0
230
1.0
 70
     8
 71
     3
 72
     8
 73
     4
 74
     0
 42
0.000000001
 43
0.0000000001
 40
0.875
 40
0.875
 40
0.875
 40
0.875
 40
0.9152851599260037
 40
0.9152851599260037
 40
0.9152851599260037
 40
0.9152851599260037
 10
903.8076914751902
 20
1991.603191093859
 30
0.0
 10
903.7054413140522
 20
1991.642621421706
 30
0.0
 10
903.6047951417032
 20
1991.686528971034
 30
0.0
 10
903.5048522498732
 20
1991.732423754149
 30
0.0
  0
SPLINE
  5
152
330
87
100
AcDbEntity
  8
P-SANR-FIXT
100
AcDbSpline
210
0.0
220
0.0
230
1.0
 70
     8
 71
     3
 72
     8
 73
     4
 74
     0
 42
0.000000001
 43
0.0000000001
 40
0.0847148400739808
 40
0.0847148400739808
 40
0.0847148400739808
 40
0.0847148400739808
 40
0.125
 40
0.125
 40
0.125
 40
0.125
 10
903.5028347589168
 20
2008.27279740883
 30
0.0
 10
903.6038028465737
 20
2008.316039037792
 30
0.0
 10
903.7054752507877
 20
2008.359240298634
 30
0.0
 10
903.8077834091946
 20
2008.401852272944
 30
0.0
  0
SPLINE
  5
153
330
87
100
AcDbEntity
  8
P-SANR-FIXT
100
AcDbSpline
210
0.0
220
0.0
230
1.0
 70
     8
 71
     3
 72
     8
 73
     4
 74
     0
 42
0.000000001
 43
0.0000000001
 40
0.2173254823986928
 40
0.2173254823986928
 40
0.2173254823986928
 40
0.2173254823986928
 40
0.25
 40
0.25
 40
0.25
 40
0.25
 10
904.5196339233964
 20
2008.637738775383
 30
0.0
 10
904.6045911269406
 20
2008.662591787244
 30
0.0
 10
904.6899430648236
 20
2008.687408573531
 30
0.0
 10
904.7756304013544
 20
2008.711758632154
 30
0.0
  0
SPLINE
  5
154
330
87
100
AcDbEntity
  8
P-SANR-FIXT
100
AcDbSpline
210
0.0
220
0.0
230
1.0
 70
     8
 71
     3
 72
     8
 73
     4
 74
     0
 42
0.000000001
 43
0.0000000001
 40
0.3492635852743368
 40
0.3492635852743368
 40
0.3492635852743368
 40
0.3492635852743368
 40
0.375
 40
0.375
 40
0.375
 40
0.375
 10
905.5620870608086
 20
2008.876592438606
 30
0.0
 10
905.630599208556
 20
2008.888061655479
 30
0.0
 10
905.699314514476
 20
2008.899501377598
 30
0.0
 10
905.7681731951422
 20
2008.910517436844
 30
0.0
  0
SPLINE
  5
155
330
87
100
AcDbEntity
  8
P-SANR-FIXT
100
AcDbSpline
210
0.0
220
0.0
230
1.0
 70
     8
 71
     3
 72
     8
 73
     4
 74
     0
 42
0.000000001
 43
0.0000000001
 40
0.5859671719896932
 40
0.5859671719896932
 40
0.5859671719896932
 40
0.5859671719896932
 40
0.625
 40
0.625
 40
0.625
 40
0.625
 10
907.4700375146166
 20
2008.989861610381
 30
0.0
 10
907.5752152589402
 20
2008.98487662515
 30
0.0
 10
907.679631657346
 20
2008.97473698011
 30
0.0
 10
907.7834286668947
 20
2008.960381787966
 30
0.0
  0
SPLINE
  5
156
330
87
100
AcDbEntity
  8
P-SANR-FIXT
100
AcDbSpline
210
0.0
220
0.0
230
1.0
 70
     8
 71
     3
 72
     8
 73
     4
 74
     0
 42
0.000000001
 43
0.0000000001
 40
0.7173848092182004
 40
0.7173848092182004
 40
0.7173848092182004
 40
0.7173848092182004
 40
0.75
 40
0.75
 40
0.75
 40
0.75
 10
908.5281570035807
 20
2008.876843343233
 30
0.0
 10
908.6151648722342
 20
2008.862320732364
 30
0.0
 10
908.7014105522644
 20
2008.844268435437
 30
0.0
 10
908.7870648809774
 20
2008.823467043963
 30
0.0
  0
SPLINE
  5
157
330
87
100
AcDbEntity
  8
P-SANR-FIXT
100
AcDbSpline
210
0.0
220
0.0
230
1.0
 70
     8
 71
     3
 72
     8
 73
     4
 74
     0
 42
0.000000001
 43
0.0000000001
 40
0.8498868321704215
 40
0.8498868321704215
 40
0.8498868321704215
 40
0.8498868321704215
 40
0.875
 40
0.875
 40
0.875
 40
0.875
 10
909.5777590458686
 20
2008.636555281362
 30
0.0
 10
909.6432472561209
 20
2008.617384988091
 30
0.0
 10
909.7081637407653
 20
2008.596209170589
 30
0.0
 10
909.772689186912
 20
2008.573656650455
 30
0.0
  0
SPLINE
  5
158
330
87
100
AcDbEntity
  8
P-SANR-FIXT
100
AcDbSpline
210
0.0
220
0.0
230
1.0
 70
     8
 71
     3
 72
     8
 73
     4
 74
     0
 42
0.000000001
 43
0.0000000001
 40
0.9816586555482551
 40
0.9816586555482551
 40
0.9816586555482551
 40
0.9816586555482551
 40
1.0
 40
1.0
 40
1.0
 40
1.0
 10
910.5914456508317
 20
2008.272606992347
 30
0.0
 10
910.6375801657996
 20
2008.252842309664
 30
0.0
 10
910.6835759036981
 20
2008.232677828868
 30
0.0
 10
910.7294270636881
 20
2008.212113919462
 30
0.0
  0
SPLINE
  5
159
330
87
100
AcDbEntity
  8
P-SANR-FIXT
100
AcDbSpline
210
0.0
220
0.0
230
1.0
 70
     8
 71
     3
 72
     9
 73
     5
 74
     0
 42
0.000000001
 43
0.0000000001
 40
0.0
 40
0.0
 40
0.0
 40
0.0
 40
0.5
 40
1.0
 40
1.0
 40
1.0
 40
1.0
 10
910.7294270636883
 20
2023.817448578263
 30
0.0
 10
910.021718831566
 20
2024.503793906142
 30
0.0
 10
908.9502520291549
 20
2025.59740061069
 30
0.0
 10
908.5666845504112
 20
2025.999999999995
 30
0.0
 10
908.5468756419558
 20
2025.999999999995
 30
0.0
  0
ARC
  5
15A
330
87
100
AcDbEntity
  8
P-SANR-FIXT
100
AcDbCircle
 10
907.0468756419558
 20
1999.999999999995
 30
0.0
 40
9.0
100
AcDbArc
 50
147.2660444507322
 51
152.7339555492691
  0
LINE
  5
15B
330
87
100
AcDbEntity
  8
P-SANR-FIXT
100
AcDbLine
 10
899.0468756419558
 20
1995.876894374377
 30
0.0
 11
899.0468756419558
 21
2004.123105625613
 31
0.0
  0
ARC
  5
15C
330
87
100
AcDbEntity
  8
P-SANR-FIXT
100
AcDbCircle
 10
907.0468756419558
 20
1999.999999999995
 30
0.0
 40
8.999999999999996
100
AcDbArc
 50
207.2660444507324
 51
212.7339555492678
  0
LINE
  5
15D
330
87
100
AcDbEntity
  8
P-SANR-FIXT
100
AcDbLine
 10
906.6175898562271
 20
1991.010243956911
 30
0.0
 11
899.4761614276843
 21
1995.133349582528
 31
0.0
  0
ARC
  5
15E
330
87
100
AcDbEntity
  8
P-SANR-FIXT
100
AcDbCircle
 10
907.0468756419558
 20
1999.999999999995
 30
0.0
 40
8.999999999999964
100
AcDbArc
 50
267.2660444507319
 51
272.7339555492667
  0
LINE
  5
15F
330
87
100
AcDbEntity
  8
P-SANR-FIXT
100
AcDbLine
 10
914.6175898562272
 20
1995.133349582528
 30
0.0
 11
907.4761614276843
 21
1991.010243956911
 31
0.0
  0
ARC
  5
160
330
87
100
AcDbEntity
  8
P-SANR-FIXT
100
AcDbCircle
 10
907.0468756419558
 20
1999.999999999995
 30
0.0
 40
9.0
100
AcDbArc
 50
327.2660444507331
 51
332.7339555492657
  0
LINE
  5
161
330
87
100
AcDbEntity
  8
P-SANR-FIXT
100
AcDbLine
 10
915.0468756419556
 20
2004.123105625613
 30
0.0
 11
915.0468756419556
 21
1995.876894374377
 31
0.0
  0
ARC
  5
162
330
87
100
AcDbEntity
  8
P-SANR-FIXT
100
AcDbCircle
 10
907.0468756419558
 20
1999.999999999995
 30
0.0
 40
8.999999999999895
100
AcDbArc
 50
27.26604445073387
 51
32.73395554926754
  0
LINE
  5
163
330
87
100
AcDbEntity
  8
P-SANR-FIXT
100
AcDbLine
 10
907.4761614276843
 20
2008.989756043079
 30
0.0
 11
914.6175898562272
 21
2004.866650417462
 31
0.0
  0
ARC
  5
164
330
87
100
AcDbEntity
  8
P-SANR-FIXT
100
AcDbCircle
 10
907.0468756419558
 20
1999.999999999995
 30
0.0
 40
8.999999999999952
100
AcDbArc
 50
87.26604445073368
 51
92.73395554926777
  0
LINE
  5
165
330
87
100
AcDbEntity
  8
P-SANR-FIXT
100
AcDbLine
 10
899.4761614276843
 20
2004.866650417462
 30
0.0
 11
906.6175898562271
 21
2008.989756043079
 31
0.0
  0
LINE
  5
166
330
87
100
AcDbEntity
  8
P-SANR-FIXT
100
AcDbLine
 10
910.7294270636883
 20
1973.999999999995
 30
0.0
 11
910.7294270636883
 21
1991.787886080528
 31
0.0
  0
SPLINE
  5
167
330
87
100
AcDbEntity
  8
P-SANR-FIXT
100
AcDbSpline
210
0.0
220
0.0
230
1.0
 70
     8
 71
     3
 72
     9
 73
     5
 74
     0
 42
0.000000001
 43
0.0000000001
 40
-1.0
 40
-1.0
 40
-1.0
 40
-1.0
 40
-0.5
 40
0.0
 40
0.0
 40
0.0
 40
0.0
 10
911.3468756419559
 20
2022.638241981209
 30
0.0
 10
911.2410831962113
 20
2022.84339168407
 30
0.0
 10
911.0319819828061
 20
2023.245075819772
 30
0.0
 10
910.8290439796439
 20
2023.629529415439
 30
0.0
 10
910.7294270636883
 20
2023.817448578263
 30
0.0
  0
LINE
  5
168
330
87
100
AcDbEntity
  8
P-SANR-FIXT
100
AcDbLine
 10
910.7294270636883
 20
2008.212113919462
 30
0.0
 11
910.7294270636883
 21
2023.817448578263
 31
0.0
  0
SPLINE
  5
169
330
87
100
AcDbEntity
  8
P-SANR-FIXT
100
AcDbSpline
210
0.0
220
0.0
230
1.0
 70
     8
 71
     3
 72
    30
 73
    26
 74
     0
 42
0.000000001
 43
0.0000000001
 40
0.0
 40
0.0
 40
0.0
 40
0.0
 40
0.1
 40
0.15
 40
0.175
 40
0.2
 40
0.225
 40
0.25
 40
0.3
 40
0.35
 40
0.375
 40
0.3875
 40
0.4
 40
0.4125
 40
0.425
 40
0.45
 40
0.5
 40
0.55
 40
0.6
 40
0.65
 40
0.7
 40
0.75
 40
0.8
 40
0.9
 40
1.0
 40
1.0
 40
1.0
 40
1.0
 10
929.4724298594088
 20
1999.999999999995
 30
0.0
 10
929.1329709232645
 20
2001.067613715878
 30
0.0
 10
928.534114912723
 20
2002.619622961879
 30
0.0
 10
927.6796420038749
 20
2004.326466194474
 30
0.0
 10
927.1455858974963
 20
2005.269779088733
 30
0.0
 10
926.7256418031609
 20
2005.962719822999
 30
0.0
 10
926.2720146504491
 20
2006.633272967551
 30
0.0
 10
925.6145321190849
 20
2007.49332667976
 30
0.0
 10
924.7240062804335
 20
2008.52023137454
 30
0.0
 10
923.7960653876351
 20
2009.509926658509
 30
0.0
 10
923.1571970376386
 20
2010.197383871398
 30
0.0
 10
922.799014228841
 20
2010.590307265761
 30
0.0
 10
922.5359496460816
 20
2010.886055232365
 30
0.0
 10
922.2751641622123
 20
2011.180982016014
 30
0.0
 10
921.9250013659687
 20
2011.570225089659
 30
0.0
 10
921.3102712780639
 20
2012.24330293638
 30
0.0
 10
920.4297064787375
 20
2013.183374824453
 30
0.0
 10
919.3827449573857
 20
2014.283440723184
 30
0.0
 10
918.3668639048448
 20
2015.364485953541
 30
0.0
 10
917.3722890085072
 20
2016.418279746583
 30
0.0
 10
916.3889529184848
 20
2017.433862964972
 30
0.0
 10
915.4365193881615
 20
2018.414599894567
 30
0.0
 10
914.2301422759476
 20
2019.675405528028
 30
0.0
 10
912.8379963782705
 20
2021.146505910221
 30
0.0
 10
911.8257749050625
 20
2022.17158392335
 30
0.0
 10
911.3468756419557
 20
2022.638241981209
 30
0.0
  0
LINE
  5
16A
330
87
100
AcDbEntity
  8
P-SANR-FIXT
100
AcDbLine
 10
911.3468756419557
 20
2007.906326580652
 30
0.0
 11
911.3468756419557
 21
2022.638241981209
 31
0.0
  0
SPLINE
  5
16B
330
87
100
AcDbEntity
  8
P-SANR-FIXT
100
AcDbSpline
210
0.0
220
0.0
230
1.0
 70
     8
 71
     3
 72
     8
 73
     4
 74
     0
 42
0.000000001
 43
0.0000000001
 40
0.0
 40
0.0
 40
0.0
 40
0.0
 40
0.0242813062855844
 40
0.0242813062855844
 40
0.0242813062855844
 40
0.0242813062855844
 10
911.3468756419557
 20
2007.906326580652
 30
0.0
 10
911.4162189011599
 20
2007.868239039257
 30
0.0
 10
911.4849537627799
 20
2007.829364684355
 30
0.0
 10
911.5530704025459
 20
2007.789710863534
 30
0.0
  0
SPLINE
  5
16C
330
87
100
AcDbEntity
  8
P-SANR-FIXT
100
AcDbSpline
210
0.0
220
0.0
230
1.0
 70
     8
 71
     3
 72
     8
 73
     4
 74
     0
 42
0.000000001
 43
0.0000000001
 40
0.1
 40
0.1
 40
0.1
 40
0.1
 40
0.135709516218904
 40
0.135709516218904
 40
0.135709516218904
 40
0.135709516218904
 10
912.1719806844458
 20
2007.396225417146
 30
0.0
 10
912.2663460717642
 20
2007.330863848736
 30
0.0
 10
912.3585849523651
 20
2007.263476283716
 30
0.0
 10
912.4489243045154
 20
2007.194225251499
 30
0.0
  0
SPLINE
  5
16D
330
87
100
AcDbEntity
  8
P-SANR-FIXT
100
AcDbSpline
210
0.0
220
0.0
230
1.0
 70
     8
 71
     3
 72
     8
 73
     4
 74
     0
 42
0.000000001
 43
0.0000000001
 40
0.2
 40
0.2
 40
0.2
 40
0.2
 40
0.2479497056377094
 40
0.2479497056377094
 40
0.2479497056377094
 40
0.2479497056377094
 10
912.9310533870134
 20
2006.809132067993
 30
0.0
 10
913.0468813396007
 20
2006.709306703846
 30
0.0
 10
913.1586352020409
 20
2006.605984855518
 30
0.0
 10
913.2672361769373
 20
2006.499700815848
 30
0.0
  0
SPLINE
  5
16E
330
87
100
AcDbEntity
  8
P-SANR-FIXT
100
AcDbSpline
210
0.0
220
0.0
230
1.0
 70
     8
 71
     3
 72
     8
 73
     4
 74
     0
 42
0.000000001
 43
0.0000000001
 40
0.357170316621698
 40
0.357170316621698
 40
0.357170316621698
 40
0.357170316621698
 40
0.4
 40
0.4
 40
0.4
 40
0.4
 10
913.9807333183236
 20
2005.73820576762
 30
0.0
 10
914.0677266334979
 20
2005.632997765541
 30
0.0
 10
914.1510801408994
 20
2005.525173531441
 30
0.0
 10
914.2346317053975
 20
2005.416286806697
 30
0.0
  0
SPLINE
  5
16F
330
87
100
AcDbEntity
  8
P-SANR-FIXT
100
AcDbSpline
210
0.0
220
0.0
230
1.0
 70
     8
 71
     3
 72
     8
 73
     4
 74
     0
 42
0.000000001
 43
0.0000000001
 40
0.5581358072374098
 40
0.5581358072374098
 40
0.5581358072374098
 40
0.5581358072374098
 40
0.6
 40
0.6
 40
0.6
 40
0.6
 10
915.0429159927236
 20
2004.127829316392
 30
0.0
 10
915.1047462953853
 20
2004.008054855286
 30
0.0
 10
915.1666038845759
 20
2003.88759382112
 30
0.0
 10
915.2260502405475
 20
2003.76594199011
 30
0.0
  0
SPLINE
  5
170
330
87
100
AcDbEntity
  8
P-SANR-FIXT
100
AcDbSpline
210
0.0
220
0.0
230
1.0
 70
     8
 71
     3
 72
     8
 73
     4
 74
     0
 42
0.000000001
 43
0.0000000001
 40
0.6691512007715527
 40
0.6691512007715527
 40
0.6691512007715527
 40
0.6691512007715527
 40
0.7
 40
0.7
 40
0.7
 40
0.7
 10
915.4777299488005
 20
2003.147713417321
 30
0.0
 10
915.5125648739122
 20
2003.054658256823
 30
0.0
 10
915.5473065678531
 20
2002.961396132553
 30
0.0
 10
915.5775354832854
 20
2002.866926054822
 30
0.0
  0
SPLINE
  5
171
330
87
100
AcDbEntity
  8
P-SANR-FIXT
100
AcDbSpline
210
0.0
220
0.0
230
1.0
 70
     8
 71
     3
 72
     8
 73
     4
 74
     0
 42
0.000000001
 43
0.0000000001
 40
0.7797637680145201
 40
0.7797637680145201
 40
0.7797637680145201
 40
0.7797637680145201
 40
0.8
 40
0.8
 40
0.8
 40
0.8
 10
915.791383704826
 20
2002.127213135402
 30
0.0
 10
915.8067582613531
 20
2002.063874411975
 30
0.0
 10
915.8201785857894
 20
2002.000070086701
 30
0.0
 10
915.8319921569386
 20
2001.935882566113
 30
0.0
  0
SPLINE
  5
172
330
87
100
AcDbEntity
  8
P-SANR-FIXT
100
AcDbSpline
210
0.0
220
0.0
230
1.0
 70
     8
 71
     3
 72
     8
 73
     4
 74
     0
 42
0.000000001
 43
0.0000000001
 40
0.8905292822832679
 40
0.8905292822832679
 40
0.8905292822832679
 40
0.8905292822832679
 40
0.9
 40
0.9
 40
0.9
 40
0.9
 10
915.9817005321945
 20
2001.071106489928
 30
0.0
 10
915.9853476869486
 20
2001.040580048314
 30
0.0
 10
915.9885624526213
 20
2001.009965451591
 30
0.0
 10
915.991417361582
 20
2000.979277450819
 30
0.0
  0
SPLINE
  5
173
330
87
100
AcDbEntity
  8
P-SANR-FIXT
100
AcDbSpline
210
0.0
220
0.0
230
1.0
 70
     8
 71
     3
 72
     8
 73
     4
 74
     0
 42
0.000000001
 43
0.0000000001
 40
0.1
 40
0.1
 40
0.1
 40
0.1
 40
0.1094707177167628
 40
0.1094707177167628
 40
0.1094707177167628
 40
0.1094707177167628
 10
915.9930132985609
 20
1999.023022539313
 30
0.0
 10
915.9897099072695
 20
1998.992541918212
 30
0.0
 10
915.9862744157884
 20
1998.962080292616
 30
0.0
 10
915.9827007467734
 20
1998.931641082105
 30
0.0
  0
SPLINE
  5
174
330
87
100
AcDbEntity
  8
P-SANR-FIXT
100
AcDbSpline
210
0.0
220
0.0
230
1.0
 70
     8
 71
     3
 72
     8
 73
     4
 74
     0
 42
0.000000001
 43
0.0000000001
 40
0.2
 40
0.2
 40
0.2
 40
0.2
 40
0.2202362319855007
 40
0.2202362319855007
 40
0.2202362319855007
 40
0.2202362319855007
 10
915.8370354972802
 20
1998.067879476363
 30
0.0
 10
915.823032337653
 20
1998.004114948591
 30
0.0
 10
915.8080950910402
 20
1997.940646469271
 30
0.0
 10
915.7922992192654
 20
1997.877442744369
 30
0.0
  0
SPLINE
  5
175
330
87
100
AcDbEntity
  8
P-SANR-FIXT
100
AcDbSpline
210
0.0
220
0.0
230
1.0
 70
     8
 71
     3
 72
     8
 73
     4
 74
     0
 42
0.000000001
 43
0.0000000001
 40
0.3
 40
0.3
 40
0.3
 40
0.3
 40
0.3308487992284734
 40
0.3308487992284734
 40
0.3308487992284734
 40
0.3308487992284734
 10
915.5783824071463
 20
1997.134296080121
 30
0.0
 10
915.5466214014566
 20
1997.039749873961
 30
0.0
 10
915.5127643364044
 20
1996.946176889886
 30
0.0
 10
915.47732608475
 20
1996.853233313774
 30
0.0
  0
SPLINE
  5
176
330
87
100
AcDbEntity
  8
P-SANR-FIXT
100
AcDbSpline
210
0.0
220
0.0
230
1.0
 70
     8
 71
     3
 72
     8
 73
     4
 74
     0
 42
0.000000001
 43
0.0000000001
 40
0.4
 40
0.4
 40
0.4
 40
0.4
 40
0.4418641927626041
 40
0.4418641927626041
 40
0.4418641927626041
 40
0.4418641927626041
 10
915.2209728449333
 20
1996.233816930059
 30
0.0
 10
915.1644410709838
 20
1996.111141742989
 30
0.0
 10
915.10718266818
 20
1995.987968952902
 30
0.0
 10
915.0484460195226
 20
1995.865194074903
 30
0.0
  0
SPLINE
  5
177
330
87
100
AcDbEntity
  8
P-SANR-FIXT
100
AcDbSpline
210
0.0
220
0.0
230
1.0
 70
     8
 71
     3
 72
     8
 73
     4
 74
     0
 42
0.000000001
 43
0.0000000001
 40
0.6
 40
0.6
 40
0.6
 40
0.6
 40
0.6428296833783214
 40
0.6428296833783214
 40
0.6428296833783214
 40
0.6428296833783214
 10
914.2331579475756
 20
1994.582292800533
 30
0.0
 10
914.1506697274143
 20
1994.472834111568
 30
0.0
 10
914.0676462727473
 20
1994.363310958161
 30
0.0
 10
913.9817700728784
 20
1994.256463753463
 30
0.0
  0
SPLINE
  5
178
330
87
100
AcDbEntity
  8
P-SANR-FIXT
100
AcDbSpline
210
0.0
220
0.0
230
1.0
 70
     8
 71
     3
 72
     8
 73
     4
 74
     0
 42
0.000000001
 43
0.0000000001
 40
0.7520502943623151
 40
0.7520502943623151
 40
0.7520502943623151
 40
0.7520502943623151
 40
0.8
 40
0.8
 40
0.8
 40
0.8
 10
913.2675605136222
 20
1993.496281028218
 30
0.0
 10
913.1572783743894
 20
1993.390917082464
 30
0.0
 10
913.0401809690459
 20
1993.293121388684
 30
0.0
 10
912.9187044248617
 20
1993.200180434672
 30
0.0
  0
SPLINE
  5
179
330
87
100
AcDbEntity
  8
P-SANR-FIXT
100
AcDbSpline
210
0.0
220
0.0
230
1.0
 70
     8
 71
     3
 72
     8
 73
     4
 74
     0
 42
0.000000001
 43
0.0000000001
 40
0.8642904837811183
 40
0.8642904837811183
 40
0.8642904837811183
 40
0.8642904837811183
 40
0.9
 40
0.9
 40
0.9
 40
0.9
 10
912.4494139310209
 20
1992.803462059911
 30
0.0
 10
912.3580752747335
 20
1992.735019774151
 30
0.0
 10
912.2632515019535
 20
1992.670608931939
 30
0.0
 10
912.1665792090594
 20
1992.6083321072
 30
0.0
  0
SPLINE
  5
17A
330
87
100
AcDbEntity
  8
P-SANR-FIXT
100
AcDbSpline
210
0.0
220
0.0
230
1.0
 70
     8
 71
     3
 72
     8
 73
     4
 74
     0
 42
0.000000001
 43
0.0000000001
 40
0.9757186937144204
 40
0.9757186937144204
 40
0.9757186937144204
 40
0.9757186937144204
 40
1.0
 40
1.0
 40
1.0
 40
1.0
 10
911.5530067239388
 20
1992.210231137066
 30
0.0
 10
911.4849312166981
 20
1992.170614752432
 30
0.0
 10
911.4162189011599
 20
1992.131760960733
 30
0.0
 10
911.3468756419557
 20
1992.093673419338
 30
0.0
  0
LINE
  5
17B
330
87
100
AcDbEntity
  8
P-SANR-FIXT
100
AcDbLine
 10
911.3468756419557
 20
1974.499999999995
 30
0.0
 11
911.3468756419557
 21
1992.093673419338
 31
0.0
  0
SPLINE
  5
17C
330
87
100
AcDbEntity
  8
P-SANR-FIXT
100
AcDbSpline
210
0.0
220
0.0
230
1.0
 70
     8
 71
     3
 72
    24
 73
    20
 74
     0
 42
0.000000001
 43
0.0000000001
 40
-1.0
 40
-1.0
 40
-1.0
 40
-1.0
 40
-0.8333333333333332
 40
-0.75
 40
-0.7083333333333333
 40
-0.6666666666666666
 40
-0.625
 40
-0.5833333333333333
 40
-0.5
 40
-0.4166666666666666
 40
-0.375
 40
-0.3541666666666666
 40
-0.3333333333333333
 40
-0.3125
 40
-0.2916666666666666
 40
-0.25
 40
-0.1666666666666666
 40
-0.0833333333333333
 40
0.0
 40
0.0
 40
0.0
 40
0.0
 10
952.6498590997716
 20
2005.503208550432
 30
0.0
 10
952.317362699833
 20
2005.305507434819
 30
0.0
 10
951.8130292353012
 20
2004.989548730664
 30
0.0
 10
951.2184697486913
 20
2004.586552795178
 30
0.0
 10
950.8768545019909
 20
2004.3469217254
 30
0.0
 10
950.6212633587116
 20
2004.161219847274
 30
0.0
 10
950.3604629580266
 20
2003.974876952816
 30
0.0
 10
950.0024335623686
 20
2003.728455877736
 30
0.0
 10
949.5480692058329
 20
2003.413022602488
 30
0.0
 10
949.1086231583302
 20
2003.06746587069
 30
0.0
 10
948.8231130388621
 20
2002.798442030587
 30
0.0
 10
948.6682045887084
 20
2002.635504412728
 30
0.0
 10
948.5570553898465
 20
2002.507971635924
 30
0.0
 10
948.4498774836186
 20
2002.376047729114
 30
0.0
 10
948.310195071655
 20
2002.196073496014
 30
0.0
 10
948.0756676155953
 20
2001.869279570465
 30
0.0
 10
947.7688462400296
 20
2001.369186400409
 30
0.0
 10
947.447618164789
 20
2000.715700449617
 30
0.0
 10
947.2656072633132
 20
2000.244493588015
 30
0.0
 10
947.1828189185961
 20
1999.999999999995
 30
0.0
  0
SPLINE
  5
17D
330
87
100
AcDbEntity
  8
P-SANR-FIXT
100
AcDbSpline
210
0.0
220
0.0
230
1.0
 70
     8
 71
     3
 72
     8
 73
     4
 74
     0
 42
0.000000001
 43
0.0000000001
 40
-0.75
 40
-0.75
 40
-0.75
 40
-0.75
 40
-0.7430880014907207
 40
-0.7430880014907207
 40
-0.7430880014907207
 40
-0.7430880014907207
 10
955.1455125331402
 20
1994.223208021132
 30
0.0
 10
955.133189930345
 20
1994.237932499369
 30
0.0
 10
955.1209181161819
 20
1994.252693295667
 30
0.0
 10
955.1086763164327
 20
1994.267513252026
 30
0.0
  0
SPLINE
  5
17E
330
87
100
AcDbEntity
  8
P-SANR-FIXT
100
AcDbSpline
210
0.0
220
0.0
230
1.0
 70
     8
 71
     3
 72
     8
 73
     4
 74
     0
 42
0.000000001
 43
0.0000000001
 40
-0.625
 40
-0.625
 40
-0.625
 40
-0.625
 40
-0.6163099383857258
 40
-0.6163099383857258
 40
-0.6163099383857258
 40
-0.6163099383857258
 10
954.516279883399
 20
1995.07149845072
 30
0.0
 10
954.5029464191371
 20
1995.09187083632
 30
0.0
 10
954.4897161906622
 20
1995.112265553656
 30
0.0
 10
954.4765847166832
 20
1995.132688665403
 30
0.0
  0
SPLINE
  5
17F
330
87
100
AcDbEntity
  8
P-SANR-FIXT
100
AcDbSpline
210
0.0
220
0.0
230
1.0
 70
     8
 71
     3
 72
     8
 73
     4
 74
     0
 42
0.000000001
 43
0.0000000001
 40
-0.5132151857228847
 40
-0.5132151857228847
 40
-0.5132151857228847
 40
-0.5132151857228847
 40
-0.5
 40
-0.5
 40
-0.5
 40
-0.5
 10
954.0473830489908
 20
1995.87591125428
 30
0.0
 10
954.03064182678
 20
1995.908383938339
 30
0.0
 10
954.0141072179926
 20
1995.940940963155
 30
0.0
 10
953.997783296071
 20
1995.973573245735
 30
0.0
  0
SPLINE
  5
180
330
87
100
AcDbEntity
  8
P-SANR-FIXT
100
AcDbSpline
210
0.0
220
0.0
230
1.0
 70
     8
 71
     3
 72
     8
 73
     4
 74
     0
 42
0.000000001
 43
0.0000000001
 40
-0.3834299306008178
 40
-0.3834299306008178
 40
-0.3834299306008178
 40
-0.3834299306008178
 40
-0.375
 40
-0.375
 40
-0.375
 40
-0.375
 10
953.6143216091051
 20
1996.854839925014
 30
0.0
 10
953.6062139242424
 20
1996.876577477725
 30
0.0
 10
953.5981880339205
 20
1996.898352585247
 30
0.0
 10
953.5902444772814
 20
1996.92016407179
 30
0.0
  0
SPLINE
  5
181
330
87
100
AcDbEntity
  8
P-SANR-FIXT
100
AcDbSpline
210
0.0
220
0.0
230
1.0
 70
     8
 71
     3
 72
     8
 73
     4
 74
     0
 42
0.000000001
 43
0.0000000001
 40
-0.2540973057099352
 40
-0.2540973057099352
 40
-0.2540973057099352
 40
-0.2540973057099352
 40
-0.25
 40
-0.25
 40
-0.25
 40
-0.25
 10
953.3005279087337
 20
1997.878349115076
 30
0.0
 10
953.2978466816569
 20
1997.889402338611
 30
0.0
 10
953.295186990365
 20
1997.900463709413
 30
0.0
 10
953.2925451170051
 20
1997.911532365599
 30
0.0
  0
SPLINE
  5
182
330
87
100
AcDbEntity
  8
P-SANR-FIXT
100
AcDbSpline
210
0.0
220
0.0
230
1.0
 70
     8
 71
     3
 72
     8
 73
     4
 74
     0
 42
0.000000001
 43
0.0000000001
 40
-0.75
 40
-0.75
 40
-0.75
 40
-0.75
 40
-0.745902694290086
 40
-0.745902694290086
 40
-0.745902694290086
 40
-0.745902694290086
 10
953.2925451170051
 20
2002.088467634391
 30
0.0
 10
953.2951857362041
 20
2002.099536564162
 30
0.0
 10
953.2978466816571
 20
2002.110597661379
 30
0.0
 10
953.3005279087337
 20
2002.121650884915
 30
0.0
  0
SPLINE
  5
183
330
87
100
AcDbEntity
  8
P-SANR-FIXT
100
AcDbSpline
210
0.0
220
0.0
230
1.0
 70
     8
 71
     3
 72
     8
 73
     4
 74
     0
 42
0.000000001
 43
0.0000000001
 40
-0.625
 40
-0.625
 40
-0.625
 40
-0.625
 40
-0.6165700693991871
 40
-0.6165700693991871
 40
-0.6165700693991871
 40
-0.6165700693991871
 10
953.5902444772814
 20
2003.0798359282
 30
0.0
 10
953.5981879977684
 20
2003.101647424538
 30
0.0
 10
953.6062139242867
 20
2003.12342252231
 30
0.0
 10
953.6143216091737
 20
2003.145160075045
 30
0.0
  0
SPLINE
  5
184
330
87
100
AcDbEntity
  8
P-SANR-FIXT
100
AcDbSpline
210
0.0
220
0.0
230
1.0
 70
     8
 71
     3
 72
     8
 73
     4
 74
     0
 42
0.000000001
 43
0.0000000001
 40
-0.5
 40
-0.5
 40
-0.5
 40
-0.5
 40
-0.4867848142771219
 40
-0.4867848142771219
 40
-0.4867848142771219
 40
-0.4867848142771219
 10
953.9977832960712
 20
2004.026426754255
 30
0.0
 10
954.0141072229195
 20
2004.059059042504
 30
0.0
 10
954.0306418417252
 20
2004.091616076712
 30
0.0
 10
954.0473830694013
 20
2004.124088766285
 30
0.0
  0
SPLINE
  5
185
330
87
100
AcDbEntity
  8
P-SANR-FIXT
100
AcDbSpline
210
0.0
220
0.0
230
1.0
 70
     8
 71
     3
 72
     8
 73
     4
 74
     0
 42
0.000000001
 43
0.0000000001
 40
-0.3836900616142811
 40
-0.3836900616142811
 40
-0.3836900616142811
 40
-0.3836900616142811
 40
-0.375
 40
-0.375
 40
-0.375
 40
-0.375
 10
954.4765835132503
 20
2004.867310123279
 30
0.0
 10
954.4897151313158
 20
2004.887733380059
 30
0.0
 10
954.5029457213013
 20
2004.908128460832
 30
0.0
 10
954.516279883399
 20
2004.928501549271
 30
0.0
  0
SPLINE
  5
186
330
87
100
AcDbEntity
  8
P-SANR-FIXT
100
AcDbSpline
210
0.0
220
0.0
230
1.0
 70
     8
 71
     3
 72
     8
 73
     4
 74
     0
 42
0.000000001
 43
0.0000000001
 40
-0.2569119985092734
 40
-0.2569119985092734
 40
-0.2569119985092734
 40
-0.2569119985092734
 40
-0.25
 40
-0.25
 40
-0.25
 40
-0.25
 10
955.1085300139316
 20
2005.732320654732
 30
0.0
 10
955.1207335184979
 20
2005.747092974602
 30
0.0
 10
955.1329814895444
 20
2005.761821154621
 30
0.0
 10
955.1452984042722
 20
2005.776534693119
 30
0.0
  0
SPLINE
  5
187
330
87
100
AcDbEntity
  8
P-SANR-FIXT
100
AcDbSpline
210
0.0
220
0.0
230
1.0
 70
     8
 71
     3
 72
    17
 73
    13
 74
     0
 42
0.000000001
 43
0.0000000001
 40
-1.0
 40
-1.0
 40
-1.0
 40
-1.0
 40
-0.875
 40
-0.75
 40
-0.625
 40
-0.5
 40
-0.375
 40
-0.3125
 40
-0.25
 40
-0.1875
 40
-0.125
 40
0.0
 40
0.0
 40
0.0
 40
0.0
 10
956.3867042857028
 20
2014.965307589799
 30
0.0
 10
956.2840968827266
 20
2014.526880851145
 30
0.0
 10
956.0663504021164
 20
2013.662654136928
 30
0.0
 10
955.7037964536089
 20
2012.399585626957
 30
0.0
 10
955.2900573306025
 20
2011.183614862079
 30
0.0
 10
954.8365921478957
 20
2009.998165718634
 30
0.0
 10
954.4662815565116
 20
2008.994158334266
 30
0.0
 10
954.1502354258621
 20
2008.206251183755
 30
0.0
 10
953.8916796460997
 20
2007.633617913182
 30
0.0
 10
953.6096722235056
 20
2007.080273829799
 30
0.0
 10
953.2108098468093
 20
2006.359343276871
 30
0.0
 10
952.8823906585945
 20
2005.840105747145
 30
0.0
 10
952.6498590997716
 20
2005.503208550432
 30
0.0
  0
SPLINE
  5
188
330
87
100
AcDbEntity
  8
P-SANR-FIXT
100
AcDbSpline
210
0.0
220
0.0
230
1.0
 70
     8
 71
     3
 72
     8
 73
     4
 74
     0
 42
0.000000001
 43
0.0000000001
 40
-1.0
 40
-1.0
 40
-1.0
 40
-1.0
 40
-0.7736945178348474
 40
-0.7736945178348474
 40
-0.7736945178348474
 40
-0.7736945178348474
 10
957.8853540550708
 20
1992.019916160718
 30
0.0
 10
957.7735979170237
 20
1992.078195696412
 30
0.0
 10
957.6611756332336
 20
1992.139806942491
 30
0.0
 10
957.5483341285535
 20
1992.204927314937
 30
0.0
  0
SPLINE
  5
189
330
87
100
AcDbEntity
  8
P-SANR-FIXT
100
AcDbSpline
210
0.0
220
0.0
230
1.0
 70
     8
 71
     3
 72
     8
 73
     4
 74
     0
 42
0.000000001
 43
0.0000000001
 40
-0.1777286040739915
 40
-0.1777286040739915
 40
-0.1777286040739915
 40
-0.1777286040739915
 40
0.0
 40
0.0
 40
0.0
 40
0.0
 10
956.6527797404857
 20
1992.795575367803
 30
0.0
 10
956.5638522809235
 20
1992.862157038775
 30
0.0
 10
956.4751123220855
 20
1992.931168151071
 30
0.0
 10
956.3867042857024
 20
1993.002681926772
 30
0.0
  0
SPLINE
  5
18A
330
87
100
AcDbEntity
  8
P-SANR-FIXT
100
AcDbSpline
210
0.0
220
0.0
230
1.0
 70
     8
 71
     3
 72
     9
 73
     5
 74
     0
 42
0.000000001
 43
0.0000000001
 40
-1.0
 40
-1.0
 40
-1.0
 40
-1.0
 40
-0.5
 40
0.0
 40
0.0
 40
0.0
 40
0.0
 10
957.8853540550712
 20
2021.862900528344
 30
0.0
 10
957.6214815009491
 20
2020.752914884329
 30
0.0
 10
957.0971314028433
 20
2018.493330417223
 30
0.0
 10
956.6125147174632
 20
2016.154519591966
 30
0.0
 10
956.3867042857028
 20
2014.965307589799
 30
0.0
  0
SPLINE
  5
18B
330
87
100
AcDbEntity
  8
P-SANR-FIXT
100
AcDbSpline
210
0.0
220
0.0
230
1.0
 70
     8
 71
     3
 72
     8
 73
     4
 74
     0
 42
0.000000001
 43
0.0000000001
 40
-1.0
 40
-1.0
 40
-1.0
 40
-1.0
 40
-0.8222713959258955
 40
-0.8222713959258955
 40
-0.8222713959258955
 40
-0.8222713959258955
 10
956.3867042857024
 20
2006.997318073218
 30
0.0
 10
956.4751123220856
 20
2007.068831848919
 30
0.0
 10
956.5638522809237
 20
2007.137842961215
 30
0.0
 10
956.6527797404857
 20
2007.204424632187
 30
0.0
  0
SPLINE
  5
18C
330
87
100
AcDbEntity
  8
P-SANR-FIXT
100
AcDbSpline
210
0.0
220
0.0
230
1.0
 70
     8
 71
     3
 72
     8
 73
     4
 74
     0
 42
0.000000001
 43
0.0000000001
 40
-0.2263054821651527
 40
-0.2263054821651527
 40
-0.2263054821651527
 40
-0.2263054821651527
 40
0.0
 40
0.0
 40
0.0
 40
0.0
 10
957.5483341285536
 20
2007.795072685053
 30
0.0
 10
957.6611756332338
 20
2007.860193057499
 30
0.0
 10
957.7735979170237
 20
2007.921804303578
 30
0.0
 10
957.8853540550708
 20
2007.980083839273
 30
0.0
  0
SPLINE
  5
18D
330
87
100
AcDbEntity
  8
P-SANR-FIXT
100
AcDbSpline
210
0.0
220
0.0
230
1.0
 70
     8
 71
     3
 72
     8
 73
     4
 74
     0
 42
0.000000001
 43
0.0000000001
 40
-1.0
 40
-1.0
 40
-1.0
 40
-1.0
 40
-0.8
 40
-0.8
 40
-0.8
 40
-0.8
 10
959.7647392966427
 20
1991.294148306944
 30
0.0
 10
959.6026605677378
 20
1991.336635334184
 30
0.0
 10
959.4439278915558
 20
1991.383088053326
 30
0.0
 10
959.2889578317873
 20
1991.432973371763
 30
0.0
  0
SPLINE
  5
18E
330
87
100
AcDbEntity
  8
P-SANR-FIXT
100
AcDbSpline
210
0.0
220
0.0
230
1.0
 70
     8
 71
     3
 72
     8
 73
     4
 74
     0
 42
0.000000001
 43
0.0000000001
 40
-0.4336994679954356
 40
-0.4336994679954356
 40
-0.4336994679954356
 40
-0.4336994679954356
 40
-0.4
 40
-0.4
 40
-0.4
 40
-0.4
 10
958.4993111832172
 20
1991.728690053102
 30
0.0
 10
958.4778539598872
 20
1991.737888867803
 30
0.0
 10
958.4566834721449
 20
1991.747058291488
 30
0.0
 10
958.4360339514759
 20
1991.756103937677
 30
0.0
  0
SPLINE
  5
18F
330
87
100
AcDbEntity
  8
P-SANR-FIXT
100
AcDbSpline
210
0.0
220
0.0
230
1.0
 70
     8
 71
     3
 72
    18
 73
    14
 74
     0
 42
0.000000001
 43
0.0000000001
 40
-1.0
 40
-1.0
 40
-1.0
 40
-1.0
 40
-0.8333333333333332
 40
-0.6666666666666666
 40
-0.5833333333333333
 40
-0.5
 40
-0.4166666666666666
 40
-0.3333333333333333
 40
-0.2916666666666666
 40
-0.25
 40
-0.1666666666666666
 40
-0.0833333333333333
 40
0.0
 40
0.0
 40
0.0
 40
0.0
 10
959.7647392966431
 20
2025.217863654682
 30
0.0
 10
959.6779737353315
 20
2025.132769748733
 30
0.0
 10
959.4926411802813
 20
2024.933519811269
 30
0.0
 10
959.2330171722597
 20
2024.616749866142
 30
0.0
 10
959.0130409850715
 20
2024.313803372958
 30
0.0
 10
958.8438917412268
 20
2024.060277585247
 30
0.0
 10
958.6714944021249
 20
2023.77912041798
 30
0.0
 10
958.5278162048412
 20
2023.519848109341
 30
0.0
 10
958.4143602291455
 20
2023.295547282423
 30
0.0
 10
958.3006491175124
 20
2023.06167878776
 30
0.0
 10
958.1641004807739
 20
2022.746328671303
 30
0.0
 10
958.0166280841794
 20
2022.326646357059
 30
0.0
 10
957.9272972267492
 20
2022.021795444697
 30
0.0
 10
957.8853540550712
 20
2021.862900528344
 30
0.0
  0
SPLINE
  5
190
330
87
100
AcDbEntity
  8
P-SANR-FIXT
100
AcDbSpline
210
0.0
220
0.0
230
1.0
 70
     8
 71
     3
 72
     8
 73
     4
 74
     0
 42
0.000000001
 43
0.0000000001
 40
-0.6
 40
-0.6
 40
-0.6
 40
-0.6
 40
-0.5663005320045644
 40
-0.5663005320045644
 40
-0.5663005320045644
 40
-0.5663005320045644
 10
958.4357901111582
 20
2008.243796879072
 30
0.0
 10
958.4563978229381
 20
2008.252822961542
 30
0.0
 10
958.477444920653
 20
2008.261893308177
 30
0.0
 10
958.4987855545245
 20
2008.271047300844
 30
0.0
  0
SPLINE
  5
191
330
87
100
AcDbEntity
  8
P-SANR-FIXT
100
AcDbSpline
210
0.0
220
0.0
230
1.0
 70
     8
 71
     3
 72
     8
 73
     4
 74
     0
 42
0.000000001
 43
0.0000000001
 40
-0.2
 40
-0.2
 40
-0.2
 40
-0.2
 40
0.0
 40
0.0
 40
0.0
 40
0.0
 10
959.2876149015417
 20
2008.566440983968
 30
0.0
 10
959.4428362393063
 20
2008.616442352227
 30
0.0
 10
959.6026605677378
 20
2008.663364665806
 30
0.0
 10
959.7647392966427
 20
2008.705851693046
 30
0.0
  0
SPLINE
  5
192
330
87
100
AcDbEntity
  8
P-SANR-FIXT
100
AcDbSpline
210
0.0
220
0.0
230
1.0
 70
     8
 71
     3
 72
     8
 73
     4
 74
     0
 42
0.000000001
 43
0.0000000001
 40
0.1034438078108679
 40
0.1034438078108679
 40
0.1034438078108679
 40
0.1034438078108679
 40
0.1666666666666666
 40
0.1666666666666666
 40
0.1666666666666666
 40
0.1666666666666666
 10
965.5952075213107
 20
1991.72841817799
 30
0.0
 10
965.4669703568918
 20
1991.67322262637
 30
0.0
 10
965.3377787874257
 20
1991.622474279159
 30
0.0
 10
965.2076372731981
 20
1991.575103085325
 30
0.0
  0
SPLINE
  5
193
330
87
100
AcDbEntity
  8
P-SANR-FIXT
100
AcDbSpline
210
0.0
220
0.0
230
1.0
 70
     8
 71
     3
 72
     8
 73
     4
 74
     0
 42
0.000000001
 43
0.0000000001
 40
0.2658041797833039
 40
0.2658041797833039
 40
0.2658041797833039
 40
0.2658041797833039
 40
0.3333333333333333
 40
0.3333333333333333
 40
0.3333333333333333
 40
0.3333333333333333
 10
964.5891697205279
 20
1991.365766687534
 30
0.0
 10
964.4469524276081
 20
1991.324079211547
 30
0.0
 10
964.3034305461977
 20
1991.287498425547
 30
0.0
 10
964.1586859341224
 20
1991.251271104327
 30
0.0
  0
SPLINE
  5
194
330
87
100
AcDbEntity
  8
P-SANR-FIXT
100
AcDbSpline
210
0.0
220
0.0
230
1.0
 70
     8
 71
     3
 72
     8
 73
     4
 74
     0
 42
0.000000001
 43
0.0000000001
 40
0.4277946234771785
 40
0.4277946234771785
 40
0.4277946234771785
 40
0.4277946234771785
 40
0.5
 40
0.5
 40
0.5
 40
0.5
 10
963.5440095224828
 20
1991.126493386486
 30
0.0
 10
963.3858683401291
 20
1991.100006370629
 30
0.0
 10
963.2266667375166
 20
1991.073871555015
 30
0.0
 10
963.0669317192428
 20
1991.0515482428
 30
0.0
  0
SPLINE
  5
195
330
87
100
AcDbEntity
  8
P-SANR-FIXT
100
AcDbSpline
210
0.0
220
0.0
230
1.0
 70
     8
 71
     3
 72
     8
 73
     4
 74
     0
 42
0.000000001
 43
0.0000000001
 40
0.8333333333333332
 40
0.8333333333333332
 40
0.8333333333333332
 40
0.8333333333333332
 40
0.88005564907765
 40
0.88005564907765
 40
0.88005564907765
 40
0.88005564907765
 10
960.8591943377037
 20
1991.078713553378
 30
0.0
 10
960.7568546712967
 20
1991.092454501388
 30
0.0
 10
960.6545464598072
 20
1991.110563671978
 30
0.0
 10
960.5522594507378
 20
1991.130873961563
 30
0.0
  0
SPLINE
  5
196
330
87
100
AcDbEntity
  8
P-SANR-FIXT
100
AcDbSpline
210
0.0
220
0.0
230
1.0
 70
     8
 71
     3
 72
     9
 73
     5
 74
     0
 42
0.000000001
 43
0.0000000001
 40
0.0
 40
0.0
 40
0.0
 40
0.0
 40
0.5
 40
1.0
 40
1.0
 40
1.0
 40
1.0
 10
960.5468756419559
 20
2025.999999999995
 30
0.0
 10
960.5444504798109
 20
2025.999999999995
 30
0.0
 10
960.4116692601138
 20
2025.864935681281
 30
0.0
 10
960.0230262496024
 20
2025.473441319242
 30
0.0
 10
959.7647392966429
 20
2025.217863654682
 30
0.0
  0
SPLINE
  5
197
330
87
100
AcDbEntity
  8
P-SANR-FIXT
100
AcDbSpline
210
0.0
220
0.0
230
1.0
 70
     8
 71
     3
 72
     8
 73
     4
 74
     0
 42
0.000000001
 43
0.0000000001
 40
0.1199443509223755
 40
0.1199443509223755
 40
0.1199443509223755
 40
0.1199443509223755
 40
0.1666666666666666
 40
0.1666666666666666
 40
0.1666666666666666
 40
0.1666666666666666
 10
960.5523363713892
 20
2008.874678594464
 30
0.0
 10
960.6545820877423
 20
2008.892008148469
 30
0.0
 10
960.7567493660399
 20
2008.906845521214
 30
0.0
 10
960.8589475928724
 20
2008.919646302449
 30
0.0
  0
SPLINE
  5
198
330
87
100
AcDbEntity
  8
P-SANR-FIXT
100
AcDbSpline
210
0.0
220
0.0
230
1.0
 70
     8
 71
     3
 72
     8
 73
     4
 74
     0
 42
0.000000001
 43
0.0000000001
 40
0.5
 40
0.5
 40
0.5
 40
0.5
 40
0.5722053765228475
 40
0.5722053765228475
 40
0.5722053765228475
 40
0.5722053765228475
 10
963.0671203142211
 20
2008.940633508319
 30
0.0
 10
963.2267568376523
 20
2008.922393322811
 30
0.0
 10
963.3869135219359
 20
2008.903502989106
 30
0.0
 10
963.5457866484772
 20
2008.879473589189
 30
0.0
  0
SPLINE
  5
199
330
87
100
AcDbEntity
  8
P-SANR-FIXT
100
AcDbSpline
210
0.0
220
0.0
230
1.0
 70
     8
 71
     3
 72
     8
 73
     4
 74
     0
 42
0.000000001
 43
0.0000000001
 40
0.6666666666666666
 40
0.6666666666666666
 40
0.6666666666666666
 40
0.6666666666666666
 40
0.7341958202166961
 40
0.7341958202166961
 40
0.7341958202166961
 40
0.7341958202166961
 10
964.1586859341224
 20
2008.748728895663
 30
0.0
 10
964.3034983060047
 20
2008.714071068534
 30
0.0
 10
964.4453610114625
 20
2008.670139143858
 30
0.0
 10
964.5853626749589
 20
2008.620402244785
 30
0.0
  0
SPLINE
  5
19A
330
87
100
AcDbEntity
  8
P-SANR-FIXT
100
AcDbSpline
210
0.0
220
0.0
230
1.0
 70
     8
 71
     3
 72
     8
 73
     4
 74
     0
 42
0.000000001
 43
0.0000000001
 40
0.8333333333333332
 40
0.8333333333333332
 40
0.8333333333333332
 40
0.8333333333333332
 40
0.8965561921891598
 40
0.8965561921891598
 40
0.8965561921891598
 40
0.8965561921891598
 10
965.2079117064765
 20
2008.427620965127
 30
0.0
 10
965.337904966098
 20
2008.378778182168
 30
0.0
 10
965.4660434465656
 20
2008.322774369821
 30
0.0
 10
965.5934816249052
 20
2008.264128274799
 30
0.0
  0
SPLINE
  5
19B
330
87
100
AcDbEntity
  8
P-SANR-FIXT
100
AcDbSpline
210
0.0
220
0.0
230
1.0
 70
     8
 71
     3
 72
     8
 73
     4
 74
     0
 42
0.000000001
 43
0.0000000001
 40
-1.0
 40
-1.0
 40
-1.0
 40
-1.0
 40
-0.75
 40
-0.75
 40
-0.75
 40
-0.75
 10
967.6326620795826
 20
1992.94316006464
 30
0.0
 10
967.5417399263093
 20
1992.871191345597
 30
0.0
 10
967.44386842321
 20
1992.796575547446
 30
0.0
 10
967.3390703015863
 20
1992.720384962988
 30
0.0
  0
SPLINE
  5
19C
330
87
100
AcDbEntity
  8
P-SANR-FIXT
100
AcDbSpline
210
0.0
220
0.0
230
1.0
 70
     8
 71
     3
 72
     8
 73
     4
 74
     0
 42
0.000000001
 43
0.0000000001
 40
-0.25
 40
-0.25
 40
-0.25
 40
-0.25
 40
-0.2001243120255202
 40
-0.2001243120255202
 40
-0.2001243120255202
 40
-0.2001243120255202
 10
966.6287274101414
 20
1992.253605072393
 30
0.0
 10
966.602586512622
 20
1992.238140048181
 30
0.0
 10
966.5758499153255
 20
1992.222818323322
 30
0.0
 10
966.5487376676543
 20
1992.207586801664
 30
0.0
  0
SPLINE
  5
19D
330
87
100
AcDbEntity
  8
P-SANR-FIXT
100
AcDbSpline
210
0.0
220
0.0
230
1.0
 70
     8
 71
     3
 72
     8
 73
     4
 74
     0
 42
0.000000001
 43
0.0000000001
 40
-0.7998756879744798
 40
-0.7998756879744798
 40
-0.7998756879744798
 40
-0.7998756879744798
 40
-0.75
 40
-0.75
 40
-0.75
 40
-0.75
 10
966.5496427468708
 20
2007.792637612491
 30
0.0
 10
966.5762267974107
 20
2007.777275124487
 30
0.0
 10
966.6024724466277
 20
2007.761875733332
 30
0.0
 10
966.628727410141
 20
2007.746394927597
 30
0.0
  0
SPLINE
  5
19E
330
87
100
AcDbEntity
  8
P-SANR-FIXT
100
AcDbSpline
210
0.0
220
0.0
230
1.0
 70
     8
 71
     3
 72
     8
 73
     4
 74
     0
 42
0.000000001
 43
0.0000000001
 40
-0.25
 40
-0.25
 40
-0.25
 40
-0.25
 40
0.0
 40
0.0
 40
0.0
 40
0.0
 10
967.3390703015863
 20
2007.279615037002
 30
0.0
 10
967.44386842321
 20
2007.203424452544
 30
0.0
 10
967.5417399263093
 20
2007.128808654393
 30
0.0
 10
967.6326620795826
 20
2007.05683993535
 30
0.0
  0
SPLINE
  5
19F
330
87
100
AcDbEntity
  8
P-SANR-FIXT
100
AcDbSpline
210
0.0
220
0.0
230
1.0
 70
     8
 71
     3
 72
    10
 73
     6
 74
     0
 42
0.000000001
 43
0.0000000001
 40
-1.0
 40
-1.0
 40
-1.0
 40
-1.0
 40
-0.6666666666666666
 40
-0.3333333333333333
 40
0.0
 40
0.0
 40
0.0
 40
0.0
 10
973.7968756419565
 20
1967.451085558751
 30
0.0
 10
972.5809641069204
 20
1968.890122911936
 30
0.0
 10
970.960035489443
 20
1971.783580838731
 30
0.0
 10
970.9845536892183
 20
1976.306147384029
 30
0.0
 10
972.591717703313
 20
1979.170318196631
 30
0.0
 10
973.7968756419563
 20
1980.587390214172
 30
0.0
  0
SPLINE
  5
1A0
330
87
100
AcDbEntity
  8
P-SANR-FIXT
100
AcDbSpline
210
0.0
220
0.0
230
1.0
 70
     8
 71
     3
 72
     9
 73
     5
 74
     0
 42
0.000000001
 43
0.0000000001
 40
-1.0
 40
-1.0
 40
-1.0
 40
-1.0
 40
-0.5
 40
0.0
 40
0.0
 40
0.0
 40
0.0
 10
973.7968756419563
 20
1986.863695344575
 30
0.0
 10
972.9007748272904
 20
1989.028972266021
 30
0.0
 10
971.5463406792908
 20
1993.383633296705
 30
0.0
 10
971.0674414939566
 20
1997.786508702969
 30
0.0
 10
971.0468756419556
 20
1999.999999999995
 30
0.0
  0
SPLINE
  5
1A1
330
87
100
AcDbEntity
  8
P-SANR-FIXT
100
AcDbSpline
210
0.0
220
0.0
230
1.0
 70
     8
 71
     3
 72
     8
 73
     4
 74
     0
 42
0.000000001
 43
0.0000000001
 40
-0.9166666666666666
 40
-0.9166666666666666
 40
-0.9166666666666666
 40
-0.9166666666666666
 40
-0.8872920322117961
 40
-0.8872920322117961
 40
-0.8872920322117961
 40
-0.8872920322117961
 10
971.0116802011588
 20
1999.204892205457
 30
0.0
 10
971.0035266558849
 20
1999.112952376666
 30
0.0
 10
970.9939980772524
 20
1999.021574252797
 30
0.0
 10
970.9831381828932
 20
1998.930798588838
 30
0.0
  0
SPLINE
  5
1A2
330
87
100
AcDbEntity
  8
P-SANR-FIXT
100
AcDbSpline
210
0.0
220
0.0
230
1.0
 70
     8
 71
     3
 72
     8
 73
     4
 74
     0
 42
0.000000001
 43
0.0000000001
 40
-0.7701884244197707
 40
-0.7701884244197707
 40
-0.7701884244197707
 40
-0.7701884244197707
 40
-0.75
 40
-0.75
 40
-0.75
 40
-0.75
 10
970.792709146908
 20
1997.876225335953
 30
0.0
 10
970.7784519464821
 20
1997.817514589551
 30
0.0
 10
970.7636501085882
 20
1997.759140034992
 30
0.0
 10
970.7483168604923
 20
1997.701104456401
 30
0.0
  0
SPLINE
  5
1A3
330
87
100
AcDbEntity
  8
P-SANR-FIXT
100
AcDbSpline
210
0.0
220
0.0
230
1.0
 70
     8
 71
     3
 72
     8
 73
     4
 74
     0
 42
0.000000001
 43
0.0000000001
 40
-0.6666666666666668
 40
-0.6666666666666668
 40
-0.6666666666666668
 40
-0.6666666666666668
 40
-0.6483623840979755
 40
-0.6483623840979755
 40
-0.6483623840979755
 40
-0.6483623840979755
 10
970.5322992542429
 20
1997.000407033536
 30
0.0
 10
970.5146469606804
 20
1996.950472230339
 30
0.0
 10
970.4966104268077
 20
1996.900852384493
 30
0.0
 10
970.4782035194675
 20
1996.851558940048
 30
0.0
  0
SPLINE
  5
1A4
330
87
100
AcDbEntity
  8
P-SANR-FIXT
100
AcDbSpline
210
0.0
220
0.0
230
1.0
 70
     8
 71
     3
 72
     8
 73
     4
 74
     0
 42
0.000000001
 43
0.0000000001
 40
-0.2707080741125646
 40
-0.2707080741125646
 40
-0.2707080741125646
 40
-0.2707080741125646
 40
-0.25
 40
-0.25
 40
-0.25
 40
-0.25
 10
968.9835308797334
 20
1994.26564524622
 30
0.0
 10
968.9512227786869
 20
1994.226562741693
 30
0.0
 10
968.9186358514957
 20
1994.188063298555
 30
0.0
 10
968.8859535328013
 20
1994.149614234684
 30
0.0
  0
SPLINE
  5
1A5
330
87
100
AcDbEntity
  8
P-SANR-FIXT
100
AcDbSpline
210
0.0
220
0.0
230
1.0
 70
     8
 71
     3
 72
     9
 73
     5
 74
     0
 42
0.000000001
 43
0.0000000001
 40
-0.1666666666666666
 40
-0.1666666666666666
 40
-0.1666666666666666
 40
-0.1666666666666666
 40
-0.125
 40
-0.0833333333333333
 40
-0.0833333333333333
 40
-0.0833333333333333
 40
-0.0833333333333333
 10
968.4814566214919
 20
1993.707469432122
 30
0.0
 10
968.412654525332
 20
1993.637110688693
 30
0.0
 10
968.2741663960824
 20
1993.498123034609
 30
0.0
 10
968.1322965349325
 20
1993.372373515774
 30
0.0
 10
968.0609966634271
 20
1993.310883428035
 30
0.0
  0
SPLINE
  5
1A6
330
87
100
AcDbEntity
  8
P-SANR-FIXT
100
AcDbSpline
210
0.0
220
0.0
230
1.0
 70
     8
 71
     3
 72
     9
 73
     5
 74
     0
 42
0.000000001
 43
0.0000000001
 40
-0.9166666666666666
 40
-0.9166666666666666
 40
-0.9166666666666666
 40
-0.9166666666666666
 40
-0.875
 40
-0.8333333333333333
 40
-0.8333333333333333
 40
-0.8333333333333333
 40
-0.8333333333333333
 10
968.0621521745651
 20
2006.694518476535
 30
0.0
 10
968.1329898416153
 20
2006.630867626964
 30
0.0
 10
968.2738197422436
 20
2006.500256393544
 30
0.0
 10
968.4126545263266
 20
2006.362889312224
 30
0.0
 10
968.4814566231494
 20
2006.292530569413
 30
0.0
  0
SPLINE
  5
1A7
330
87
100
AcDbEntity
  8
P-SANR-FIXT
100
AcDbSpline
210
0.0
220
0.0
230
1.0
 70
     8
 71
     3
 72
     8
 73
     4
 74
     0
 42
0.000000001
 43
0.0000000001
 40
-0.75
 40
-0.75
 40
-0.75
 40
-0.75
 40
-0.7292919258873905
 40
-0.7292919258873905
 40
-0.7292919258873905
 40
-0.7292919258873905
 10
968.8859535328013
 20
2005.850385765306
 30
0.0
 10
968.9186929252169
 20
2005.812115002768
 30
0.0
 10
968.9512227778605
 20
2005.773437257587
 30
0.0
 10
968.9835308780757
 20
2005.734354752346
 30
0.0
  0
SPLINE
  5
1A8
330
87
100
AcDbEntity
  8
P-SANR-FIXT
100
AcDbSpline
210
0.0
220
0.0
230
1.0
 70
     8
 71
     3
 72
     8
 73
     4
 74
     0
 42
0.000000001
 43
0.0000000001
 40
-0.3516376159019725
 40
-0.3516376159019725
 40
-0.3516376159019725
 40
-0.3516376159019725
 40
-0.3333333333333334
 40
-0.3333333333333334
 40
-0.3333333333333334
 40
-0.3333333333333334
 10
970.4782035276807
 20
2003.148441074849
 30
0.0
 10
970.4966104316904
 20
2003.099147624359
 30
0.0
 10
970.5146265202742
 20
2003.049517189016
 30
0.0
 10
970.5322666123619
 20
2002.999576069929
 30
0.0
  0
SPLINE
  5
1A9
330
87
100
AcDbEntity
  8
P-SANR-FIXT
100
AcDbSpline
210
0.0
220
0.0
230
1.0
 70
     8
 71
     3
 72
     8
 73
     4
 74
     0
 42
0.000000001
 43
0.0000000001
 40
-0.25
 40
-0.25
 40
-0.25
 40
-0.25
 40
-0.2298115755801782
 40
-0.2298115755801782
 40
-0.2298115755801782
 40
-0.2298115755801782
 10
970.7483168604921
 20
2002.298895543589
 30
0.0
 10
970.7636501092871
 20
2002.240859966077
 30
0.0
 10
970.7782426152723
 20
2002.182390825244
 30
0.0
 10
970.7922840045098
 20
2002.123582565705
 30
0.0
  0
SPLINE
  5
1AA
330
87
100
AcDbEntity
  8
P-SANR-FIXT
100
AcDbSpline
210
0.0
220
0.0
230
1.0
 70
     8
 71
     3
 72
     8
 73
     4
 74
     0
 42
0.000000001
 43
0.0000000001
 40
-0.1127079677881464
 40
-0.1127079677881464
 40
-0.1127079677881464
 40
-0.1127079677881464
 40
-0.0833333333333333
 40
-0.0833333333333333
 40
-0.0833333333333333
 40
-0.0833333333333333
 10
970.9831381829999
 20
2001.069201411286
 30
0.0
 10
970.9939980773732
 20
2000.978425747344
 30
0.0
 10
971.0014016294415
 20
2000.886302489516
 30
0.0
 10
971.0069666336865
 20
2000.793454996992
 30
0.0
  0
SPLINE
  5
1AB
330
87
100
AcDbEntity
  8
P-SANR-FIXT
100
AcDbSpline
210
0.0
220
0.0
230
1.0
 70
     8
 71
     3
 72
     9
 73
     5
 74
     0
 42
0.000000001
 43
0.0000000001
 40
-1.0
 40
-1.0
 40
-1.0
 40
-1.0
 40
-0.5
 40
0.0
 40
0.0
 40
0.0
 40
0.0
 10
971.0468756419556
 20
1999.999999999995
 30
0.0
 10
971.0714724538824
 20
2002.232202408695
 30
0.0
 10
971.5544025991423
 20
2006.653788926631
 30
0.0
 10
972.904805787216
 20
2010.989738845642
 30
0.0
 10
973.7968756419563
 20
2013.136304655416
 30
0.0
  0
SPLINE
  5
1AC
330
87
100
AcDbEntity
  8
P-SANR-FIXT
100
AcDbSpline
210
0.0
220
0.0
230
1.0
 70
     8
 71
     3
 72
    10
 73
     6
 74
     0
 42
0.000000001
 43
0.0000000001
 40
-1.0
 40
-1.0
 40
-1.0
 40
-1.0
 40
-0.6666666666666666
 40
-0.3333333333333333
 40
0.0
 40
0.0
 40
0.0
 40
0.0
 10
973.7968756419563
 20
2019.412609785818
 30
0.0
 10
972.5809641069202
 20
2020.851647139003
 30
0.0
 10
970.960035489443
 20
2023.745105065797
 30
0.0
 10
970.9845536892183
 20
2028.267671611096
 30
0.0
 10
972.5917177033132
 20
2031.131842423698
 30
0.0
 10
973.7968756419565
 20
2032.548914441238
 30
0.0
  0
LINE
  5
1AD
330
87
100
AcDbEntity
  8
P-SANR-FIXT
100
AcDbLine
 10
973.7968756419563
 20
1980.587390214172
 30
0.0
 11
973.7968756419563
 21
1986.863695344574
 31
0.0
  0
LINE
  5
1AE
330
87
100
AcDbEntity
  8
P-SANR-FIXT
100
AcDbLine
 10
973.7968756419563
 20
1980.587390214172
 30
0.0
 11
982.959162401684
 21
1980.587390214172
 31
0.0
  0
LINE
  5
1AF
330
87
100
AcDbEntity
  8
P-SANR-FIXT
100
AcDbLine
 10
982.959162401684
 20
1986.863695344575
 30
0.0
 11
973.7968756419563
 21
1986.863695344575
 31
0.0
  0
LINE
  5
1B0
330
87
100
AcDbEntity
  8
P-SANR-FIXT
100
AcDbLine
 10
973.7968756419563
 20
2013.136304655415
 30
0.0
 11
973.7968756419563
 21
2019.412609785818
 31
0.0
  0
LINE
  5
1B1
330
87
100
AcDbEntity
  8
P-SANR-FIXT
100
AcDbLine
 10
973.7968756419563
 20
2013.136304655416
 30
0.0
 11
982.959162401684
 21
2013.136304655416
 31
0.0
  0
LINE
  5
1B2
330
87
100
AcDbEntity
  8
P-SANR-FIXT
100
AcDbLine
 10
982.959162401684
 20
2019.412609785818
 30
0.0
 11
973.7968756419563
 21
2019.412609785818
 31
0.0
  0
LINE
  5
1B3
330
87
100
AcDbEntity
  8
P-SANR-FIXT
100
AcDbLine
 10
982.9591624016842
 20
1967.451085558751
 30
0.0
 11
973.7968756419565
 21
1967.451085558751
 31
0.0
  0
LINE
  5
1B4
330
87
100
AcDbEntity
  8
P-SANR-FIXT
100
AcDbLine
 10
973.7968756419565
 20
1967.249999999994
 30
0.0
 11
973.7968756419565
 21
1967.451085558751
 31
0.0
  0
LINE
  5
1B5
330
87
100
AcDbEntity
  8
P-SANR-FIXT
100
AcDbLine
 10
973.796875641956
 20
2032.548914441238
 30
0.0
 11
973.796875641956
 21
2032.749999999996
 31
0.0
  0
LINE
  5
1B6
330
87
100
AcDbEntity
  8
P-SANR-FIXT
100
AcDbLine
 10
973.7968756419565
 20
2032.548914441238
 30
0.0
 11
982.9591624016842
 21
2032.548914441238
 31
0.0
  0
SPLINE
  5
1B7
330
87
100
AcDbEntity
  8
P-SANR-FIXT
100
AcDbSpline
210
0.0
220
0.0
230
1.0
 70
     8
 71
     3
 72
     8
 73
     4
 74
     0
 42
0.000000001
 43
0.0000000001
 40
-0.5
 40
-0.5
 40
-0.5
 40
-0.5
 40
-0.4970646837609452
 40
-0.4970646837609452
 40
-0.4970646837609452
 40
-0.4970646837609452
 10
984.5468627193465
 20
1974.000914694536
 30
0.0
 10
984.5468627193465
 20
1974.013767763995
 30
0.0
 10
984.5468082144826
 20
1974.026621462479
 30
0.0
 10
984.5466998434533
 20
1974.039475782617
 30
0.0
  0
SPLINE
  5
1B8
330
87
100
AcDbEntity
  8
P-SANR-FIXT
100
AcDbSpline
210
0.0
220
0.0
230
1.0
 70
     8
 71
     3
 72
     8
 73
     4
 74
     0
 42
0.000000001
 43
0.0000000001
 40
-0.5
 40
-0.5
 40
-0.5
 40
-0.5
 40
-0.4985323418804751
 40
-0.4985323418804751
 40
-0.4985323418804751
 40
-0.4985323418804751
 10
984.5468627193467
 20
1999.963353616145
 30
0.0
 10
984.5468627193467
 20
1999.976206685603
 30
0.0
 10
984.5468490663611
 20
1999.989060070192
 30
0.0
 10
984.5468218404631
 20
2000.001913768064
 30
0.0
  0
SPLINE
  5
1B9
330
87
100
AcDbEntity
  8
P-SANR-FIXT
100
AcDbSpline
210
0.0
220
0.0
230
1.0
 70
     8
 71
     3
 72
     8
 73
     4
 74
     0
 42
0.000000001
 43
0.0000000001
 40
-0.5
 40
-0.5
 40
-0.5
 40
-0.5
 40
-0.4970646837609487
 40
-0.4970646837609487
 40
-0.4970646837609487
 40
-0.4970646837609487
 10
984.5468627193465
 20
2025.962438921603
 30
0.0
 10
984.5468627193465
 20
2025.975291991062
 30
0.0
 10
984.5468082144826
 20
2025.988145689545
 30
0.0
 10
984.5466998434533
 20
2026.001000009683
 30
0.0
  0
LINE
  5
1BA
330
87
100
AcDbEntity
  8
P-SANR-FIXT
100
AcDbLine
 10
982.9591624016844
 20
2032.548914441238
 30
0.0
 11
982.9591624016844
 21
2032.749999999995
 31
0.0
  0
SPLINE
  5
1BB
330
87
100
AcDbEntity
  8
P-SANR-FIXT
100
AcDbSpline
210
0.0
220
0.0
230
1.0
 70
     8
 71
     3
 72
     9
 73
     5
 74
     0
 42
0.000000001
 43
0.0000000001
 40
-1.0
 40
-1.0
 40
-1.0
 40
-1.0
 40
-0.5
 40
-0.4532652133739746
 40
-0.4532652133739746
 40
-0.4532652133739746
 40
-0.4532652133739746
 10
982.9591624016842
 20
2032.548914441238
 30
0.0
 10
984.0176292801258
 20
2030.371745793285
 30
0.0
 10
984.5963299430612
 20
2027.984399503292
 30
0.0
 10
984.5422390390561
 20
2025.589750348141
 30
0.0
 10
984.532991678475
 20
2025.385002828642
 30
0.0
  0
SPLINE
  5
1BC
330
87
100
AcDbEntity
  8
P-SANR-FIXT
100
AcDbSpline
210
0.0
220
0.0
230
1.0
 70
     8
 71
     3
 72
     8
 73
     4
 74
     0
 42
0.000000001
 43
0.0000000001
 40
-0.4479166666666661
 40
-0.4479166666666661
 40
-0.4479166666666661
 40
-0.4479166666666661
 40
0.0
 40
0.0
 40
0.0
 40
0.0
 10
984.5296350683303
 20
2025.31470395196
 30
0.0
 10
984.4308632025034
 20
2023.35224078979
 30
0.0
 10
983.9073723136213
 20
2021.384876067742
 30
0.0
 10
982.959162401684
 20
2019.412609785818
 30
0.0
  0
LINE
  5
1BD
330
87
100
AcDbEntity
  8
P-SANR-FIXT
100
AcDbLine
 10
982.959162401684
 20
2013.136304655415
 30
0.0
 11
982.959162401684
 21
2019.412609785818
 31
0.0
  0
SPLINE
  5
1BE
330
87
100
AcDbEntity
  8
P-SANR-FIXT
100
AcDbSpline
210
0.0
220
0.0
230
1.0
 70
     8
 71
     3
 72
     9
 73
     5
 74
     0
 42
0.000000001
 43
0.0000000001
 40
-1.0
 40
-1.0
 40
-1.0
 40
-1.0
 40
-0.5
 40
0.0
 40
0.0
 40
0.0
 40
0.0
 10
982.959162401684
 20
2013.136304655416
 30
0.0
 10
984.0176292801256
 20
2008.781967359509
 30
0.0
 10
985.0760961585672
 20
2000.048861845129
 30
0.0
 10
984.0176292801256
 20
1991.266894485615
 30
0.0
 10
982.959162401684
 20
1986.863695344575
 30
0.0
  0
LINE
  5
1BF
330
87
100
AcDbEntity
  8
P-SANR-FIXT
100
AcDbLine
 10
982.959162401684
 20
1980.587390214172
 30
0.0
 11
982.959162401684
 21
1986.863695344574
 31
0.0
  0
SPLINE
  5
1C0
330
87
100
AcDbEntity
  8
P-SANR-FIXT
100
AcDbSpline
210
0.0
220
0.0
230
1.0
 70
     8
 71
     3
 72
     9
 73
     5
 74
     0
 42
0.000000001
 43
0.0000000001
 40
-1.0
 40
-1.0
 40
-1.0
 40
-1.0
 40
-0.5
 40
0.0
 40
0.0
 40
0.0
 40
0.0
 10
982.959162401684
 20
1980.587390214172
 30
0.0
 10
984.0176292801256
 20
1978.410221566219
 30
0.0
 10
985.0760961585674
 20
1974.043668809028
 30
0.0
 10
984.0176292801258
 20
1969.652685129272
 30
0.0
 10
982.9591624016842
 20
1967.451085558751
 30
0.0
  0
LINE
  5
1C1
330
87
100
AcDbEntity
  8
P-SANR-FIXT
100
AcDbLine
 10
982.9591624016842
 20
1967.249999999994
 30
0.0
 11
982.9591624016842
 21
1967.451085558751
 31
0.0
  0
LINE
  5
1C2
330
87
100
AcDbEntity
  8
P-SANR-FIXT
100
AcDbLine
 10
960.5468756419559
 20
2047.499999999995
 30
0.0
 11
908.5468756419558
 21
2047.499999999995
 31
0.0
  0
LINE
  5
1C3
330
87
100
AcDbEntity
  8
P-SANR-FIXT
100
AcDbLine
 10
907.0468756419559
 20
2046.633974596211
 30
0.0
 11
962.0468756419558
 21
2046.633974596211
 31
0.0
  0
LINE
  5
1C4
330
87
100
AcDbEntity
  8
P-SANR-FIXT
100
AcDbLine
 10
907.0468756419559
 20
2042.199999999995
 30
0.0
 11
962.0468756419558
 21
2042.199999999995
 31
0.0
  0
LINE
  5
1C5
330
87
100
AcDbEntity
  8
P-SANR-FIXT
100
AcDbLine
 10
929.4724298594088
 20
1999.999999999995
 30
0.0
 11
947.1828189185959
 21
1999.999999999995
 31
0.0
  0
ARC
  5
1C6
330
87
100
AcDbEntity
  8
P-SANR-FIXT
100
AcDbCircle
 10
962.0468756419557
 20
1999.999999999995
 30
0.0
 40
9.000000000000241
100
AcDbArc
 50
332.733955549266
 51
359.9999999999992
  0
ARC
  5
1C7
330
87
100
AcDbEntity
  8
P-SANR-FIXT
100
AcDbCircle
 10
962.0468756419557
 20
1999.999999999995
 30
0.0
 40
9.000000000000095
100
AcDbArc
 50
272.7339555492667
 51
327.2660444507319
  0
ARC
  5
1C8
330
87
100
AcDbEntity
  8
P-SANR-FIXT
100
AcDbCircle
 10
962.0468756419557
 20
1999.999999999995
 30
0.0
 40
8.999999999999957
100
AcDbArc
 50
212.7339555492653
 51
267.2660444507326
  0
ARC
  5
1C9
330
87
100
AcDbEntity
  8
P-SANR-FIXT
100
AcDbCircle
 10
962.0468756419557
 20
1999.999999999995
 30
0.0
 40
8.999999999999944
100
AcDbArc
 50
180.0
 51
207.2660444507323
  0
ARC
  5
1CA
330
87
100
AcDbEntity
  8
P-SANR-FIXT
100
AcDbCircle
 10
962.0468756419557
 20
1999.999999999995
 30
0.0
 40
8.999999999999886
100
AcDbArc
 50
152.7339555492688
 51
180.0
  0
ARC
  5
1CB
330
87
100
AcDbEntity
  8
P-SANR-FIXT
100
AcDbCircle
 10
962.0468756419557
 20
1999.999999999995
 30
0.0
 40
9.000000000000062
100
AcDbArc
 50
92.73395554926706
 51
147.2660444507343
  0
ARC
  5
1CC
330
87
100
AcDbEntity
  8
P-SANR-FIXT
100
AcDbCircle
 10
962.0468756419557
 20
1999.999999999995
 30
0.0
 40
9.000000000000071
100
AcDbArc
 50
32.73395554926807
 51
87.26604445073299
  0
ARC
  5
1CD
330
87
100
AcDbEntity
  8
P-SANR-FIXT
100
AcDbCircle
 10
962.0468756419557
 20
1999.999999999995
 30
0.0
 40
9.000000000000049
100
AcDbArc
 50
0.0
 51
27.26604445073394
  0
ARC
  5
1CE
330
87
100
AcDbEntity
  8
P-SANR-FIXT
100
AcDbCircle
 10
907.0468756419558
 20
1999.999999999995
 30
0.0
 40
9.000000000000056
100
AcDbArc
 50
152.7339555492686
 51
179.9999999999996
  0
ARC
  5
1CF
330
87
100
AcDbEntity
  8
P-SANR-FIXT
100
AcDbCircle
 10
907.0468756419558
 20
1999.999999999995
 30
0.0
 40
9.0
100
AcDbArc
 50
92.73395554926775
 51
147.2660444507317
  0
ARC
  5
1D0
330
87
100
AcDbEntity
  8
P-SANR-FIXT
100
AcDbCircle
 10
907.0468756419558
 20
1999.999999999995
 30
0.0
 40
8.999999999999957
100
AcDbArc
 50
32.73395554926814
 51
87.26604445073295
  0
ARC
  5
1D1
330
87
100
AcDbEntity
  8
P-SANR-FIXT
100
AcDbCircle
 10
907.0468756419558
 20
1999.999999999995
 30
0.0
 40
8.999999999999895
100
AcDbArc
 50
0.0
 51
27.26604445073184
  0
ARC
  5
1D2
330
87
100
AcDbEntity
  8
P-SANR-FIXT
100
AcDbCircle
 10
907.0468756419558
 20
1999.999999999995
 30
0.0
 40
9.0
100
AcDbArc
 50
332.7339555492678
 51
0.0
  0
ARC
  5
1D3
330
87
100
AcDbEntity
  8
P-SANR-FIXT
100
AcDbCircle
 10
907.0468756419558
 20
1999.999999999995
 30
0.0
 40
8.999999999999937
100
AcDbArc
 50
272.7339555492667
 51
327.2660444507343
  0
ARC
  5
1D4
330
87
100
AcDbEntity
  8
P-SANR-FIXT
100
AcDbCircle
 10
907.0468756419558
 20
1999.999999999995
 30
0.0
 40
8.999999999999952
100
AcDbArc
 50
212.7339555492682
 51
267.2660444507333
  0
ARC
  5
1D5
330
87
100
AcDbEntity
  8
P-SANR-FIXT
100
AcDbCircle
 10
907.0468756419558
 20
1999.999999999995
 30
0.0
 40
9.000000000000101
100
AcDbArc
 50
180.0
 51
207.2660444507337
  0
LINE
  5
1D6
330
87
100
AcDbEntity
  8
P-SANR-FIXT
100
AcDbLine
 10
909.546875641956
 20
2050.799999999995
 30
0.0
 11
959.546875641956
 21
2050.799999999995
 31
0.0
  0
LINE
  5
1D7
330
87
100
AcDbEntity
  8
P-SANR-FIXT
100
AcDbLine
 10
908.5468756419558
 20
2049.799999999995
 30
0.0
 11
960.5468756419559
 21
2049.799999999995
 31
0.0
  0
ENDBLK
  5
1D9
330
87
100
AcDbEntity
  8
0
100
AcDbBlockEnd
  0
BLOCK
  5
2A4
330
1DB
100
AcDbEntity
  8
0
100
AcDbBlockBegin
  2
Automatic flow rate regulator valve_Caleffi_121 DN15 - 1_2__-V1-Est - Idraulica
 70
     0
 10
0.0
 20
0.0
 30
0.0
  3
Automatic flow rate regulator valve_Caleffi_121 DN15 - 1_2__-V1-Est - Idraulica
  1

  0
LWPOLYLINE
  5
1DC
330
1DB
100
AcDbEntity
  8
M-PIPE
100
AcDbPolyline
 90
       41
 70
   128
 43
0.0
 10
1004.046875641957
 20
1850.668759748035
 10
1004.266816979984
 20
1850.664360334672
 10
1004.486406458788
 20
1850.6511691327
 10
1004.705292782046
 20
1850.629207245232
 10
1004.923125778335
 20
1850.598509806602
 10
1005.13955696133
 20
1850.559125926163
 10
1005.354240087307
 20
1850.511118609722
 10
1005.56683170906
 20
1850.454564658745
 10
1005.776991725346
 20
1850.38955454749
 10
1005.98438392497
 20
1850.316192278265
 10
1006.188676524655
 20
1850.234595215052
 10
1006.38954269982
 20
1850.144893895746
 10
1006.586661107435
 20
1850.047231823322
 10
1006.779716400098
 20
1849.941765236263
 10
1006.968399730522
 20
1849.82866285861
 10
1007.15240924563
 20
1849.708105630039
 10
1007.33145056945
 20
1849.580286416399
 10
1007.505237274059
 20
1849.445409701166
 10
1007.6734913378
 20
1849.303691258311
 10
1007.835943590065
 20
1849.155357807111
 10
1007.992334141905
 20
1849.000646649445
 10
1008.142412801797
 20
1848.839805290163
 10
1008.285939475902
 20
1848.673091041128
 10
1008.422684552157
 20
1848.500770609575
 10
1008.552429267613
 20
1848.323119671434
 10
1008.674966058401
 20
1848.140422430311
 10
1008.790098891796
 20
1847.952971162816
 10
1008.897643579824
 20
1847.761065750992
 10
1008.997428073928
 20
1847.565013202558
 10
1009.089292740202
 20
1847.36512715977
 10
1009.173090614777
 20
1847.161727397658
 10
1009.24868763893
 20
1846.955139312449
 10
1009.315962873548
 20
1846.745693401011
 10
1009.374808692608
 20
1846.533724732124
 10
1009.425130955351
 20
1846.319572410439
 10
1009.466849156894
 20
1846.103579033987
 10
1009.499896557012
 20
1845.886090146096
 10
1009.524220286914
 20
1845.66745368259
 10
1009.539781433823
 20
1845.448019415171
 10
1009.546555103222
 20
1845.228138391856
 10
1009.546875641957
 20
1845.168759748036
1001
REVIT
1002
{
1070
     3
1000
963222
1002
}
  0
LWPOLYLINE
  5
1DD
330
1DB
100
AcDbEntity
  8
M-PIPE
100
AcDbPolyline
 90
       41
 70
   128
 43
0.0
 10
1009.546875641958
 20
1797.668759748035
 10
1009.546875641958
 20
1799.5682531219
 10
1009.546875641958
 20
1801.464707711571
 10
1009.546875641958
 20
1803.355089594259
 10
1009.546875641958
 20
1805.236374562212
 10
1009.546875641958
 20
1807.105552960801
 10
1009.546875641958
 20
1808.959634503324
 10
1009.546875641958
 20
1810.795653054831
 10
1009.546875641958
 20
1812.610671377301
 10
1009.546875641958
 20
1814.401785828602
 10
1009.546875641958
 20
1816.166131007696
 10
1009.546875641958
 20
1817.900884338671
 10
1009.546875641958
 20
1819.603270586256
 10
1009.546875641958
 20
1821.270566295613
 10
1009.546875641958
 20
1822.900104149277
 10
1009.546875641958
 20
1824.4892772343
 10
1009.546875641958
 20
1826.035543212749
 10
1009.546875641958
 20
1827.536428388913
 10
1009.546875641957
 20
1828.989531666681
 10
1009.546875641957
 20
1830.392528390787
 10
1009.546875641957
 20
1831.743174065763
 10
1009.546875641957
 20
1833.039307946652
 10
1009.546875641957
 20
1834.278856495737
 10
1009.546875641957
 20
1835.459836699763
 10
1009.546875641957
 20
1836.580359242333
 10
1009.546875641957
 20
1837.638631526411
 10
1009.546875641957
 20
1838.632960542094
 10
1009.546875641957
 20
1839.561755575071
 10
1009.546875641957
 20
1840.42353075142
 10
1009.546875641957
 20
1841.216907414695
 10
1009.546875641957
 20
1841.940616331479
 10
1009.546875641957
 20
1842.593499721889
 10
1009.546875641957
 20
1843.174513111774
 10
1009.546875641957
 20
1843.682727003653
 10
1009.546875641957
 20
1844.117328363713
 10
1009.546875641957
 20
1844.477621922488
 10
1009.546875641957
 20
1844.763031287141
 10
1009.546875641957
 20
1844.973099863574
 10
1009.546875641957
 20
1845.107491586876
 10
1009.546875641957
 20
1845.165991458959
 10
1009.546875641957
 20
1845.168759748036
1001
REVIT
1002
{
1070
     3
1000
963222
1002
}
  0
LWPOLYLINE
  5
1DE
330
1DB
100
AcDbEntity
  8
M-PIPE
100
AcDbPolyline
 90
       23
 70
   128
 43
0.0
 10
1009.546875641957
 20
1845.168759748036
 10
1009.546875641957
 20
1845.130764814432
 10
1009.546875641957
 20
1845.01684079741
 10
1009.546875641957
 20
1844.827169951095
 10
1009.546875641957
 20
1844.562055708378
 10
1009.546875641957
 20
1844.221922195495
 10
1009.546875641957
 20
1843.807313553507
 10
1009.546875641957
 20
1843.318893067798
 10
1009.546875641957
 20
1842.757442106952
 10
1009.546875641957
 20
1842.123858872738
 10
1009.546875641957
 20
1841.419156963173
 10
1009.546875641957
 20
1840.644463750984
 10
1009.546875641957
 20
1839.801018580052
 10
1009.546875641957
 20
1838.890170782724
 10
1009.546875641957
 20
1837.913377521173
 10
1009.546875641957
 20
1836.872201456246
 10
1009.546875641957
 20
1835.76830824754
 10
1009.546875641957
 20
1834.603463888705
 10
1009.546875641957
 20
1833.379531882228
 10
1009.546875641957
 20
1832.098470258229
 10
1009.546875641957
 20
1830.762328442026
 10
1009.546875641957
 20
1829.373243975498
 10
1009.546875641957
 20
1829.168759748036
1001
REVIT
1002
{
1070
     3
1000
963222
1002
}
  0
LINE
  5
1DF
330
1DB
100
AcDbEntity
  8
M-PIPE
100
AcDbLine
 10
1004.046875641957
 20
1850.668759748035
 30
0.0
 11
1003.046875641958
 21
1850.668759748035
 31
0.0
1001
REVIT
1002
{
1070
     3
1000
963222
1002
}
  0
LINE
  5
1E0
330
1DB
100
AcDbEntity
  8
M-PIPE
100
AcDbLine
 10
1000.046875641957
 20
1850.668759748035
 30
0.0
 11
934.5468756419574
 21
1850.668759748035
 31
0.0
1001
REVIT
1002
{
1070
     3
1000
963222
1002
}
  0
LINE
  5
1E1
330
1DB
100
AcDbEntity
  8
M-PIPE
100
AcDbLine
 10
934.5468756419572
 20
1850.668759748035
 30
0.0
 11
869.0468756419575
 21
1850.668759748035
 31
0.0
1001
REVIT
1002
{
1070
     3
1000
963222
1002
}
  0
LINE
  5
1E2
330
1DB
100
AcDbEntity
  8
M-PIPE
100
AcDbLine
 10
866.0468756419572
 20
1850.668759748035
 30
0.0
 11
865.0468756419572
 21
1850.668759748035
 31
0.0
1001
REVIT
1002
{
1070
     3
1000
963222
1002
}
  0
LWPOLYLINE
  5
1E3
330
1DB
100
AcDbEntity
  8
M-PIPE
100
AcDbPolyline
 90
       41
 70
   128
 43
0.0
 10
859.5468756419576
 20
1845.168759748035
 10
859.551275055322
 20
1845.388701086061
 10
859.5644662572929
 20
1845.608290564865
 10
859.5864281447612
 20
1845.827176888124
 10
859.6171255833915
 20
1846.045009884413
 10
859.6565094638306
 20
1846.261441067408
 10
859.7045167802713
 20
1846.476124193384
 10
859.7610707312483
 20
1846.688715815137
 10
859.826080842504
 20
1846.898875831424
 10
859.8994431117287
 20
1847.106268031048
 10
859.9810401749413
 20
1847.310560630732
 10
860.0707414942474
 20
1847.511426805898
 10
860.1684035666712
 20
1847.708545213513
 10
860.2738701537303
 20
1847.901600506175
 10
860.3869725313835
 20
1848.0902838366
 10
860.5075297599539
 20
1848.274293351708
 10
860.6353489735935
 20
1848.453334675528
 10
860.7702256888272
 20
1848.627121380136
 10
860.9119441316824
 20
1848.795375443878
 10
861.0602775828825
 20
1848.957827696143
 10
861.2149887405479
 20
1849.114218247982
 10
861.3758300998302
 20
1849.264296907875
 10
861.542544348865
 20
1849.407823581979
 10
861.7148647804182
 20
1849.544568658235
 10
861.8925157185588
 20
1849.67431337369
 10
862.0752129596825
 20
1849.796850164478
 10
862.262664227177
 20
1849.911982997873
 10
862.4545696390017
 20
1850.019527685902
 10
862.6506221874354
 20
1850.119312180005
 10
862.8505082302227
 20
1850.211176846279
 10
863.0539079923357
 20
1850.294974720855
 10
863.2604960775442
 20
1850.370571745007
 10
863.4699419889816
 20
1850.437846979626
 10
863.6819106578693
 20
1850.496692798685
 10
863.8960629795544
 20
1850.547015061429
 10
864.1120563560061
 20
1850.588733262971
 10
864.3295452438975
 20
1850.621780663089
 10
864.5481817074037
 20
1850.646104392992
 10
864.7676159748227
 20
1850.661665539901
 10
864.987496998137
 20
1850.6684392093
 10
865.0468756419574
 20
1850.668759748035
1001
REVIT
1002
{
1070
     3
1000
963222
1002
}
  0
LWPOLYLINE
  5
1E4
330
1DB
100
AcDbEntity
  8
M-PIPE
100
AcDbPolyline
 90
       23
 70
   128
 43
0.0
 10
859.5468756419572
 20
1829.168759748035
 10
859.5468756419574
 20
1830.392528390786
 10
859.5468756419574
 20
1831.743174065762
 10
859.5468756419574
 20
1833.039307946651
 10
859.5468756419574
 20
1834.278856495736
 10
859.5468756419574
 20
1835.459836699762
 10
859.5468756419574
 20
1836.580359242332
 10
859.5468756419574
 20
1837.63863152641
 10
859.5468756419574
 20
1838.632960542093
 10
859.5468756419574
 20
1839.56175557507
 10
859.5468756419574
 20
1840.423530751419
 10
859.5468756419574
 20
1841.216907414693
 10
859.5468756419574
 20
1841.940616331478
 10
859.5468756419574
 20
1842.593499721888
 10
859.5468756419574
 20
1843.174513111773
 10
859.5468756419574
 20
1843.682727003653
 10
859.5468756419574
 20
1844.117328363712
 10
859.5468756419574
 20
1844.477621922487
 10
859.5468756419574
 20
1844.76303128714
 10
859.5468756419574
 20
1844.973099863573
 10
859.5468756419574
 20
1845.107491586875
 10
859.5468756419576
 20
1845.165991458958
 10
859.5468756419576
 20
1845.168759748035
1001
REVIT
1002
{
1070
     3
1000
963222
1002
}
  0
LWPOLYLINE
  5
1E5
330
1DB
100
AcDbEntity
  8
M-PIPE
100
AcDbPolyline
 90
       41
 70
   128
 43
0.0
 10
859.5468756419576
 20
1845.168759748035
 10
859.5468756419576
 20
1845.130764814431
 10
859.5468756419576
 20
1845.016840797409
 10
859.5468756419576
 20
1844.827169951093
 10
859.5468756419576
 20
1844.562055708377
 10
859.5468756419576
 20
1844.221922195494
 10
859.5468756419576
 20
1843.807313553506
 10
859.5468756419576
 20
1843.318893067797
 10
859.5468756419576
 20
1842.757442106951
 10
859.5468756419576
 20
1842.123858872737
 10
859.5468756419576
 20
1841.419156963172
 10
859.5468756419576
 20
1840.644463750983
 10
859.5468756419576
 20
1839.801018580051
 10
859.5468756419576
 20
1838.890170782723
 10
859.5468756419576
 20
1837.913377521172
 10
859.5468756419576
 20
1836.872201456245
 10
859.5468756419576
 20
1835.768308247539
 10
859.5468756419576
 20
1834.603463888704
 10
859.5468756419576
 20
1833.379531882227
 10
859.5468756419576
 20
1832.098470258228
 10
859.5468756419576
 20
1830.762328442025
 10
859.5468756419576
 20
1829.373243975497
 10
859.5468756419576
 20
1827.933439097467
 10
859.5468756419576
 20
1826.445217188599
 10
859.5468756419576
 20
1824.910959086476
 10
859.5468756419576
 20
1823.333119276771
 10
859.5468756419576
 20
1821.714221966592
 10
859.5468756419576
 20
1820.056857046287
 10
859.5468756419576
 20
1818.363675946178
 10
859.5468756419576
 20
1816.637387394832
 10
859.5468756419576
 20
1814.880753085677
 10
859.5468756419576
 20
1813.096583258877
 10
859.5468756419576
 20
1811.287732205553
 10
859.5468756419576
 20
1809.457093701523
 10
859.5468756419576
 20
1807.607596377877
 10
859.5468756419576
 20
1805.742199035796
 10
859.5468756419576
 20
1803.863885913096
 10
859.5468756419576
 20
1801.975661910089
 10
859.5468756419576
 20
1800.08054778238
 10
859.5468756419579
 20
1798.181575308302
 10
859.5468756419579
 20
1797.668759748035
1001
REVIT
1002
{
1070
     3
1000
963222
1002
}
  0
LWPOLYLINE
  5
1E6
330
1DB
100
AcDbEntity
  8
M-PIPE
100
AcDbPolyline
 90
       77
 70
   128
 43
0.0
 10
866.0509375325984
 20
1845.703072460977
 10
866.0516730825035
 20
1845.690828010419
 10
866.0576626881766
 20
1845.631131740439
 10
866.066034716894
 20
1845.571722741451
 10
866.0767757751957
 20
1845.51269605518
 10
866.0898686796794
 20
1845.454146111732
 10
866.1052924844911
 20
1845.396166578527
 10
866.1230225148338
 20
1845.338850210448
 10
866.1430304064408
 20
1845.28228870146
 10
866.165284150953
 20
1845.22657253791
 10
866.1897481471275
 20
1845.171790853774
 10
866.2163832577887
 20
1845.11803128806
 10
866.2451468724409
 20
1845.065379844607
 10
866.2759929754374
 20
1845.013920754491
 10
866.3088722195929
 20
1844.96373634128
 10
866.3437320051311
 20
1844.914906889329
 10
866.3805165638313
 20
1844.867510515345
 10
866.4191670482459
 20
1844.821623043415
 10
866.4596216258463
 20
1844.777317883707
 10
866.5018155779369
 20
1844.734665915023
 10
866.5456814031957
 20
1844.693735371416
 10
866.5911489256595
 20
1844.654591733024
 10
866.6381454069922
 20
1844.617297621318
 10
866.6865956628488
 20
1844.581912698921
 10
866.7364221831553
 20
1844.54849357416
 10
866.7875452561082
 20
1844.517093710507
 10
866.8398830956968
 20
1844.487763341045
 10
866.8933519725426
 20
1844.460549388108
 10
866.947866347848
 20
1844.435495388215
 10
867.0033390102425
 20
1844.412641422422
 10
867.0596812152995
 20
1844.392024052198
 10
867.1168028275095
 20
1844.373676260939
 10
867.1746124644789
 20
1844.357627401195
 10
867.2330176431202
 20
1844.34390314772
 10
867.2919249276072
 20
1844.33252545639
 10
867.3512400788503
 20
1844.323512529085
 10
867.410868205261
 20
1844.316878784566
 10
867.4707139145573
 20
1844.312634835409
 10
867.5306814663702
 20
1844.310787471028
 10
867.5906749254092
 20
1844.31133964681
 10
867.6505983149384
 20
1844.314290479394
 10
867.7103557703173
 20
1844.319635248075
 10
867.7698516923646
 20
1844.327365402366
 10
867.828990900297
 20
1844.337468575666
 10
867.8876787839971
 20
1844.349928605055
 10
867.945821455371
 20
1844.364725557144
 10
868.0033258985472
 20
1844.381835759965
 10
868.060100118684
 20
1844.401231840844
 10
868.1160532891398
 20
1844.42288277019
 10
868.1710958967782
 20
1844.446753911134
 10
868.2251398851688
 20
1844.472807074943
 10
868.278098795459
 20
1844.501000582111
 10
868.3298879046896
 20
1844.531289329043
 10
868.3804243613334
 20
1844.563624860205
 10
868.4296273178405
 20
1844.597955445643
 10
868.4774180599767
 20
1844.634226163746
 10
868.5237201327488
 20
1844.672378989101
 10
868.5684594627183
 20
1844.712352885327
 10
868.6115644765006
 20
1844.754083902717
 10
868.6529662152693
 20
1844.797505280546
 10
868.6925984450743
 20
1844.842547553871
 10
868.7303977628019
 20
1844.889138664664
 10
868.7663036976074
 20
1844.937204077086
 10
868.8002588076546
 20
1844.986666896732
 10
868.8322087720109
 20
1845.037447993641
 10
868.8621024775489
 20
1845.08946612889
 10
868.8898921007169
 20
1845.14263808456
 10
868.9155331840455
 20
1845.196878796864
 10
868.9389847072716
 20
1845.252101492235
 10
868.9602091529605
 20
1845.308217826139
 10
868.9791725665271
 20
1845.365138024412
 10
868.9958446105546
 20
1845.422771026881
 10
869.0101986133292
 20
1845.481024633035
 10
869.0222116115085
 20
1845.539805649531
 10
869.0318643868581
 20
1845.599020039283
 10
869.0391414969965
 20
1845.658573071898
 10
869.0427803989825
 20
1845.703072460977
1001
REVIT
1002
{
1070
     3
1000
963222
1002
}
  0
LWPOLYLINE
  5
1E7
330
1DB
100
AcDbEntity
  8
M-PIPE
100
AcDbPolyline
 90
       77
 70
   128
 43
0.0
 10
1000.050937532598
 20
1845.703072460977
 10
1000.051673082504
 20
1845.690828010419
 10
1000.057662688177
 20
1845.63113174044
 10
1000.066034716894
 20
1845.571722741452
 10
1000.076775775196
 20
1845.51269605518
 10
1000.08986867968
 20
1845.454146111732
 10
1000.105292484491
 20
1845.396166578527
 10
1000.123022514834
 20
1845.338850210449
 10
1000.143030406441
 20
1845.28228870146
 10
1000.165284150953
 20
1845.22657253791
 10
1000.189748147128
 20
1845.171790853774
 10
1000.216383257789
 20
1845.118031288061
 10
1000.245146872441
 20
1845.065379844608
 10
1000.275992975438
 20
1845.013920754492
 10
1000.308872219593
 20
1844.963736341281
 10
1000.343732005131
 20
1844.914906889329
 10
1000.380516563831
 20
1844.867510515345
 10
1000.419167048246
 20
1844.821623043416
 10
1000.459621625846
 20
1844.777317883707
 10
1000.501815577937
 20
1844.734665915024
 10
1000.545681403195
 20
1844.693735371417
 10
1000.59114892566
 20
1844.654591733025
 10
1000.638145406992
 20
1844.617297621319
 10
1000.686595662849
 20
1844.581912698922
 10
1000.736422183155
 20
1844.548493574161
 10
1000.787545256108
 20
1844.517093710508
 10
1000.839883095697
 20
1844.487763341046
 10
1000.893351972543
 20
1844.460549388108
 10
1000.947866347848
 20
1844.435495388215
 10
1001.003339010243
 20
1844.412641422422
 10
1001.059681215299
 20
1844.392024052199
 10
1001.11680282751
 20
1844.373676260939
 10
1001.174612464479
 20
1844.357627401195
 10
1001.23301764312
 20
1844.34390314772
 10
1001.291924927607
 20
1844.33252545639
 10
1001.35124007885
 20
1844.323512529086
 10
1001.410868205261
 20
1844.316878784567
 10
1001.470713914557
 20
1844.312634835409
 10
1001.53068146637
 20
1844.310787471028
 10
1001.590674925409
 20
1844.311339646811
 10
1001.650598314939
 20
1844.314290479394
 10
1001.710355770317
 20
1844.319635248076
 10
1001.769851692364
 20
1844.327365402366
 10
1001.828990900297
 20
1844.337468575666
 10
1001.887678783997
 20
1844.349928605056
 10
1001.945821455371
 20
1844.364725557144
 10
1002.003325898547
 20
1844.381835759966
 10
1002.060100118684
 20
1844.401231840845
 10
1002.11605328914
 20
1844.422882770191
 10
1002.171095896778
 20
1844.446753911135
 10
1002.225139885169
 20
1844.472807074943
 10
1002.278098795459
 20
1844.501000582112
 10
1002.32988790469
 20
1844.531289329044
 10
1002.380424361334
 20
1844.563624860205
 10
1002.429627317841
 20
1844.597955445644
 10
1002.477418059977
 20
1844.634226163747
 10
1002.523720132749
 20
1844.672378989102
 10
1002.568459462718
 20
1844.712352885328
 10
1002.611564476501
 20
1844.754083902718
 10
1002.652966215269
 20
1844.797505280546
 10
1002.692598445074
 20
1844.842547553872
 10
1002.730397762802
 20
1844.889138664665
 10
1002.766303697607
 20
1844.937204077087
 10
1002.800258807655
 20
1844.986666896732
 10
1002.832208772011
 20
1845.037447993641
 10
1002.862102477549
 20
1845.08946612889
 10
1002.889892100717
 20
1845.142638084561
 10
1002.915533184046
 20
1845.196878796865
 10
1002.938984707272
 20
1845.252101492236
 10
1002.960209152961
 20
1845.308217826139
 10
1002.979172566527
 20
1845.365138024413
 10
1002.995844610555
 20
1845.422771026881
 10
1003.010198613329
 20
1845.481024633036
 10
1003.022211611509
 20
1845.539805649531
 10
1003.031864386858
 20
1845.599020039283
 10
1003.039141496997
 20
1845.658573071898
 10
1003.042780398983
 20
1845.703072460977
1001
REVIT
1002
{
1070
     3
1000
963222
1002
}
  0
LINE
  5
1E8
330
1DB
100
AcDbEntity
  8
M-PIPE
100
AcDbLine
 10
1004.046875641956
 20
1797.668759748034
 30
0.0
 11
1009.546875641956
 21
1797.668759748034
 31
0.0
1001
REVIT
1002
{
1070
     3
1000
963222
1002
}
  0
LINE
  5
1E9
330
1DB
100
AcDbEntity
  8
M-PIPE
100
AcDbLine
 10
1003.046875641956
 20
1850.668759748034
 30
0.0
 11
1003.046875641956
 21
1797.668759748035
 31
0.0
1001
REVIT
1002
{
1070
     3
1000
963222
1002
}
  0
LINE
  5
1EA
330
1DB
100
AcDbEntity
  8
M-PIPE
100
AcDbLine
 10
1003.046875641956
 20
1797.668759748034
 30
0.0
 11
1004.046875641956
 21
1797.668759748034
 31
0.0
1001
REVIT
1002
{
1070
     3
1000
963222
1002
}
  0
LINE
  5
1EB
330
1DB
100
AcDbEntity
  8
M-PIPE
100
AcDbLine
 10
1000.046875641956
 20
1797.668759748035
 30
0.0
 11
1000.046875641956
 21
1850.668759748034
 31
0.0
1001
REVIT
1002
{
1070
     3
1000
963222
1002
}
  0
SPLINE
  5
1EC
330
1DB
100
AcDbEntity
  8
M-PIPE
100
AcDbSpline
210
0.0
220
0.0
230
1.0
 70
     8
 71
     3
 72
    10
 73
     6
 74
     0
 42
0.000000001
 43
0.0000000001
 40
0.0
 40
0.0
 40
0.0
 40
0.0
 40
0.3333333333333333
 40
0.6666666666666666
 40
1.0
 40
1.0
 40
1.0
 40
1.0
 10
934.546875641956
 20
1825.668759748034
 30
0.0
 10
936.1665631976126
 20
1825.661029934819
 30
0.0
 10
939.3317348055886
 20
1825.397025363583
 30
0.0
 10
943.9215661451433
 20
1824.187540157339
 30
0.0
 10
946.7468007813666
 20
1822.925156651744
 30
0.0
 10
948.1115356082087
 20
1822.163657175865
 30
0.0
1001
REVIT
1002
{
1070
     3
1000
963222
1002
}
  0
LINE
  5
1ED
330
1DB
100
AcDbEntity
  8
M-PIPE
100
AcDbLine
 10
948.1115356082087
 20
1822.163657175865
 30
0.0
 11
984.546875641956
 21
1822.163657175865
 31
0.0
1001
REVIT
1002
{
1070
     3
1000
963222
1002
}
  0
LWPOLYLINE
  5
1EE
330
1DB
100
AcDbEntity
  8
M-PIPE
100
AcDbPolyline
 90
        5
 70
   128
 43
0.0
 10
984.5468756419561
 20
1822.163657175865
 10
989.0439583282915
 20
1816.355597643965
 10
992.3032601868532
 20
1810.278279960952
 10
994.2778180236945
 20
1804.01927203597
 10
994.9391804873682
 20
1797.668759748034
1001
REVIT
1002
{
1070
     3
1000
963222
1002
}
  0
LINE
  5
1EF
330
1DB
100
AcDbEntity
  8
M-PIPE
100
AcDbLine
 10
994.9391804873682
 20
1797.668759748034
 30
0.0
 11
1000.046875641956
 21
1797.668759748034
 31
0.0
1001
REVIT
1002
{
1070
     3
1000
963222
1002
}
  0
LINE
  5
1F0
330
1DB
100
AcDbEntity
  8
M-PIPE
100
AcDbLine
 10
869.0468756419559
 20
1850.668759748034
 30
0.0
 11
869.0468756419564
 21
1797.668759748034
 31
0.0
1001
REVIT
1002
{
1070
     3
1000
963222
1002
}
  0
LINE
  5
1F1
330
1DB
100
AcDbEntity
  8
M-PIPE
100
AcDbLine
 10
869.046875641956
 20
1797.668759748034
 30
0.0
 11
874.1545707965425
 21
1797.668759748034
 31
0.0
1001
REVIT
1002
{
1070
     3
1000
963222
1002
}
  0
LWPOLYLINE
  5
1F2
330
1DB
100
AcDbEntity
  8
M-PIPE
100
AcDbPolyline
 90
        5
 70
   128
 43
0.0
 10
874.1545707965425
 20
1797.668759748034
 10
874.8159332602163
 20
1804.01927203597
 10
876.790491097058
 20
1810.278279960953
 10
880.04979295562
 20
1816.355597643966
 10
884.546875641956
 20
1822.163657175866
1001
REVIT
1002
{
1070
     3
1000
963222
1002
}
  0
LINE
  5
1F3
330
1DB
100
AcDbEntity
  8
M-PIPE
100
AcDbLine
 10
884.546875641956
 20
1822.163657175867
 30
0.0
 11
920.9822156757056
 21
1822.163657175867
 31
0.0
1001
REVIT
1002
{
1070
     3
1000
963222
1002
}
  0
SPLINE
  5
1F4
330
1DB
100
AcDbEntity
  8
M-PIPE
100
AcDbSpline
210
0.0
220
0.0
230
1.0
 70
     8
 71
     3
 72
    10
 73
     6
 74
     0
 42
0.000000001
 43
0.0000000001
 40
0.0
 40
0.0
 40
0.0
 40
0.0
 40
0.3333333333333333
 40
0.6666666666666666
 40
1.0
 40
1.0
 40
1.0
 40
1.0
 10
920.9822156757056
 20
1822.163657175866
 30
0.0
 10
922.345730980882
 20
1822.924614950639
 30
0.0
 10
925.1693243412804
 20
1824.186313644257
 30
0.0
 10
929.7578520677564
 20
1825.396482455839
 30
0.0
 10
932.9253968045119
 20
1825.660799975803
 30
0.0
 10
934.546875641956
 20
1825.668759748035
 30
0.0
1001
REVIT
1002
{
1070
     3
1000
963222
1002
}
  0
LINE
  5
1F5
330
1DB
100
AcDbEntity
  8
M-PIPE
100
AcDbLine
 10
865.0468756419561
 20
1797.668759748034
 30
0.0
 11
866.0468756419559
 21
1797.668759748034
 31
0.0
1001
REVIT
1002
{
1070
     3
1000
963222
1002
}
  0
LINE
  5
1F6
330
1DB
100
AcDbEntity
  8
M-PIPE
100
AcDbLine
 10
866.0468756419559
 20
1797.668759748034
 30
0.0
 11
866.0468756419557
 21
1850.668759748034
 31
0.0
1001
REVIT
1002
{
1070
     3
1000
963222
1002
}
  0
LINE
  5
1F7
330
1DB
100
AcDbEntity
  8
M-PIPE
100
AcDbLine
 10
859.5468756419561
 20
1797.668759748034
 30
0.0
 11
865.0468756419561
 21
1797.668759748034
 31
0.0
1001
REVIT
1002
{
1070
     3
1000
963222
1002
}
  0
LINE
  5
1F8
330
1DB
100
AcDbEntity
  8
M-PIPE
100
AcDbLine
 10
866.0468756419559
 20
1797.668759748034
 30
0.0
 11
869.046875641956
 21
1797.668759748034
 31
0.0
1001
REVIT
1002
{
1070
     3
1000
963222
1002
}
  0
LINE
  5
1F9
330
1DB
100
AcDbEntity
  8
M-PIPE
100
AcDbLine
 10
1000.046875641956
 20
1797.668759748035
 30
0.0
 11
1003.046875641956
 21
1797.668759748035
 31
0.0
1001
REVIT
1002
{
1070
     3
1000
963222
1002
}
  0
ARC
  5
1FA
330
1DB
100
AcDbEntity
  8
M-PIPE
100
AcDbCircle
 10
934.5468756419561
 20
1797.668759748034
 30
0.0
 40
28.00000000000009
100
AcDbArc
 50
118.9765844566942
 51
180.0
1001
REVIT
1002
{
1070
     3
1000
963222
1002
}
  0
SPLINE
  5
1FB
330
1DB
100
AcDbEntity
  8
M-PIPE
100
AcDbSpline
210
0.0
220
0.0
230
1.0
 70
     8
 71
     3
 72
     8
 73
     4
 74
     0
 42
0.000000001
 43
0.0000000001
 40
0.4749408736560036
 40
0.4749408736560036
 40
0.4749408736560036
 40
0.4749408736560036
 40
0.4752869488225138
 40
0.4752869488225138
 40
0.4752869488225138
 40
0.4752869488225138
 10
932.1547298810715
 20
1825.566358946715
 30
0.0
 10
932.1656377387666
 20
1825.567292803497
 30
0.0
 10
932.1765482745597
 20
1825.568220426294
 30
0.0
 10
932.1874614513134
 20
1825.569141808778
 30
0.0
1001
REVIT
1002
{
1070
     3
1000
963222
1002
}
  0
SPLINE
  5
1FC
330
1DB
100
AcDbEntity
  8
M-PIPE
100
AcDbSpline
210
0.0
220
0.0
230
1.0
 70
     8
 71
     3
 72
     8
 73
     4
 74
     0
 42
0.000000001
 43
0.0000000001
 40
0.5246143639108631
 40
0.5246143639108631
 40
0.5246143639108631
 40
0.5246143639108631
 40
0.5249238970459258
 40
0.5249238970459258
 40
0.5249238970459258
 40
0.5249238970459258
 10
936.9073773353418
 20
1825.569048576505
 30
0.0
 10
936.9171367896283
 20
1825.568224223978
 30
0.0
 10
936.926894122787
 20
1825.56739488259
 30
0.0
 10
936.9366493082551
 20
1825.566560556928
 30
0.0
1001
REVIT
1002
{
1070
     3
1000
963222
1002
}
  0
ARC
  5
1FD
330
1DB
100
AcDbEntity
  8
M-PIPE
100
AcDbCircle
 10
934.5468756419561
 20
1797.668759748034
 30
0.0
 40
27.99999999999994
100
AcDbArc
 50
0.0000000000001272
 51
61.02341554330084
1001
REVIT
1002
{
1070
     3
1000
963222
1002
}
  0
LINE
  5
1FE
330
1DB
100
AcDbEntity
  8
M-PIPE
100
AcDbLine
 10
984.546875641956
 20
1822.163657175865
 30
0.0
 11
984.5468756419561
 21
1797.668759748034
 31
0.0
1001
REVIT
1002
{
1070
     3
1000
963222
1002
}
  0
LINE
  5
1FF
330
1DB
100
AcDbEntity
  8
M-PIPE
100
AcDbLine
 10
984.5468756419561
 20
1797.668759748034
 30
0.0
 11
994.9391804873682
 21
1797.668759748034
 31
0.0
1001
REVIT
1002
{
1070
     3
1000
963222
1002
}
  0
LINE
  5
200
330
1DB
100
AcDbEntity
  8
M-PIPE
100
AcDbLine
 10
874.1545707965425
 20
1797.668759748034
 30
0.0
 11
884.5468756419561
 21
1797.668759748034
 31
0.0
1001
REVIT
1002
{
1070
     3
1000
963222
1002
}
  0
LINE
  5
201
330
1DB
100
AcDbEntity
  8
M-PIPE
100
AcDbLine
 10
884.5468756419561
 20
1797.668759748034
 30
0.0
 11
884.546875641956
 21
1822.163657175867
 31
0.0
1001
REVIT
1002
{
1070
     3
1000
963222
1002
}
  0
LINE
  5
202
330
1DB
100
AcDbEntity
  8
M-PIPE
100
AcDbLine
 10
884.5468756419561
 20
1797.668759748034
 30
0.0
 11
906.546875641956
 21
1797.668759748034
 31
0.0
1001
REVIT
1002
{
1070
     3
1000
963222
1002
}
  0
LINE
  5
203
330
1DB
100
AcDbEntity
  8
M-PIPE
100
AcDbLine
 10
962.5468756419563
 20
1797.668759748034
 30
0.0
 11
984.5468756419561
 21
1797.668759748034
 31
0.0
1001
REVIT
1002
{
1070
     3
1000
963222
1002
}
  0
LWPOLYLINE
  5
204
330
1DB
100
AcDbEntity
  8
P-SANR-FIXT
100
AcDbPolyline
 90
       67
 70
   128
 43
0.0
 10
953.3909668909409
 20
1802.683759748035
 10
953.1753471169249
 20
1803.433310945339
 10
952.9299257624112
 20
1804.173640090432
 10
952.6550954492126
 20
1804.903562814612
 10
952.3512958472034
 20
1805.621911397227
 10
952.0190129709396
 20
1806.327536633785
 10
951.6587784021398
 20
1807.019309674434
 10
951.2711684392684
 20
1807.696123829878
 10
950.8568031755801
 20
1808.356896341848
 10
950.4163455071036
 20
1809.000570115281
 10
949.9505000721493
 20
1809.626115409452
 10
949.4600121240381
 20
1810.23253148533
 10
948.9456663388549
 20
1810.818848206557
 10
948.4082855601347
 20
1811.384127591453
 10
947.8487294824887
 20
1811.927465313589
 10
947.2678932762754
 20
1812.447992148515
 10
946.6667061555193
 20
1812.944875364334
 10
946.0461298913676
 20
1813.417320053899
 10
945.4071572734601
 20
1813.864570406488
 10
944.7508105216789
 20
1814.285910916945
 10
944.0781396508134
 20
1814.680667530336
 10
943.3902207907616
 20
1815.048208720288
 10
942.6881544649514
 20
1815.387946499302
 10
941.9730638297378
 20
1815.699337359406
 10
941.246092877593
 20
1815.98188314165
 10
940.5084046069614
 20
1816.235131833055
 10
939.7611791617105
 20
1816.45867828974
 10
939.0056119431536
 20
1816.652164885059
 10
938.2429116976609
 20
1816.815282081737
 10
937.4742985829252
 20
1816.947768927054
 10
936.701002215967
 20
1817.049413470321
 10
935.9242597060132
 20
1817.120053101951
 10
935.145313675383
 20
1817.159574813603
 10
934.3654102715596
 20
1817.167915378968
 10
933.585797173618
 20
1817.145061454922
 10
932.8077215962068
 20
1817.091049602868
 10
932.0324282942689
 20
1817.005966230247
 10
931.2611575717005
 20
1816.889947452305
 10
930.4951432971286
 20
1816.743178874338
 10
929.7356109299851
 20
1816.565895294761
 10
928.9837755600323
 20
1816.358380329483
 10
928.2408399634793
 20
1816.120965958182
 10
927.507992678796
 20
1815.854031993204
 10
926.7864061053051
 20
1815.558005471952
 10
926.0772346275947
 20
1815.233359973711
 10
925.3816127687469
 20
1814.880614862024
 10
924.7006533753443
 20
1814.500334453821
 10
924.035445837153
 20
1814.093127116633
 10
923.3870543443305
 20
1813.659644295334
 10
922.7565161849494
 20
1813.200579469965
 10
922.1448400855569
 20
1812.71666704632
 10
921.5530045974283
 20
1812.208681181046
 10
920.981956531093
 20
1811.677434543165
 10
920.4326094416396
 20
1811.123777013968
 10
919.9058421672242
 20
1810.548594327397
 10
919.4024974231144
 20
1809.952806653051
 10
918.9233804535263
 20
1809.337367124113
 10
918.469257743405
 20
1808.703260312544
 10
918.0408557922127
 20
1808.051500653973
 10
917.6388599516837
 20
1807.383130824818
 10
917.2639133294078
 20
1806.69922007423
 10
916.9166157599969
 20
1806.000862513515
 10
916.5975228454756
 20
1805.289175365796
 10
916.3071450664377
 20
1804.56529717869
 10
916.0459469653854
 20
1803.830386002879
 10
915.8143464035616
 20
1803.085617539469
 10
915.7027843929748
 20
1802.683759748035
  0
LWPOLYLINE
  5
205
330
1DB
100
AcDbEntity
  8
P-SANR-FIXT
100
AcDbPolyline
 90
       67
 70
   128
 43
0.0
 10
915.7027843929748
 20
1792.653759748035
 10
915.9184041669906
 20
1791.904208550731
 10
916.1638255215045
 20
1791.163879405638
 10
916.4386558347031
 20
1790.433956681458
 10
916.7424554367123
 20
1789.715608098843
 10
917.0747383129761
 20
1789.009982862285
 10
917.4349728817757
 20
1788.318209821636
 10
917.8225828446471
 20
1787.641395666193
 10
918.2369481083354
 20
1786.980623154223
 10
918.6774057768118
 20
1786.336949380789
 10
919.1432512117662
 20
1785.711404086618
 10
919.6337391598774
 20
1785.104988010741
 10
920.1480849450609
 20
1784.518671289513
 10
920.6854657237808
 20
1783.953391904617
 10
921.2450218014268
 20
1783.410054182481
 10
921.8258580076403
 20
1782.889527347555
 10
922.4270451283963
 20
1782.392644131736
 10
923.0476213925483
 20
1781.920199442171
 10
923.6865940104554
 20
1781.472949089582
 10
924.3429407622366
 20
1781.051608579125
 10
925.0156116331023
 20
1780.656851965735
 10
925.7035304931541
 20
1780.289310775782
 10
926.4055968189643
 20
1779.949572996768
 10
927.1206874541775
 20
1779.638182136664
 10
927.8476584063223
 20
1779.35563635442
 10
928.5853466769543
 20
1779.102387663015
 10
929.3325721222052
 20
1778.87884120633
 10
930.0881393407619
 20
1778.685354611011
 10
930.8508395862546
 20
1778.522237414333
 10
931.6194527009905
 20
1778.389750569016
 10
932.3927490679484
 20
1778.288106025749
 10
933.1694915779024
 20
1778.217466394119
 10
933.9484376085325
 20
1778.177944682468
 10
934.728341012356
 20
1778.169604117102
 10
935.5079541102977
 20
1778.192458041148
 10
936.2860296877089
 20
1778.246469893202
 10
937.0613229896468
 20
1778.331553265823
 10
937.8325937122154
 20
1778.447572043765
 10
938.5986079867869
 20
1778.594340621732
 10
939.3581403539304
 20
1778.771624201309
 10
940.1099757238831
 20
1778.979139166587
 10
940.8529113204362
 20
1779.216553537889
 10
941.5857586051195
 20
1779.483487502866
 10
942.3073451786102
 20
1779.779514024118
 10
943.0165166563208
 20
1780.104159522359
 10
943.7121385151687
 20
1780.456904634046
 10
944.3930979085711
 20
1780.837185042249
 10
945.0583054467625
 20
1781.244392379437
 10
945.706696939585
 20
1781.677875200736
 10
946.337235098966
 20
1782.136940026105
 10
946.9489111983588
 20
1782.62085244975
 10
947.5407466864872
 20
1783.128838315024
 10
948.1117947528229
 20
1783.660084952905
 10
948.6611418422757
 20
1784.213742482102
 10
949.1879091166914
 20
1784.788925168673
 10
949.6912538608013
 20
1785.384712843019
 10
950.1703708303894
 20
1786.000152371957
 10
950.6244935405105
 20
1786.634259183526
 10
951.0528954917027
 20
1787.286018842098
 10
951.4548913322318
 20
1787.954388671252
 10
951.8298379545077
 20
1788.63829942184
 10
952.1771355239186
 20
1789.336656982555
 10
952.49622843844
 20
1790.048344130274
 10
952.786606217478
 20
1790.772222317379
 10
953.0478043185302
 20
1791.507133493191
 10
953.2794048803541
 20
1792.251901956601
 10
953.3909668909409
 20
1792.653759748035
  0
LWPOLYLINE
  5
206
330
1DB
100
AcDbEntity
  8
P-SANR-FIXT
100
AcDbPolyline
 90
       69
 70
   128
 43
0.0
 10
957.761359805945
 20
1802.683759748035
 10
957.5422441837472
 20
1803.608080048144
 10
957.2863408772999
 20
1804.52289870276
 10
956.9940592773029
 20
1805.426752197187
 10
956.6658669719668
 20
1806.318194558645
 10
956.3022889989689
 20
1807.195799669521
 10
955.9039070055074
 20
1808.058163548849
 10
955.4713583177875
 20
1808.903906598384
 10
955.0053349214383
 20
1809.731675809661
 10
954.5065823544804
 20
1810.540146928525
 10
953.975898514626
 20
1811.32802657365
 10
953.4141323828125
 20
1812.094054305675
 10
952.8221826650137
 20
1812.83700464364
 10
952.2009963545023
 20
1813.555689025491
 10
951.5515672168623
 20
1814.24895770953
 10
950.8749342001767
 20
1814.91570161375
 10
950.1721797729313
 20
1815.554854090137
 10
949.4444281922968
 20
1816.165392631073
 10
948.6928437055567
 20
1816.746340505134
 10
947.9186286875604
 20
1817.296768319651
 10
947.1230217171797
 20
1817.815795507538
 10
946.3072955958468
 20
1818.302591736015
 10
945.4727553113434
 20
1818.75637823496
 10
944.620735950099
 20
1819.176429042778
 10
943.7526005613372
 20
1819.562072167784
 10
942.8697379764876
 20
1819.912690663241
 10
941.9735605873521
 20
1820.227723614354
 10
941.0655020865789
 20
1820.506667035601
 10
940.1470151740603
 20
1820.749074677017
 10
939.2195692329233
 20
1820.954558738083
 10
938.2846479788286
 20
1821.122790488139
 10
937.3437470863439
 20
1821.253500792269
 10
936.3983717961824
 20
1821.346480541872
 10
935.4500345071389
 20
1821.401580989182
 10
934.5002523565746
 20
1821.418713985239
 10
933.5505447933213
 20
1821.397852120902
 10
932.6024311468867
 20
1821.339028770705
 10
931.6574281968511
 20
1821.242338039461
 10
930.7170477463452
 20
1821.107934611711
 10
929.782794203486
 20
1820.936033504271
 10
928.8561621746451
 20
1820.726909722241
 10
927.938634073398
 20
1820.480897819061
 10
927.0316777489776
 20
1820.198391361298
 10
926.1367441380288
 20
1819.879842299019
 10
925.2552649434209
 20
1819.52576024277
 10
924.3886503438263
 20
1819.136711648307
 10
923.5382867377358
 20
1818.71331891039
 10
922.7055345255188
 20
1818.256259367078
 10
921.8917259330694
 20
1817.766264216144
 10
921.0981628805335
 20
1817.244117345298
 10
920.3261148995098
 20
1816.69065407815
 10
919.5768171020739
 20
1816.106759837862
 10
918.8514682048593
 20
1815.49336873066
 10
918.1512286113694
 20
1814.851462051467
 10
917.4772185555765
 20
1814.182066714036
 10
916.8305163097896
 20
1813.486253608109
 10
916.2121564596457
 20
1812.765135886226
 10
915.6231282489953
 20
1812.019867182911
 10
915.0643739973226
 20
1811.251639769105
 10
914.536787592236
 20
1810.461682644793
 10
914.0412130594379
 20
1809.651259572857
 10
913.5784432124639
 20
1808.821667057331
 10
913.14921838435
 20
1807.974232269271
 10
912.7542252432581
 20
1807.11031092356
 10
912.3940956939534
 20
1806.231285110059
 10
912.0694058668913
 20
1805.338561082553
 10
911.7806751965312
 20
1804.433567009049
 10
911.5283655903535
 20
1803.517750687008
 10
911.3323914779709
 20
1802.683759748035
  0
LWPOLYLINE
  5
207
330
1DB
100
AcDbEntity
  8
P-SANR-FIXT
100
AcDbPolyline
 90
       69
 70
   128
 43
0.0
 10
911.3323914779707
 20
1792.653759748035
 10
911.5515071001683
 20
1791.729439447926
 10
911.8074104066158
 20
1790.81462079331
 10
912.0996920066126
 20
1789.910767298883
 10
912.4278843119487
 20
1789.019324937425
 10
912.7914622849464
 20
1788.141719826549
 10
913.1898442784081
 20
1787.279355947221
 10
913.622392966128
 20
1786.433612897686
 10
914.0884163624772
 20
1785.605843686409
 10
914.5871689294351
 20
1784.797372567545
 10
915.1178527692895
 20
1784.009492922421
 10
915.679618901103
 20
1783.243465190395
 10
916.2715686189017
 20
1782.50051485243
 10
916.8927549294132
 20
1781.781830470578
 10
917.5421840670532
 20
1781.08856178654
 10
918.2188170837388
 20
1780.421817882319
 10
918.9215715109844
 20
1779.782665405933
 10
919.6493230916187
 20
1779.172126864997
 10
920.4009075783588
 20
1778.591178990936
 10
921.1751225963551
 20
1778.040751176419
 10
921.9707295667358
 20
1777.521723988532
 10
922.7864556880687
 20
1777.034927760055
 10
923.6209959725723
 20
1776.58114126111
 10
924.4730153338165
 20
1776.161090453291
 10
925.3411507225782
 20
1775.775447328286
 10
926.224013307428
 20
1775.424828832829
 10
927.1201906965636
 20
1775.109795881717
 10
928.0282491973368
 20
1774.830852460468
 10
928.9467361098552
 20
1774.588444819053
 10
929.8741820509924
 20
1774.382960757986
 10
930.8091033050869
 20
1774.214729007931
 10
931.7500041975716
 20
1774.084018703801
 10
932.6953794877331
 20
1773.991038954198
 10
933.6437167767765
 20
1773.935938506888
 10
934.5934989273409
 20
1773.918805510832
 10
935.5432064905944
 20
1773.939667375168
 10
936.491320137029
 20
1773.998490725364
 10
937.4363230870645
 20
1774.09518145661
 10
938.3767035375704
 20
1774.229584884359
 10
939.3109570804297
 20
1774.401485991799
 10
940.2375891092702
 20
1774.610609773829
 10
941.1551172105175
 20
1774.856621677009
 10
942.062073534938
 20
1775.139128134772
 10
942.9570071458867
 20
1775.457677197051
 10
943.8384863404946
 20
1775.8117592533
 10
944.7051009400894
 20
1776.200807847763
 10
945.5554645461798
 20
1776.62420058568
 10
946.3882167583969
 20
1777.081260128991
 10
947.202025350846
 20
1777.571255279927
 10
947.995588403382
 20
1778.093402150772
 10
948.7676363844057
 20
1778.64686541792
 10
949.5169341818415
 20
1779.230759658208
 10
950.2422830790562
 20
1779.84415076541
 10
950.9425226725463
 20
1780.486057444603
 10
951.616532728339
 20
1781.155452782034
 10
952.2632349741259
 20
1781.85126588796
 10
952.88159482427
 20
1782.572383609844
 10
953.4706230349202
 20
1783.317652313159
 10
954.0293772865929
 20
1784.085879726965
 10
954.5569636916795
 20
1784.875836851277
 10
955.0525382244776
 20
1785.686259923213
 10
955.5153080714516
 20
1786.515852438739
 10
955.9445328995655
 20
1787.363287226799
 10
956.3395260406574
 20
1788.22720857251
 10
956.6996555899621
 20
1789.106234386011
 10
957.0243454170242
 20
1789.998958413517
 10
957.3130760873844
 20
1790.903952487022
 10
957.5653856935621
 20
1791.819768809061
 10
957.7613598059446
 20
1792.653759748035
  0
LINE
  5
208
330
1DB
100
AcDbEntity
  8
P-SANR-FIXT
100
AcDbLine
 10
915.1035339194757
 20
1792.653759748034
 30
0.0
 11
911.6584240796484
 21
1792.653759748034
 31
0.0
  0
LINE
  5
209
330
1DB
100
AcDbEntity
  8
P-SANR-FIXT
100
AcDbLine
 10
911.6584240796484
 20
1792.653759748034
 30
0.0
 11
908.5468756419562
 21
1792.653759748034
 31
0.0
  0
LINE
  5
20A
330
1DB
100
AcDbEntity
  8
P-SANR-FIXT
100
AcDbLine
 10
919.3531343317982
 20
1792.653759748034
 30
0.0
 11
915.1035339194757
 21
1792.653759748034
 31
0.0
  0
LINE
  5
20B
330
1DB
100
AcDbEntity
  8
P-SANR-FIXT
100
AcDbLine
 10
960.5468756419563
 20
1792.653759748034
 30
0.0
 11
957.4353272042646
 21
1792.653759748034
 31
0.0
  0
LINE
  5
20C
330
1DB
100
AcDbEntity
  8
P-SANR-FIXT
100
AcDbLine
 10
957.4353272042641
 20
1792.653759748034
 30
0.0
 11
953.9902173644367
 21
1792.653759748034
 31
0.0
  0
LINE
  5
20D
330
1DB
100
AcDbEntity
  8
P-SANR-FIXT
100
AcDbLine
 10
953.9902173644366
 20
1792.653759748034
 30
0.0
 11
949.7406169521141
 21
1792.653759748034
 31
0.0
  0
LINE
  5
20E
330
1DB
100
AcDbEntity
  8
P-SANR-FIXT
100
AcDbLine
 10
908.5468756419562
 20
1792.653759748034
 30
0.0
 11
908.5468756419562
 21
1802.683759748034
 31
0.0
  0
LINE
  5
20F
330
1DB
100
AcDbEntity
  8
P-SANR-FIXT
100
AcDbLine
 10
908.5468756419562
 20
1802.683759748034
 30
0.0
 11
911.658424079648
 21
1802.683759748034
 31
0.0
  0
LINE
  5
210
330
1DB
100
AcDbEntity
  8
P-SANR-FIXT
100
AcDbLine
 10
911.6584240796484
 20
1802.683759748034
 30
0.0
 11
915.1035339194757
 21
1802.683759748035
 31
0.0
  0
LINE
  5
211
330
1DB
100
AcDbEntity
  8
P-SANR-FIXT
100
AcDbLine
 10
919.3531343317982
 20
1802.683759748035
 30
0.0
 11
915.1035339194757
 21
1802.683759748035
 31
0.0
  0
LINE
  5
212
330
1DB
100
AcDbEntity
  8
P-SANR-FIXT
100
AcDbLine
 10
953.9902173644366
 20
1802.683759748035
 30
0.0
 11
957.4353272042641
 21
1802.683759748034
 31
0.0
  0
LINE
  5
213
330
1DB
100
AcDbEntity
  8
P-SANR-FIXT
100
AcDbLine
 10
957.4353272042642
 20
1802.683759748034
 30
0.0
 11
960.5468756419563
 21
1802.683759748034
 31
0.0
  0
LINE
  5
214
330
1DB
100
AcDbEntity
  8
P-SANR-FIXT
100
AcDbLine
 10
953.9902173644366
 20
1802.683759748035
 30
0.0
 11
949.7406169521141
 21
1802.683759748035
 31
0.0
  0
LINE
  5
215
330
1DB
100
AcDbEntity
  8
P-SANR-FIXT
100
AcDbLine
 10
960.5468756419563
 20
1802.683759748034
 30
0.0
 11
960.5468756419563
 21
1792.653759748034
 31
0.0
  0
LINE
  5
216
330
1DB
100
AcDbEntity
  8
P-SANR-FIXT
100
AcDbLine
 10
924.2760168157172
 20
1823.168759748035
 30
0.0
 11
923.0680814417169
 21
1823.168759748035
 31
0.0
  0
LINE
  5
217
330
1DB
100
AcDbEntity
  8
P-SANR-FIXT
100
AcDbLine
 10
916.0468756419579
 20
1772.168759748035
 30
0.0
 11
924.2760168157179
 21
1772.168759748035
 31
0.0
  0
LINE
  5
218
330
1DB
100
AcDbEntity
  8
P-SANR-FIXT
100
AcDbLine
 10
947.0163445635357
 20
1820.462110543657
 30
0.0
 11
947.383086328632
 21
1820.298333739789
 31
0.0
  0
LINE
  5
219
330
1DB
100
AcDbEntity
  8
P-SANR-FIXT
100
AcDbLine
 10
947.5024569099742
 20
1775.095702980775
 30
0.0
 11
947.0223460843492
 21
1774.87876996556
 31
0.0
  0
LINE
  5
21A
330
1DB
100
AcDbEntity
  8
P-SANR-FIXT
100
AcDbLine
 10
953.0468756419576
 20
1818.682664488775
 30
0.0
 11
953.0468756419576
 21
1817.988148725675
 31
0.0
  0
LINE
  5
21B
330
1DB
100
AcDbEntity
  8
P-SANR-FIXT
100
AcDbLine
 10
953.046875641958
 20
1777.349370770395
 30
0.0
 11
953.046875641958
 21
1763.668759748035
 31
0.0
  0
LINE
  5
21C
330
1DB
100
AcDbEntity
  8
P-SANR-FIXT
100
AcDbLine
 10
971.0468756419581
 20
1763.668759748035
 30
0.0
 11
971.0468756419581
 21
1767.668759748035
 31
0.0
  0
LINE
  5
21D
330
1DB
100
AcDbEntity
  8
P-SANR-FIXT
100
AcDbLine
 10
916.0468756419579
 20
1763.668759748035
 30
0.0
 11
916.0468756419579
 21
1772.168759748035
 31
0.0
  0
LINE
  5
21E
330
1DB
100
AcDbEntity
  8
P-SANR-FIXT
100
AcDbLine
 10
898.0468756419579
 20
1767.668759748035
 30
0.0
 11
898.0468756419579
 21
1763.668759748034
 31
0.0
  0
LINE
  5
21F
330
1DB
100
AcDbEntity
  8
P-SANR-FIXT
100
AcDbLine
 10
884.5468756419561
 20
1783.586309233384
 30
0.0
 11
884.5468756419561
 21
1781.786793891899
 31
0.0
  0
LINE
  5
220
330
1DB
100
AcDbEntity
  8
P-SANR-FIXT
100
AcDbLine
 10
884.5468756419561
 20
1781.786793891898
 30
0.0
 11
884.5468756419561
 21
1783.586309233384
 31
0.0
  0
LINE
  5
221
330
1DB
100
AcDbEntity
  8
P-SANR-FIXT
100
AcDbLine
 10
884.5468756419561
 20
1767.691888660812
 30
0.0
 11
884.546875641956
 21
1797.668759748034
 31
0.0
  0
SPLINE
  5
222
330
1DB
100
AcDbEntity
  8
P-SANR-FIXT
100
AcDbSpline
210
0.0
220
0.0
230
1.0
 70
     8
 71
     3
 72
     9
 73
     5
 74
     0
 42
0.000000001
 43
0.0000000001
 40
-0.5014798350536103
 40
-0.5014798350536103
 40
-0.5014798350536103
 40
-0.5014798350536103
 40
-0.5
 40
0.0
 40
0.0
 40
0.0
 40
0.0
 10
884.54690247226
 20
1767.668759748034
 30
0.0
 10
884.5468932004639
 20
1767.668759748034
 30
0.0
 10
884.5453222081749
 20
1767.668759748035
 30
0.0
 10
885.0761220040537
 20
1767.668759747295
 30
0.0
 10
886.1345888822278
 20
1767.668759748034
 30
0.0
  0
SPLINE
  5
223
330
1DB
100
AcDbEntity
  8
P-SANR-FIXT
100
AcDbSpline
210
0.0
220
0.0
230
1.0
 70
     8
 71
     3
 72
     8
 73
     4
 74
     0
 42
0.000000001
 43
0.0000000001
 40
-1.0
 40
-1.0
 40
-1.0
 40
-1.0
 40
-0.5520833333333341
 40
-0.5520833333333341
 40
-0.5520833333333341
 40
-0.5520833333333341
 10
886.1345888822278
 20
1771.292386204589
 30
0.0
 10
885.1863789702905
 20
1774.708451610937
 30
0.0
 10
884.6628880814087
 20
1778.116027266541
 30
0.0
 10
884.5641162155818
 20
1781.515113171402
 30
0.0
  0
SPLINE
  5
224
330
1DB
100
AcDbEntity
  8
P-SANR-FIXT
100
AcDbSpline
210
0.0
220
0.0
230
1.0
 70
     8
 71
     3
 72
     9
 73
     5
 74
     0
 42
0.000000001
 43
0.0000000001
 40
-0.544002816987087
 40
-0.544002816987087
 40
-0.544002816987087
 40
-0.544002816987087
 40
-0.5
 40
0.0
 40
0.0
 40
0.0
 40
0.0
 10
884.5591852902069
 20
1781.699065680917
 30
0.0
 10
884.5509874731126
 20
1782.032957869903
 30
0.0
 10
884.5003130402263
 20
1786.159823642664
 30
0.0
 10
885.0761220037863
 20
1790.274166576579
 30
0.0
 10
886.1345888822276
 20
1794.045133291479
 30
0.0
  0
LINE
  5
225
330
1DB
100
AcDbEntity
  8
P-SANR-FIXT
100
AcDbLine
 10
886.1345888822278
 20
1767.668759748034
 30
0.0
 11
886.1345888822278
 21
1771.292386204589
 31
0.0
  0
LINE
  5
226
330
1DB
100
AcDbEntity
  8
P-SANR-FIXT
100
AcDbLine
 10
886.1345888822278
 20
1767.668759748034
 30
0.0
 11
895.2968756419561
 21
1767.668759748034
 31
0.0
  0
LINE
  5
227
330
1DB
100
AcDbEntity
  8
P-SANR-FIXT
100
AcDbLine
 10
895.2968756419561
 20
1771.292386204589
 30
0.0
 11
886.1345888822278
 21
1771.292386204589
 31
0.0
  0
LINE
  5
228
330
1DB
100
AcDbEntity
  8
P-SANR-FIXT
100
AcDbLine
 10
886.1345888822276
 20
1794.045133291479
 30
0.0
 11
886.1345888822276
 21
1797.668759748034
 31
0.0
  0
LINE
  5
229
330
1DB
100
AcDbEntity
  8
P-SANR-FIXT
100
AcDbLine
 10
886.1345888822276
 20
1794.045133291479
 30
0.0
 11
895.296875641956
 21
1794.045133291479
 31
0.0
  0
SPLINE
  5
22A
330
1DB
100
AcDbEntity
  8
P-SANR-FIXT
100
AcDbSpline
210
0.0
220
0.0
230
1.0
 70
     8
 71
     3
 72
    10
 73
     6
 74
     0
 42
0.000000001
 43
0.0000000001
 40
-1.0
 40
-1.0
 40
-1.0
 40
-1.0
 40
-0.5
 40
-0.25
 40
0.0
 40
0.0
 40
0.0
 40
0.0
 10
901.4610892043293
 20
1772.036649990274
 30
0.0
 10
901.6430438310996
 20
1772.264475862137
 30
0.0
 10
901.9577368004012
 20
1772.553554344522
 30
0.0
 10
902.4596233811882
 20
1772.818930835641
 30
0.0
 10
902.7326178108875
 20
1772.896043368857
 30
0.0
 10
902.8753027667024
 20
1772.922001975478
 30
0.0
  0
LINE
  5
22B
330
1DB
100
AcDbEntity
  8
P-SANR-FIXT
100
AcDbLine
 10
970.0468756419564
 20
1758.168759748034
 30
0.0
 11
969.6175898562277
 21
1758.168759748034
 31
0.0
  0
LINE
  5
22C
330
1DB
100
AcDbEntity
  8
P-SANR-FIXT
100
AcDbLine
 10
969.6175898562277
 20
1758.168759748034
 30
0.0
 11
962.4761614276849
 21
1758.168759748034
 31
0.0
  0
LINE
  5
22D
330
1DB
100
AcDbEntity
  8
P-SANR-FIXT
100
AcDbLine
 10
962.4761614276849
 20
1758.168759748034
 30
0.0
 11
961.6175898562278
 21
1758.168759748034
 31
0.0
  0
LINE
  5
22E
330
1DB
100
AcDbEntity
  8
P-SANR-FIXT
100
AcDbLine
 10
961.6175898562278
 20
1758.168759748034
 30
0.0
 11
954.4761614276849
 21
1758.168759748034
 31
0.0
  0
LINE
  5
22F
330
1DB
100
AcDbEntity
  8
P-SANR-FIXT
100
AcDbLine
 10
954.4761614276849
 20
1758.168759748034
 30
0.0
 11
954.0468756419564
 21
1758.168759748034
 31
0.0
  0
LINE
  5
230
330
1DB
100
AcDbEntity
  8
P-SANR-FIXT
100
AcDbLine
 10
984.5468756419561
 20
1797.668759748034
 30
0.0
 11
984.5468756419565
 21
1767.691888660813
 31
0.0
  0
LINE
  5
231
330
1DB
100
AcDbEntity
  8
P-SANR-FIXT
100
AcDbLine
 10
984.5468756419561
 20
1783.586309233384
 30
0.0
 11
984.5468756419561
 21
1781.786793891899
 31
0.0
  0
LINE
  5
232
330
1DB
100
AcDbEntity
  8
P-SANR-FIXT
100
AcDbLine
 10
984.5468756419561
 20
1781.786793891899
 30
0.0
 11
984.5468756419561
 21
1783.586309233385
 31
0.0
  0
LINE
  5
233
330
1DB
100
AcDbEntity
  8
P-SANR-FIXT
100
AcDbLine
 10
895.296875641956
 20
1794.045133291479
 30
0.0
 11
895.296875641956
 21
1797.668759748034
 31
0.0
  0
SPLINE
  5
234
330
1DB
100
AcDbEntity
  8
P-SANR-FIXT
100
AcDbSpline
210
0.0
220
0.0
230
1.0
 70
     8
 71
     3
 72
    10
 73
     6
 74
     0
 42
0.000000001
 43
0.0000000001
 40
-1.0
 40
-1.0
 40
-1.0
 40
-1.0
 40
-0.6666666666666666
 40
-0.3333333333333333
 40
0.0
 40
0.0
 40
0.0
 40
0.0
 10
895.296875641956
 20
1794.045133291479
 30
0.0
 10
896.5020335805991
 20
1791.590692559114
 30
0.0
 10
898.1091975946936
 20
1786.629803190132
 30
0.0
 10
898.1337157944691
 20
1778.796488153065
 30
0.0
 10
896.5127871769919
 20
1773.784872014294
 30
0.0
 10
895.2968756419561
 20
1771.292386204589
 30
0.0
  0
LINE
  5
235
330
1DB
100
AcDbEntity
  8
P-SANR-FIXT
100
AcDbLine
 10
895.2968756419561
 20
1767.668759748034
 30
0.0
 11
895.2968756419561
 21
1771.292386204589
 31
0.0
  0
SPLINE
  5
236
330
1DB
100
AcDbEntity
  8
P-SANR-FIXT
100
AcDbSpline
210
0.0
220
0.0
230
1.0
 70
    24
 71
     3
 72
     9
 73
     5
 74
     0
 42
0.000000001
 43
0.0000000001
 40
-1.0
 40
-1.0
 40
-1.0
 40
-1.0
 40
-0.5
 40
-0.1186930514146712
 40
-0.1186930514146712
 40
-0.1186930514146712
 40
-0.1186930514146712
 10
895.2968756419561
 20
1767.668759748034
 30
0.0
 10
896.1889454966964
 20
1767.668759748034
 30
0.0
 10
897.3790652097372
 20
1767.668759748034
 30
0.0
 10
897.8954169295876
 20
1767.668759748034
 30
0.0
 10
897.9926958320204
 20
1767.668759748034
 30
0.0
  0
SPLINE
  5
237
330
1DB
100
AcDbEntity
  8
P-SANR-FIXT
100
AcDbSpline
210
0.0
220
0.0
230
1.0
 70
     8
 71
     3
 72
    22
 73
    18
 74
     0
 42
0.000000001
 43
0.0000000001
 40
-1.0
 40
-1.0
 40
-1.0
 40
-1.0
 40
-0.875
 40
-0.8125
 40
-0.75
 40
-0.6875
 40
-0.625
 40
-0.5625
 40
-0.53125
 40
-0.5
 40
-0.46875
 40
-0.4375
 40
-0.375
 40
-0.3125
 40
-0.25
 40
-0.125
 40
0.0
 40
0.0
 40
0.0
 40
0.0
 10
898.0468756419563
 20
1767.668759748034
 30
0.0
 10
898.0468756419563
 20
1767.681334436541
 30
0.0
 10
898.0875934241682
 20
1767.739014966813
 30
0.0
 10
898.2132131630358
 20
1767.894807132355
 30
0.0
 10
898.3403412764063
 20
1768.048598058788
 30
0.0
 10
898.4980282718582
 20
1768.249318162089
 30
0.0
 10
898.6836971979423
 20
1768.495204022686
 30
0.0
 10
898.8589807295166
 20
1768.725397989248
 30
0.0
 10
899.0097952298572
 20
1768.919575552807
 30
0.0
 10
899.127764887987
 20
1769.067648352322
 30
0.0
 10
899.2500171747673
 20
1769.220848119191
 30
0.0
 10
899.4182557197186
 20
1769.436196747958
 30
0.0
 10
899.6379348458688
 20
1769.721002642967
 30
0.0
 10
899.9151783775117
 20
1770.081365374893
 30
0.0
 10
900.3027925638887
 20
1770.57265277371
 30
0.0
 10
900.8159413041029
 20
1771.209589270791
 30
0.0
 10
901.2444163630815
 20
1771.755563168991
 30
0.0
 10
901.4610892043293
 20
1772.036649990274
 30
0.0
  0
SPLINE
  5
238
330
1DB
100
AcDbEntity
  8
P-SANR-FIXT
100
AcDbSpline
210
0.0
220
0.0
230
1.0
 70
     8
 71
     3
 72
     9
 73
     5
 74
     0
 42
0.000000001
 43
0.0000000001
 40
0.0
 40
0.0
 40
0.0
 40
0.0
 40
0.5
 40
1.0
 40
1.0
 40
1.0
 40
1.0
 10
902.8753027667024
 20
1772.922001975478
 30
0.0
 10
904.0902553143126
 20
1773.126826416492
 30
0.0
 10
906.7647203429366
 20
1773.392656791073
 30
0.0
 10
909.4794870685413
 20
1773.186342181262
 30
0.0
 10
910.7294270636886
 20
1772.999726832784
 30
0.0
  0
LINE
  5
239
330
1DB
100
AcDbEntity
  8
P-SANR-FIXT
100
AcDbLine
 10
954.0468756419564
 20
1758.168759748034
 30
0.0
 11
954.0468756419564
 21
1763.668759748034
 31
0.0
  0
LINE
  5
23A
330
1DB
100
AcDbEntity
  8
P-SANR-FIXT
100
AcDbLine
 10
954.4761614276849
 20
1763.668759748034
 30
0.0
 11
954.4761614276849
 21
1758.168759748034
 31
0.0
  0
LINE
  5
23B
330
1DB
100
AcDbEntity
  8
P-SANR-FIXT
100
AcDbLine
 10
961.6175898562278
 20
1758.168759748034
 30
0.0
 11
961.6175898562278
 21
1763.668759748034
 31
0.0
  0
LINE
  5
23C
330
1DB
100
AcDbEntity
  8
P-SANR-FIXT
100
AcDbLine
 10
962.4761614276849
 20
1763.668759748034
 30
0.0
 11
962.4761614276849
 21
1758.168759748034
 31
0.0
  0
LINE
  5
23D
330
1DB
100
AcDbEntity
  8
P-SANR-FIXT
100
AcDbLine
 10
969.6175898562277
 20
1758.168759748034
 30
0.0
 11
969.6175898562277
 21
1763.668759748034
 31
0.0
  0
LINE
  5
23E
330
1DB
100
AcDbEntity
  8
P-SANR-FIXT
100
AcDbLine
 10
970.0468756419564
 20
1763.668759748034
 30
0.0
 11
970.0468756419564
 21
1758.168759748034
 31
0.0
  0
LINE
  5
23F
330
1DB
100
AcDbEntity
  8
P-SANR-FIXT
100
AcDbLine
 10
899.476161427685
 20
1758.168759748034
 30
0.0
 11
899.0468756419563
 21
1758.168759748034
 31
0.0
  0
LINE
  5
240
330
1DB
100
AcDbEntity
  8
P-SANR-FIXT
100
AcDbLine
 10
915.0468756419563
 20
1758.168759748034
 30
0.0
 11
914.6175898562278
 21
1758.168759748034
 31
0.0
  0
LINE
  5
241
330
1DB
100
AcDbEntity
  8
P-SANR-FIXT
100
AcDbLine
 10
907.4761614276848
 20
1758.168759748034
 30
0.0
 11
914.6175898562278
 21
1758.168759748034
 31
0.0
  0
LINE
  5
242
330
1DB
100
AcDbEntity
  8
P-SANR-FIXT
100
AcDbLine
 10
907.4761614276848
 20
1758.168759748034
 30
0.0
 11
906.6175898562276
 21
1758.168759748034
 31
0.0
  0
LINE
  5
243
330
1DB
100
AcDbEntity
  8
P-SANR-FIXT
100
AcDbLine
 10
899.476161427685
 20
1758.168759748034
 30
0.0
 11
906.6175898562276
 21
1758.168759748034
 31
0.0
  0
LINE
  5
244
330
1DB
100
AcDbEntity
  8
P-SANR-FIXT
100
AcDbLine
 10
899.0468756419563
 20
1758.168759748034
 30
0.0
 11
899.0468756419563
 21
1763.668759748034
 31
0.0
  0
LINE
  5
245
330
1DB
100
AcDbEntity
  8
P-SANR-FIXT
100
AcDbLine
 10
899.476161427685
 20
1763.668759748034
 30
0.0
 11
899.476161427685
 21
1758.168759748034
 31
0.0
  0
LINE
  5
246
330
1DB
100
AcDbEntity
  8
P-SANR-FIXT
100
AcDbLine
 10
906.6175898562276
 20
1758.168759748034
 30
0.0
 11
906.6175898562276
 21
1763.668759748034
 31
0.0
  0
LINE
  5
247
330
1DB
100
AcDbEntity
  8
P-SANR-FIXT
100
AcDbLine
 10
907.476161427685
 20
1763.668759748034
 30
0.0
 11
907.476161427685
 21
1758.168759748034
 31
0.0
  0
LINE
  5
248
330
1DB
100
AcDbEntity
  8
P-SANR-FIXT
100
AcDbLine
 10
914.6175898562278
 20
1758.168759748034
 30
0.0
 11
914.6175898562278
 21
1763.668759748034
 31
0.0
  0
LINE
  5
249
330
1DB
100
AcDbEntity
  8
P-SANR-FIXT
100
AcDbLine
 10
915.0468756419563
 20
1763.668759748034
 30
0.0
 11
915.0468756419563
 21
1758.168759748034
 31
0.0
  0
LINE
  5
24A
330
1DB
100
AcDbEntity
  8
P-SANR-FIXT
100
AcDbLine
 10
910.7294270636886
 20
1811.378617242669
 30
0.0
 11
910.7294270636886
 21
1812.375354037015
 31
0.0
  0
LINE
  5
24B
330
1DB
100
AcDbEntity
  8
P-SANR-FIXT
100
AcDbLine
 10
910.7294270636886
 20
1772.999726832784
 30
0.0
 11
910.7294270636886
 21
1783.958902253399
 31
0.0
  0
SPLINE
  5
24C
330
1DB
100
AcDbEntity
  8
P-SANR-FIXT
100
AcDbSpline
210
0.0
220
0.0
230
1.0
 70
     8
 71
     3
 72
     9
 73
     5
 74
     0
 42
0.000000001
 43
0.0000000001
 40
-1.0
 40
-1.0
 40
-1.0
 40
-1.0
 40
-0.5
 40
0.0
 40
0.0
 40
0.0
 40
0.0
 10
910.7294270636886
 20
1772.999726832784
 30
0.0
 10
910.83306159355
 20
1773.072757739543
 30
0.0
 10
911.0397465376562
 20
1773.216735864919
 30
0.0
 10
911.2448383019245
 20
1773.356546614009
 30
0.0
 10
911.3468756419562
 20
1773.425410144484
 30
0.0
  0
LINE
  5
24D
330
1DB
100
AcDbEntity
  8
P-SANR-FIXT
100
AcDbLine
 10
911.346875641956
 20
1812.411681551585
 30
0.0
 11
911.346875641956
 21
1813.321314724857
 31
0.0
  0
LINE
  5
24E
330
1DB
100
AcDbEntity
  8
P-SANR-FIXT
100
AcDbLine
 10
929.5583915104002
 20
1823.168759748034
 30
0.0
 11
929.575176984877
 21
1823.168759748034
 31
0.0
  0
LINE
  5
24F
330
1DB
100
AcDbEntity
  8
P-SANR-FIXT
100
AcDbLine
 10
929.5751769848783
 20
1772.168759748035
 30
0.0
 11
929.5583915104014
 21
1772.168759748035
 31
0.0
  0
LINE
  5
250
330
1DB
100
AcDbEntity
  8
P-SANR-FIXT
100
AcDbLine
 10
911.3468756419562
 20
1773.425410144484
 30
0.0
 11
911.346875641956
 21
1782.925837944483
 31
0.0
  0
SPLINE
  5
251
330
1DB
100
AcDbEntity
  8
P-SANR-FIXT
100
AcDbSpline
210
0.0
220
0.0
230
1.0
 70
     8
 71
     3
 72
    10
 73
     6
 74
     0
 42
0.000000001
 43
0.0000000001
 40
0.0
 40
0.0
 40
0.0
 40
0.0
 40
0.4
 40
0.7
 40
1.0
 40
1.0
 40
1.0
 40
1.0
 10
911.3468756419562
 20
1773.425410144484
 30
0.0
 10
912.4892072511155
 20
1773.22078782254
 30
0.0
 10
914.1993517256524
 20
1772.785099283367
 30
0.0
 10
915.7279248755068
 20
1772.284132500615
 30
0.0
 10
916.0435111965366
 20
1772.168759748035
 30
0.0
 10
916.0468756419563
 20
1772.168759748035
 30
0.0
  0
SPLINE
  5
252
330
1DB
100
AcDbEntity
  8
P-SANR-FIXT
100
AcDbSpline
210
0.0
220
0.0
230
1.0
 70
     8
 71
     3
 72
    11
 73
     7
 74
     0
 42
0.000000001
 43
0.0000000001
 40
-0.8305494804120691
 40
-0.8305494804120691
 40
-0.8305494804120691
 40
-0.8305494804120691
 40
-0.8125
 40
-0.765625
 40
-0.7421875
 40
-0.7297929858563251
 40
-0.7297929858563251
 40
-0.7297929858563251
 40
-0.7297929858563251
 10
955.5991896145862
 20
1816.111909275882
 30
0.0
 10
955.5651209833303
 20
1816.09666586674
 30
0.0
 10
955.4410713792128
 20
1816.047821174606
 30
0.0
 10
955.270773904836
 20
1816.005991163968
 30
0.0
 10
955.1232733722837
 20
1815.977918580176
 30
0.0
 10
955.0601040709379
 20
1815.971709722562
 30
0.0
 10
955.0383463967804
 20
1815.970208916251
 30
0.0
  0
SPLINE
  5
253
330
1DB
100
AcDbEntity
  8
P-SANR-FIXT
100
AcDbSpline
210
0.0
220
0.0
230
1.0
 70
     8
 71
     3
 72
    17
 73
    13
 74
     0
 42
0.000000001
 43
0.0000000001
 40
-0.2702070141437398
 40
-0.2702070141437398
 40
-0.2702070141437398
 40
-0.2702070141437398
 40
-0.265625
 40
-0.2421875
 40
-0.21875
 40
-0.1875
 40
-0.15625
 40
-0.125
 40
-0.09375
 40
-0.0625
 40
-0.03125
 40
0.0
 40
0.0
 40
0.0
 40
0.0
 10
955.0384395070601
 20
1779.367475548743
 30
0.0
 10
955.0464670506121
 20
1779.366887614276
 30
0.0
 10
955.0956028612279
 20
1779.362698105043
 30
0.0
 10
955.1862525815536
 20
1779.34798451796
 30
0.0
 10
955.3312830166527
 20
1779.31766558924
 30
0.0
 10
955.4962388273299
 20
1779.270686206911
 30
0.0
 10
955.6751435418636
 20
1779.194992635329
 30
0.0
 10
955.8420046411926
 20
1779.085691566532
 30
0.0
 10
955.9939831551602
 20
1778.941588951661
 30
0.0
 10
956.1371603257503
 20
1778.769074717646
 30
0.0
 10
956.2688313548449
 20
1778.566434493846
 30
0.0
 10
956.3488032207189
 20
1778.411568721876
 30
0.0
 10
956.3867042857031
 20
1778.329166788218
 30
0.0
  0
SPLINE
  5
254
330
1DB
100
AcDbEntity
  8
P-SANR-FIXT
100
AcDbSpline
210
0.0
220
0.0
230
1.0
 70
     8
 71
     3
 72
     9
 73
     5
 74
     0
 42
0.000000001
 43
0.0000000001
 40
-1.0
 40
-1.0
 40
-1.0
 40
-1.0
 40
-0.5
 40
0.0
 40
0.0
 40
0.0
 40
0.0
 10
956.3867042857031
 20
1778.329166788218
 30
0.0
 10
956.635420683504
 20
1777.668584177483
 30
0.0
 10
957.138107502217
 20
1776.33818164132
 30
0.0
 10
957.6384397139383
 20
1774.989304475772
 30
0.0
 10
957.8853540550715
 20
1774.310247235652
 30
0.0
  0
SPLINE
  5
255
330
1DB
100
AcDbEntity
  8
P-SANR-FIXT
100
AcDbSpline
210
0.0
220
0.0
230
1.0
 70
     8
 71
     3
 72
    13
 73
     9
 74
     0
 42
0.000000001
 43
0.0000000001
 40
-1.0
 40
-1.0
 40
-1.0
 40
-1.0
 40
-0.85
 40
-0.775
 40
-0.7
 40
-0.55
 40
-0.4
 40
0.0
 40
0.0
 40
0.0
 40
0.0
 10
957.8853540550715
 20
1774.310247235652
 30
0.0
 10
957.9293406754812
 20
1774.193111091058
 30
0.0
 10
958.0091175467586
 20
1774.029263815664
 30
0.0
 10
958.1427318919754
 20
1773.835263911116
 30
0.0
 10
958.2993987830304
 20
1773.654556263221
 30
0.0
 10
958.5226787548716
 20
1773.464487399132
 30
0.0
 10
959.0072645369495
 20
1773.202405181124
 30
0.0
 10
959.4405818388334
 20
1773.13966335681
 30
0.0
 10
959.7647392966432
 20
1773.169613920096
 30
0.0
  0
SPLINE
  5
256
330
1DB
100
AcDbEntity
  8
P-SANR-FIXT
100
AcDbSpline
210
0.0
220
0.0
230
1.0
 70
     8
 71
     3
 72
    10
 73
     6
 74
     0
 42
0.000000001
 43
0.0000000001
 40
0.0
 40
0.0
 40
0.0
 40
0.0
 40
0.3333333333333333
 40
0.6666666666666666
 40
1.0
 40
1.0
 40
1.0
 40
1.0
 10
959.7647392966432
 20
1773.169613920096
 30
0.0
 10
960.4951026914712
 20
1773.23680645144
 30
0.0
 10
961.9480548300764
 20
1773.310536194
 30
0.0
 10
964.1917803470553
 20
1773.21378643884
 30
0.0
 10
965.5552197066445
 20
1773.033711884881
 30
0.0
 10
966.2184485172101
 20
1772.922001975478
 30
0.0
  0
SPLINE
  5
257
330
1DB
100
AcDbEntity
  8
P-SANR-FIXT
100
AcDbSpline
210
0.0
220
0.0
230
1.0
 70
     8
 71
     3
 72
    10
 73
     6
 74
     0
 42
0.000000001
 43
0.0000000001
 40
-1.0
 40
-1.0
 40
-1.0
 40
-1.0
 40
-0.75
 40
-0.5
 40
0.0
 40
0.0
 40
0.0
 40
0.0
 10
966.2184485172101
 20
1772.922001975478
 30
0.0
 10
966.3611691437216
 20
1772.896038236844
 30
0.0
 10
966.6342251558857
 20
1772.818906747923
 30
0.0
 10
967.1363552142608
 20
1772.553322317424
 30
0.0
 10
967.4508177730364
 20
1772.264353105749
 30
0.0
 10
967.6326620795832
 20
1772.036649990274
 30
0.0
  0
SPLINE
  5
258
330
1DB
100
AcDbEntity
  8
P-SANR-FIXT
100
AcDbSpline
210
0.0
220
0.0
230
1.0
 70
     8
 71
     3
 72
    22
 73
    18
 74
     0
 42
0.000000001
 43
0.0000000001
 40
-1.0
 40
-1.0
 40
-1.0
 40
-1.0
 40
-0.875
 40
-0.75
 40
-0.6875
 40
-0.625
 40
-0.5625
 40
-0.53125
 40
-0.5
 40
-0.46875
 40
-0.4375
 40
-0.375
 40
-0.3125
 40
-0.25
 40
-0.1875
 40
-0.125
 40
0.0
 40
0.0
 40
0.0
 40
0.0
 10
967.6326620795832
 20
1772.036649990274
 30
0.0
 10
967.8493349208309
 20
1771.755563168991
 30
0.0
 10
968.2778099798095
 20
1771.209589270792
 30
0.0
 10
968.7909587200238
 20
1770.572652773711
 30
0.0
 10
969.178572906401
 20
1770.081365374893
 30
0.0
 10
969.4558164380438
 20
1769.721002642967
 30
0.0
 10
969.6754955641939
 20
1769.436196747958
 30
0.0
 10
969.8437341091452
 20
1769.220848119192
 30
0.0
 10
969.9659863959254
 20
1769.067648352322
 30
0.0
 10
970.0839560540554
 20
1768.919575552807
 30
0.0
 10
970.234770554396
 20
1768.725397989248
 30
0.0
 10
970.4100540859702
 20
1768.495204022686
 30
0.0
 10
970.5957230120544
 20
1768.24931816209
 30
0.0
 10
970.7534100075061
 20
1768.048598058788
 30
0.0
 10
970.8805381208769
 20
1767.894807132356
 30
0.0
 10
971.0061578597443
 20
1767.739014966813
 30
0.0
 10
971.0468756419562
 20
1767.681334436542
 30
0.0
 10
971.0468756419562
 20
1767.668759748035
 30
0.0
  0
SPLINE
  5
259
330
1DB
100
AcDbEntity
  8
P-SANR-FIXT
100
AcDbSpline
210
0.0
220
0.0
230
1.0
 70
    24
 71
     3
 72
     9
 73
     5
 74
     0
 42
0.000000001
 43
0.0000000001
 40
-0.8813069485851219
 40
-0.8813069485851219
 40
-0.8813069485851219
 40
-0.8813069485851219
 40
-0.5
 40
0.0
 40
0.0
 40
0.0
 40
0.0
 10
971.1010554518924
 20
1767.668759748035
 30
0.0
 10
971.1983343543252
 20
1767.668759748035
 30
0.0
 10
971.7146860741756
 20
1767.668759748035
 30
0.0
 10
972.9048057872166
 20
1767.668759748035
 30
0.0
 10
973.7968756419569
 20
1767.668759748035
 30
0.0
  0
SPLINE
  5
25A
330
1DB
100
AcDbEntity
  8
P-SANR-FIXT
100
AcDbSpline
210
0.0
220
0.0
230
1.0
 70
     8
 71
     3
 72
    10
 73
     6
 74
     0
 42
0.000000001
 43
0.0000000001
 40
-1.0
 40
-1.0
 40
-1.0
 40
-1.0
 40
-0.6666666666666666
 40
-0.3333333333333333
 40
0.0
 40
0.0
 40
0.0
 40
0.0
 10
973.7968756419569
 20
1771.292386204589
 30
0.0
 10
972.5809641069208
 20
1773.784872014294
 30
0.0
 10
970.9600354894435
 20
1778.796488153065
 30
0.0
 10
970.9845536892187
 20
1786.629803190133
 30
0.0
 10
972.5917177033133
 20
1791.590692559116
 30
0.0
 10
973.7968756419567
 20
1794.04513329148
 30
0.0
  0
LINE
  5
25B
330
1DB
100
AcDbEntity
  8
P-SANR-FIXT
100
AcDbLine
 10
973.7968756419569
 20
1767.668759748035
 30
0.0
 11
973.7968756419569
 21
1771.292386204589
 31
0.0
  0
LINE
  5
25C
330
1DB
100
AcDbEntity
  8
P-SANR-FIXT
100
AcDbLine
 10
973.7968756419569
 20
1767.668759748035
 30
0.0
 11
982.9591624016845
 21
1767.668759748035
 31
0.0
  0
LINE
  5
25D
330
1DB
100
AcDbEntity
  8
P-SANR-FIXT
100
AcDbLine
 10
982.9591624016845
 20
1771.292386204589
 30
0.0
 11
973.7968756419569
 21
1771.292386204589
 31
0.0
  0
LINE
  5
25E
330
1DB
100
AcDbEntity
  8
P-SANR-FIXT
100
AcDbLine
 10
973.7968756419563
 20
1794.04513329148
 30
0.0
 11
973.7968756419563
 21
1797.668759748034
 31
0.0
  0
LINE
  5
25F
330
1DB
100
AcDbEntity
  8
P-SANR-FIXT
100
AcDbLine
 10
973.7968756419567
 20
1794.045133291481
 30
0.0
 11
982.9591624016844
 21
1794.045133291481
 31
0.0
  0
LINE
  5
260
330
1DB
100
AcDbEntity
  8
P-SANR-FIXT
100
AcDbLine
 10
982.9591624016847
 20
1794.04513329148
 30
0.0
 11
982.9591624016847
 21
1797.668759748034
 31
0.0
  0
SPLINE
  5
261
330
1DB
100
AcDbEntity
  8
P-SANR-FIXT
100
AcDbSpline
210
0.0
220
0.0
230
1.0
 70
     8
 71
     3
 72
     9
 73
     5
 74
     0
 42
0.000000001
 43
0.0000000001
 40
-1.0
 40
-1.0
 40
-1.0
 40
-1.0
 40
-0.5
 40
-0.4559971830129158
 40
-0.4559971830129158
 40
-0.4559971830129158
 40
-0.4559971830129158
 10
982.9591624016844
 20
1794.04513329148
 30
0.0
 10
984.0176292801261
 20
1790.274166576579
 30
0.0
 10
984.5934382436858
 20
1786.159823642664
 30
0.0
 10
984.5427638107997
 20
1782.032957869904
 30
0.0
 10
984.5345659937056
 20
1781.699065680917
 30
0.0
  0
SPLINE
  5
262
330
1DB
100
AcDbEntity
  8
P-SANR-FIXT
100
AcDbSpline
210
0.0
220
0.0
230
1.0
 70
     8
 71
     3
 72
     8
 73
     4
 74
     0
 42
0.000000001
 43
0.0000000001
 40
-0.4479166666666669
 40
-0.4479166666666669
 40
-0.4479166666666669
 40
-0.4479166666666669
 40
0.0
 40
0.0
 40
0.0
 40
0.0
 10
984.5296350683305
 20
1781.515113171403
 30
0.0
 10
984.430863202504
 20
1778.116027266541
 30
0.0
 10
983.9073723136218
 20
1774.708451610937
 30
0.0
 10
982.9591624016845
 20
1771.292386204589
 30
0.0
  0
LINE
  5
263
330
1DB
100
AcDbEntity
  8
P-SANR-FIXT
100
AcDbLine
 10
982.9591624016845
 20
1767.668759748035
 30
0.0
 11
982.9591624016845
 21
1771.292386204589
 31
0.0
  0
SPLINE
  5
264
330
1DB
100
AcDbEntity
  8
P-SANR-FIXT
100
AcDbSpline
210
0.0
220
0.0
230
1.0
 70
    24
 71
     3
 72
     9
 73
     5
 74
     0
 42
0.000000001
 43
0.0000000001
 40
-1.0
 40
-1.0
 40
-1.0
 40
-1.0
 40
-0.5
 40
-0.4985201649463911
 40
-0.4985201649463911
 40
-0.4985201649463911
 40
-0.4985201649463911
 10
982.9591624016845
 20
1767.668759748035
 30
0.0
 10
984.0176292801261
 20
1767.668759748035
 30
0.0
 10
984.5484290757385
 20
1767.668759748034
 30
0.0
 10
984.5468580834488
 20
1767.668759748035
 30
0.0
 10
984.5468488116525
 20
1767.668759748035
 30
0.0
  0
ARC
  5
265
330
1DB
100
AcDbEntity
  8
P-SANR-FIXT
100
AcDbCircle
 10
934.5468756419561
 20
1797.668759748034
 30
0.0
 40
25.99999999999997
100
AcDbArc
 50
165.0000000000003
 51
166.4895751335278
  0
ARC
  5
266
330
1DB
100
AcDbEntity
  8
P-SANR-FIXT
100
AcDbCircle
 10
934.5468756419561
 20
1797.668759748034
 30
0.0
 40
25.99999999999988
100
AcDbArc
 50
152.9728913627065
 51
161.9833361371149
  0
ARC
  5
267
330
1DB
100
AcDbEntity
  8
P-SANR-FIXT
100
AcDbCircle
 10
934.5468756419561
 20
1797.668759748034
 30
0.0
 40
25.99999999999991
100
AcDbArc
 50
148.4710753991534
 51
150.0
  0
ARC
  5
268
330
1DB
100
AcDbEntity
  8
P-SANR-FIXT
100
AcDbCircle
 10
934.5468756419561
 20
1797.668759748034
 30
0.0
 40
25.99999999999987
100
AcDbArc
 50
143.9735171897354
 51
144.9999999999999
  0
ARC
  5
269
330
1DB
100
AcDbEntity
  8
P-SANR-FIXT
100
AcDbCircle
 10
934.5468756419561
 20
1797.668759748034
 30
0.0
 40
26.0
100
AcDbArc
 50
139.4822353515826
 51
140.0000000000001
  0
ARC
  5
26A
330
1DB
100
AcDbEntity
  8
P-SANR-FIXT
100
AcDbCircle
 10
934.5468756419561
 20
1797.668759748034
 30
0.0
 40
25.99999999999996
100
AcDbArc
 50
130.0000000000001
 51
130.5177646484181
  0
ARC
  5
26B
330
1DB
100
AcDbEntity
  8
P-SANR-FIXT
100
AcDbCircle
 10
934.5468756419561
 20
1797.668759748034
 30
0.0
 40
26.00000000000004
100
AcDbArc
 50
125.0000000000004
 51
126.0264828102646
  0
ARC
  5
26C
330
1DB
100
AcDbEntity
  8
P-SANR-FIXT
100
AcDbCircle
 10
934.5468756419561
 20
1797.668759748034
 30
0.0
 40
26.00000000000003
100
AcDbArc
 50
120.0000000000002
 51
121.5289246008467
  0
ARC
  5
26D
330
1DB
100
AcDbEntity
  8
P-SANR-FIXT
100
AcDbCircle
 10
934.5468756419561
 20
1797.668759748034
 30
0.0
 40
26.00000000000005
100
AcDbArc
 50
108.0166638628851
 51
117.0271086372939
  0
ARC
  5
26E
330
1DB
100
AcDbEntity
  8
P-SANR-FIXT
100
AcDbCircle
 10
934.5468756419561
 20
1797.668759748034
 30
0.0
 40
26.00000000000002
100
AcDbArc
 50
103.5104248664721
 51
105.0000000000001
  0
ARC
  5
26F
330
1DB
100
AcDbEntity
  8
P-SANR-FIXT
100
AcDbCircle
 10
934.5468756419561
 20
1797.668759748034
 30
0.0
 40
25.99999999999994
100
AcDbArc
 50
99.00490068046082
 51
100.0000000000001
  0
ARC
  5
270
330
1DB
100
AcDbEntity
  8
P-SANR-FIXT
100
AcDbCircle
 10
934.5468756419561
 20
1797.668759748034
 30
0.0
 40
25.99999999999994
100
AcDbArc
 50
94.50108582947978
 51
95.00000000000033
  0
ARC
  5
271
330
1DB
100
AcDbEntity
  8
P-SANR-FIXT
100
AcDbCircle
 10
934.5468756419561
 20
1797.668759748034
 30
0.0
 40
26.00000000000002
100
AcDbArc
 50
85.00000000000047
 51
85.49891417052126
  0
ARC
  5
272
330
1DB
100
AcDbEntity
  8
P-SANR-FIXT
100
AcDbCircle
 10
934.5468756419561
 20
1797.668759748034
 30
0.0
 40
26.00000000000002
100
AcDbArc
 50
80.00000000000024
 51
80.99509931953999
  0
ARC
  5
273
330
1DB
100
AcDbEntity
  8
P-SANR-FIXT
100
AcDbCircle
 10
934.5468756419561
 20
1797.668759748034
 30
0.0
 40
26.00000000000008
100
AcDbArc
 50
75.00000000000046
 51
76.48957513352844
  0
ARC
  5
274
330
1DB
100
AcDbEntity
  8
P-SANR-FIXT
100
AcDbCircle
 10
934.5468756419561
 20
1797.668759748034
 30
0.0
 40
25.99999999999988
100
AcDbArc
 50
62.97289136270631
 51
71.9833361371151
  0
ARC
  5
275
330
1DB
100
AcDbEntity
  8
P-SANR-FIXT
100
AcDbCircle
 10
934.5468756419561
 20
1797.668759748034
 30
0.0
 40
26.00000000000001
100
AcDbArc
 50
58.47107539915343
 51
60.00000000000021
  0
ARC
  5
276
330
1DB
100
AcDbEntity
  8
P-SANR-FIXT
100
AcDbCircle
 10
934.5468756419561
 20
1797.668759748034
 30
0.0
 40
25.99999999999996
100
AcDbArc
 50
53.97351718973593
 51
55.00000000000033
  0
ARC
  5
277
330
1DB
100
AcDbEntity
  8
P-SANR-FIXT
100
AcDbCircle
 10
934.5468756419561
 20
1797.668759748034
 30
0.0
 40
26.00000000000017
100
AcDbArc
 50
49.48223535158234
 51
50.00000000000034
  0
ARC
  5
278
330
1DB
100
AcDbEntity
  8
P-SANR-FIXT
100
AcDbCircle
 10
934.5468756419561
 20
1797.668759748034
 30
0.0
 40
26.00000000000004
100
AcDbArc
 50
40.00000000000025
 51
40.51776464841792
  0
ARC
  5
279
330
1DB
100
AcDbEntity
  8
P-SANR-FIXT
100
AcDbCircle
 10
934.5468756419561
 20
1797.668759748034
 30
0.0
 40
26.00000000000017
100
AcDbArc
 50
35.0000000000002
 51
36.02648281026495
  0
ARC
  5
27A
330
1DB
100
AcDbEntity
  8
P-SANR-FIXT
100
AcDbCircle
 10
934.5468756419561
 20
1797.668759748034
 30
0.0
 40
26.00000000000008
100
AcDbArc
 50
30.00000000000016
 51
31.52892460084673
  0
ARC
  5
27B
330
1DB
100
AcDbEntity
  8
P-SANR-FIXT
100
AcDbCircle
 10
934.5468756419561
 20
1797.668759748034
 30
0.0
 40
26.00000000000016
100
AcDbArc
 50
18.01666386288514
 51
27.02710863729359
  0
ARC
  5
27C
330
1DB
100
AcDbEntity
  8
P-SANR-FIXT
100
AcDbCircle
 10
934.5468756419561
 20
1797.668759748034
 30
0.0
 40
26.00000000000008
100
AcDbArc
 50
13.51042486647216
 51
14.99999999999975
  0
ARC
  5
27D
330
1DB
100
AcDbEntity
  8
P-SANR-FIXT
100
AcDbCircle
 10
934.5468756419561
 20
1797.668759748034
 30
0.0
 40
26.00000000000003
100
AcDbArc
 50
344.9999999999995
 51
346.4895751335281
  0
ARC
  5
27E
330
1DB
100
AcDbEntity
  8
P-SANR-FIXT
100
AcDbCircle
 10
934.5468756419561
 20
1797.668759748034
 30
0.0
 40
26.00000000000007
100
AcDbArc
 50
332.9728913627056
 51
341.9833361371146
  0
ARC
  5
27F
330
1DB
100
AcDbEntity
  8
P-SANR-FIXT
100
AcDbCircle
 10
934.5468756419561
 20
1797.668759748034
 30
0.0
 40
25.99999999999995
100
AcDbArc
 50
328.4710753991526
 51
329.9999999999997
  0
ARC
  5
280
330
1DB
100
AcDbEntity
  8
P-SANR-FIXT
100
AcDbCircle
 10
934.5468756419561
 20
1797.668759748034
 30
0.0
 40
25.99999999999984
100
AcDbArc
 50
323.9735171897351
 51
325.0000000000004
  0
LINE
  5
281
330
1DB
100
AcDbEntity
  8
P-SANR-FIXT
100
AcDbLine
 10
954.764371559839
 20
1781.320889586744
 30
0.0
 11
954.7574809052026
 21
1781.312371549742
 31
0.0
  0
ARC
  5
282
330
1DB
100
AcDbEntity
  8
P-SANR-FIXT
100
AcDbCircle
 10
934.5468756419561
 20
1797.668759748034
 30
0.0
 40
26.00000000000002
100
AcDbArc
 50
319.4822353515824
 51
320.0000000000002
  0
ARC
  5
283
330
1DB
100
AcDbEntity
  8
P-SANR-FIXT
100
AcDbCircle
 10
934.5468756419561
 20
1797.668759748034
 30
0.0
 40
25.99999999999987
100
AcDbArc
 50
310.0000000000008
 51
310.5177646484181
  0
ARC
  5
284
330
1DB
100
AcDbEntity
  8
P-SANR-FIXT
100
AcDbCircle
 10
934.5468756419561
 20
1797.668759748034
 30
0.0
 40
26.00000000000005
100
AcDbArc
 50
305.0000000000002
 51
306.0264828102651
  0
ARC
  5
285
330
1DB
100
AcDbEntity
  8
P-SANR-FIXT
100
AcDbCircle
 10
934.5468756419561
 20
1797.668759748034
 30
0.0
 40
26.00000000000011
100
AcDbArc
 50
300.0000000000004
 51
301.5289246008472
  0
ARC
  5
286
330
1DB
100
AcDbEntity
  8
P-SANR-FIXT
100
AcDbCircle
 10
934.5468756419561
 20
1797.668759748034
 30
0.0
 40
26.00000000000005
100
AcDbArc
 50
288.0166638628855
 51
297.0271086372941
  0
ARC
  5
287
330
1DB
100
AcDbEntity
  8
P-SANR-FIXT
100
AcDbCircle
 10
934.5468756419561
 20
1797.668759748034
 30
0.0
 40
26.00000000000008
100
AcDbArc
 50
283.5104248664718
 51
285.0000000000003
  0
ARC
  5
288
330
1DB
100
AcDbEntity
  8
P-SANR-FIXT
100
AcDbCircle
 10
934.5468756419561
 20
1797.668759748034
 30
0.0
 40
26.0
100
AcDbArc
 50
279.0049006804606
 51
280.0000000000005
  0
ARC
  5
289
330
1DB
100
AcDbEntity
  8
P-SANR-FIXT
100
AcDbCircle
 10
934.5468756419561
 20
1797.668759748034
 30
0.0
 40
25.99999999999996
100
AcDbArc
 50
274.5010858294797
 51
275.0000000000004
  0
ARC
  5
28A
330
1DB
100
AcDbEntity
  8
P-SANR-FIXT
100
AcDbCircle
 10
934.5468756419561
 20
1797.668759748034
 30
0.0
 40
26.0
100
AcDbArc
 50
265.0000000000006
 51
265.4989141705214
  0
ARC
  5
28B
330
1DB
100
AcDbEntity
  8
P-SANR-FIXT
100
AcDbCircle
 10
934.5468756419561
 20
1797.668759748034
 30
0.0
 40
26.0
100
AcDbArc
 50
260.0000000000004
 51
260.9950993195399
  0
ARC
  5
28C
330
1DB
100
AcDbEntity
  8
P-SANR-FIXT
100
AcDbCircle
 10
934.5468756419561
 20
1797.668759748034
 30
0.0
 40
25.99999999999995
100
AcDbArc
 50
255.0000000000003
 51
256.4895751335283
  0
ARC
  5
28D
330
1DB
100
AcDbEntity
  8
P-SANR-FIXT
100
AcDbCircle
 10
934.5468756419561
 20
1797.668759748034
 30
0.0
 40
25.99999999999996
100
AcDbArc
 50
242.9728913627065
 51
251.9833361371151
  0
ARC
  5
28E
330
1DB
100
AcDbEntity
  8
P-SANR-FIXT
100
AcDbCircle
 10
934.5468756419561
 20
1797.668759748034
 30
0.0
 40
25.99999999999984
100
AcDbArc
 50
238.4710753991531
 51
240.0000000000005
  0
ARC
  5
28F
330
1DB
100
AcDbEntity
  8
P-SANR-FIXT
100
AcDbCircle
 10
934.5468756419561
 20
1797.668759748034
 30
0.0
 40
25.99999999999992
100
AcDbArc
 50
233.9735171897356
 51
235.0000000000005
  0
ARC
  5
290
330
1DB
100
AcDbEntity
  8
P-SANR-FIXT
100
AcDbCircle
 10
934.5468756419561
 20
1797.668759748034
 30
0.0
 40
26.00000000000004
100
AcDbArc
 50
229.4822353515824
 51
230.0000000000009
  0
ARC
  5
291
330
1DB
100
AcDbEntity
  8
P-SANR-FIXT
100
AcDbCircle
 10
934.5468756419561
 20
1797.668759748034
 30
0.0
 40
26.00000000000003
100
AcDbArc
 50
220.0000000000009
 51
220.5177646484181
  0
ARC
  5
292
330
1DB
100
AcDbEntity
  8
P-SANR-FIXT
100
AcDbCircle
 10
934.5468756419561
 20
1797.668759748034
 30
0.0
 40
26.00000000000005
100
AcDbArc
 50
215.0000000000007
 51
216.0264828102652
  0
ARC
  5
293
330
1DB
100
AcDbEntity
  8
P-SANR-FIXT
100
AcDbCircle
 10
934.5468756419561
 20
1797.668759748034
 30
0.0
 40
26.00000000000014
100
AcDbArc
 50
210.0000000000008
 51
211.5289246008468
  0
ARC
  5
294
330
1DB
100
AcDbEntity
  8
P-SANR-FIXT
100
AcDbCircle
 10
934.5468756419561
 20
1797.668759748034
 30
0.0
 40
26.0
100
AcDbArc
 50
198.0166638628851
 51
207.0271086372941
  0
ARC
  5
295
330
1DB
100
AcDbEntity
  8
P-SANR-FIXT
100
AcDbCircle
 10
934.5468756419561
 20
1797.668759748034
 30
0.0
 40
26.00000000000011
100
AcDbArc
 50
193.5104248664718
 51
195.0000000000004
  0
ARC
  5
296
330
1DB
100
AcDbEntity
  8
P-SANR-FIXT
100
AcDbCircle
 10
934.5468756419561
 20
1797.668759748034
 30
0.0
 40
27.5
100
AcDbArc
 50
0.0
 51
179.9999999999995
  0
ARC
  5
297
330
1DB
100
AcDbEntity
  8
P-SANR-FIXT
100
AcDbCircle
 10
934.5468756419561
 20
1797.668759748034
 30
0.0
 40
27.49999999999994
100
AcDbArc
 50
180.0000000000001
 51
0.0000000000001018
  0
LINE
  5
298
330
1DB
100
AcDbEntity
  8
P-SANR-FIXT
100
AcDbLine
 10
953.0468756419562
 20
1763.668759748034
 30
0.0
 11
954.0468756419562
 21
1763.668759748034
 31
0.0
  0
LINE
  5
299
330
1DB
100
AcDbEntity
  8
P-SANR-FIXT
100
AcDbLine
 10
954.4761614276849
 20
1763.668759748034
 30
0.0
 11
961.6175898562277
 21
1763.668759748034
 31
0.0
  0
LINE
  5
29A
330
1DB
100
AcDbEntity
  8
P-SANR-FIXT
100
AcDbLine
 10
962.4761614276847
 20
1763.668759748034
 30
0.0
 11
969.6175898562277
 21
1763.668759748034
 31
0.0
  0
LINE
  5
29B
330
1DB
100
AcDbEntity
  8
P-SANR-FIXT
100
AcDbLine
 10
970.0468756419562
 20
1763.668759748034
 30
0.0
 11
971.0468756419562
 21
1763.668759748034
 31
0.0
  0
LINE
  5
29C
330
1DB
100
AcDbEntity
  8
P-SANR-FIXT
100
AcDbLine
 10
898.0468756419563
 20
1763.668759748034
 30
0.0
 11
899.0468756419563
 21
1763.668759748034
 31
0.0
  0
LINE
  5
29D
330
1DB
100
AcDbEntity
  8
P-SANR-FIXT
100
AcDbLine
 10
899.476161427685
 20
1763.668759748034
 30
0.0
 11
906.6175898562276
 21
1763.668759748034
 31
0.0
  0
LINE
  5
29E
330
1DB
100
AcDbEntity
  8
P-SANR-FIXT
100
AcDbLine
 10
907.476161427685
 20
1763.668759748034
 30
0.0
 11
914.6175898562278
 21
1763.668759748034
 31
0.0
  0
LINE
  5
29F
330
1DB
100
AcDbEntity
  8
P-SANR-FIXT
100
AcDbLine
 10
915.0468756419563
 20
1763.668759748034
 30
0.0
 11
916.0468756419563
 21
1763.668759748034
 31
0.0
  0
ARC
  5
2A0
330
1DB
100
AcDbEntity
  8
P-SANR-FIXT
100
AcDbCircle
 10
934.5468756419561
 20
1797.668759748034
 30
0.0
 40
25.00000000000001
100
AcDbArc
 50
11.58073740698206
 51
168.4192625930174
  0
ARC
  5
2A1
330
1DB
100
AcDbEntity
  8
P-SANR-FIXT
100
AcDbCircle
 10
934.5468756419561
 20
1797.668759748034
 30
0.0
 40
24.99999999999999
100
AcDbArc
 50
191.5807374069816
 51
348.4192625930171
  0
ARC
  5
2A2
330
1DB
100
AcDbEntity
  8
P-SANR-FIXT
100
AcDbCircle
 10
934.5468756419561
 20
1797.668759748034
 30
0.0
 40
26.00000000000008
100
AcDbArc
 50
11.12990211868979
 51
168.8700978813096
  0
ARC
  5
2A3
330
1DB
100
AcDbEntity
  8
P-SANR-FIXT
100
AcDbCircle
 10
934.5468756419561
 20
1797.668759748034
 30
0.0
 40
25.99999999999995
100
AcDbArc
 50
191.1299021186888
 51
348.8700978813099
  0
ENDBLK
  5
2A5
330
1DB
100
AcDbEntity
  8
0
100
AcDbBlockEnd
  0
BLOCK
  5
330
330
2A7
100
AcDbEntity
  8
0
100
AcDbBlockBegin
  2
Automatic flow rate regulator valve_Caleffi_121 DN15 - 1_2__-V2-Est - Idraulica
 70
     0
 10
0.0
 20
0.0
 30
0.0
  3
Automatic flow rate regulator valve_Caleffi_121 DN15 - 1_2__-V2-Est - Idraulica
  1

  0
LWPOLYLINE
  5
2A8
330
2A7
100
AcDbEntity
  8
M-PIPE
100
AcDbPolyline
 90
       80
 70
   128
 43
0.0
 10
1208.191472925116
 20
2052.982558850012
 10
1206.072038213224
 20
2052.940164503044
 10
1203.95599414475
 20
2052.813049284051
 10
1201.846725938803
 20
2052.601416550267
 10
1199.74760797456
 20
2052.305604868919
 10
1197.661998392978
 20
2051.926087475598
 10
1195.593233724477
 20
2051.463471517169
 10
1193.544623551217
 20
2050.918497080482
 10
1191.519445212462
 20
2050.292036008381
 10
1189.520938561536
 20
2049.585090504942
 10
1187.552300782757
 20
2048.798791532165
 10
1185.616681276618
 20
2047.93439700067
 10
1183.717176621417
 20
2046.993289757314
 10
1181.856825619398
 20
2045.976975372927
 10
1180.038604435309
 20
2044.887079733722
 10
1178.265421835179
 20
2043.725346440225
 10
1176.540114532909
 20
2042.493634017879
 10
1174.865442652136
 20
2041.193912943811
 10
1173.244085310628
 20
2039.828262494479
 10
1171.678636334256
 20
2038.39886741928
 10
1170.171600107441
 20
2036.908014445411
 10
1168.72538756666
 20
2035.358088619601
 10
1167.34231234347
 20
2033.751569492536
 10
1166.024587063188
 20
2032.091027152115
 10
1164.774319805163
 20
2030.379118111852
 10
1163.593510730297
 20
2028.618581061023
 10
1162.484048881219
 20
2026.812232483349
 10
1161.447709160214
 20
2024.96296215122
 10
1160.486149489761
 20
2023.073728502677
 10
1159.600908160212
 20
2021.147553908544
 10
1158.793401368853
 20
2019.187519837275
 10
1158.06492095429
 20
2017.196761925267
 10
1157.416632329787
 20
2015.178464960505
 10
1156.849572618847
 20
2013.135857787587
 10
1156.364648996044
 20
2011.072208142257
 10
1155.962637235727
 20
2008.990817423724
 10
1155.644180470956
 20
2006.895015413133
 10
1155.409788164621
 20
2004.78815494662
 10
1155.25983529441
 20
2002.673606551491
 10
1155.194561752927
 20
2000.5547530541
 10
1155.214071963916
 20
1998.434984168043
 10
1155.318334715199
 20
1996.317691071346
 10
1155.507183208617
 20
1994.206260981298
 10
1155.780315326866
 20
1992.104071735629
 10
1156.137294116822
 20
1990.014486388689
 10
1156.577548488571
 20
1987.940847831278
 10
1157.100374129036
 20
1985.886473442735
 10
1157.704934628721
 20
1983.85464978384
 10
1158.390262819793
 20
1981.848627339014
 10
1159.155262323342
 20
1979.871615316239
 10
1159.998709303354
 20
1977.926776513013
 10
1160.919254424586
 20
1976.017222256543
 10
1161.915425011217
 20
1974.14600742629
 10
1162.985627402813
 20
1972.316125566812
 10
1164.128149503845
 20
1970.530504098729
 10
1165.341163522677
 20
1968.791999635478
 10
1166.622728895641
 20
1967.103393413339
 10
1167.970795391527
 20
1965.467386842051
 10
1169.383206391512
 20
1963.886597183132
 10
1170.857702339296
 20
1962.363553362819
 10
1172.391924355905
 20
1960.900691926325
 10
1173.983418013394
 20
1959.500353139889
 10
1175.629637261413
 20
1958.164777246846
 10
1177.327948500339
 20
1956.896100883717
 10
1179.075634794478
 20
1955.696353662047
 10
1180.869900218578
 20
1954.567454921457
 10
1182.707874330717
 20
1953.511210659114
 10
1184.586616764397
 20
1952.529310640518
 10
1186.503121932499
 20
1951.623325696237
 10
1188.454323835588
 20
1950.794705208917
 10
1190.437100966853
 20
1950.044774794572
 10
1192.448281305854
 20
1949.374734181891
 10
1194.484647393077
 20
1948.785655292919
 10
1196.542941477184
 20
1948.278480528214
 10
1198.619870726721
 20
1947.854021259209
 10
1200.712112497943
 20
1947.512956530188
 10
1202.816319650336
 20
1947.25583197196
 10
1204.92912590133
 20
1947.083058928969
 10
1207.047151211632
 20
1946.994913801226
 10
1208.191472925115
 20
1946.982558850011
1001
REVIT
1002
{
1070
     3
1000
963222
1002
}
  0
SPLINE
  5
2A9
330
2A7
100
AcDbEntity
  8
M-PIPE
100
AcDbSpline
210
0.0
220
0.0
230
1.0
 70
     8
 71
     3
 72
     9
 73
     5
 74
     0
 42
0.000000001
 43
0.0000000001
 40
0.1666666666666666
 40
0.1666666666666666
 40
0.1666666666666666
 40
0.1666666666666666
 40
0.3333333333333333
 40
0.3642409147899531
 40
0.3642409147899531
 40
0.3642409147899531
 40
0.3642409147899531
 10
1180.2976854058
 20
2045.048677961631
 30
0.0
 10
1180.365099955171
 20
2045.090423339006
 30
0.0
 10
1180.495606670194
 20
2045.169004094159
 30
0.0
 10
1180.645092206125
 20
2045.262279410695
 30
0.0
 10
1180.669168089092
 20
2045.277324118067
 30
0.0
1001
REVIT
1002
{
1070
     3
1000
963222
1002
}
  0
ARC
  5
2AA
330
2A7
100
AcDbEntity
  8
M-PIPE
100
AcDbCircle
 10
1208.191472925113
 20
1999.982558850011
 30
0.0
 40
52.99999999999994
100
AcDbArc
 50
264.9999999999998
 51
265.7128416768363
1001
REVIT
1002
{
1070
     3
1000
963222
1002
}
  0
ARC
  5
2AB
330
2A7
100
AcDbEntity
  8
M-PIPE
100
AcDbCircle
 10
1208.191472925113
 20
1999.982558850011
 30
0.0
 40
52.99999999999994
100
AcDbArc
 50
248.5532614470825
 51
261.4224314249981
1001
REVIT
1002
{
1070
     3
1000
963222
1002
}
  0
ARC
  5
2AC
330
2A7
100
AcDbEntity
  8
M-PIPE
100
AcDbCircle
 10
1208.191472925113
 20
1999.982558850011
 30
0.0
 40
52.99999999999993
100
AcDbArc
 50
244.2720842391062
 51
244.9999999999998
1001
REVIT
1002
{
1070
     3
1000
963222
1002
}
  0
ARC
  5
2AD
330
2A7
100
AcDbEntity
  8
M-PIPE
100
AcDbCircle
 10
1208.191472925113
 20
1999.982558850011
 30
0.0
 40
52.99999999999991
100
AcDbArc
 50
235.0
 51
235.6969879757761
1001
REVIT
1002
{
1070
     3
1000
963222
1002
}
  0
ARC
  5
2AE
330
2A7
100
AcDbEntity
  8
M-PIPE
100
AcDbCircle
 10
1208.191472925113
 20
1999.982558850011
 30
0.0
 40
53.00000000000002
100
AcDbArc
 50
218.6058748249896
 51
231.3941251750106
1001
REVIT
1002
{
1070
     3
1000
963222
1002
}
  0
ARC
  5
2AF
330
2A7
100
AcDbEntity
  8
M-PIPE
100
AcDbCircle
 10
1208.191472925113
 20
1999.982558850011
 30
0.0
 40
53.00000000000013
100
AcDbArc
 50
214.3030120242241
 51
215.0
1001
REVIT
1002
{
1070
     3
1000
963222
1002
}
  0
ARC
  5
2B0
330
2A7
100
AcDbEntity
  8
M-PIPE
100
AcDbCircle
 10
1208.191472925113
 20
1999.982558850011
 30
0.0
 40
52.99999999999993
100
AcDbArc
 50
204.9999999999999
 51
205.7279157608939
1001
REVIT
1002
{
1070
     3
1000
963222
1002
}
  0
ARC
  5
2B1
330
2A7
100
AcDbEntity
  8
M-PIPE
100
AcDbCircle
 10
1208.191472925113
 20
1999.982558850011
 30
0.0
 40
53.00000000000018
100
AcDbArc
 50
188.5775685750022
 51
201.4467385529175
1001
REVIT
1002
{
1070
     3
1000
963222
1002
}
  0
ARC
  5
2B2
330
2A7
100
AcDbEntity
  8
M-PIPE
100
AcDbCircle
 10
1208.191472925113
 20
1999.982558850011
 30
0.0
 40
52.99999999999995
100
AcDbArc
 50
184.2871583231637
 51
185.0000000000001
1001
REVIT
1002
{
1070
     3
1000
963222
1002
}
  0
ARC
  5
2B3
330
2A7
100
AcDbEntity
  8
M-PIPE
100
AcDbCircle
 10
1208.191472925113
 20
1999.982558850011
 30
0.0
 40
52.99999999999992
100
AcDbArc
 50
175.0000000000002
 51
175.7128416768369
1001
REVIT
1002
{
1070
     3
1000
963222
1002
}
  0
ARC
  5
2B4
330
2A7
100
AcDbEntity
  8
M-PIPE
100
AcDbCircle
 10
1208.191472925113
 20
1999.982558850011
 30
0.0
 40
52.99999999999994
100
AcDbArc
 50
158.5532614470829
 51
171.4224314249986
1001
REVIT
1002
{
1070
     3
1000
963222
1002
}
  0
ARC
  5
2B5
330
2A7
100
AcDbEntity
  8
M-PIPE
100
AcDbCircle
 10
1208.191472925113
 20
1999.982558850011
 30
0.0
 40
52.99999999999984
100
AcDbArc
 50
154.2720842391071
 51
155.0000000000004
1001
REVIT
1002
{
1070
     3
1000
963222
1002
}
  0
ARC
  5
2B6
330
2A7
100
AcDbEntity
  8
M-PIPE
100
AcDbCircle
 10
1208.191472925113
 20
1999.982558850011
 30
0.0
 40
53.00000000000004
100
AcDbArc
 50
145.0000000000003
 51
145.6969879757761
1001
REVIT
1002
{
1070
     3
1000
963222
1002
}
  0
ARC
  5
2B7
330
2A7
100
AcDbEntity
  8
M-PIPE
100
AcDbCircle
 10
1208.191472925113
 20
1999.982558850011
 30
0.0
 40
53.00000000000002
100
AcDbArc
 50
128.6058748249898
 51
141.3941251750108
1001
REVIT
1002
{
1070
     3
1000
963222
1002
}
  0
ARC
  5
2B8
330
2A7
100
AcDbEntity
  8
M-PIPE
100
AcDbCircle
 10
1208.191472925113
 20
1999.982558850011
 30
0.0
 40
52.99999999999981
100
AcDbArc
 50
124.3030120242244
 51
125.0000000000003
1001
REVIT
1002
{
1070
     3
1000
963222
1002
}
  0
ARC
  5
2B9
330
2A7
100
AcDbEntity
  8
M-PIPE
100
AcDbCircle
 10
1208.191472925113
 20
1999.982558850011
 30
0.0
 40
53.00000000000014
100
AcDbArc
 50
115.0000000000003
 51
115.7279157608939
1001
REVIT
1002
{
1070
     3
1000
963222
1002
}
  0
ARC
  5
2BA
330
2A7
100
AcDbEntity
  8
M-PIPE
100
AcDbCircle
 10
1208.191472925113
 20
1999.982558850011
 30
0.0
 40
52.99999999999997
100
AcDbArc
 50
102.8691005364217
 51
111.4467385529178
1001
REVIT
1002
{
1070
     3
1000
963222
1002
}
  0
ARC
  5
2BB
330
2A7
100
AcDbEntity
  8
M-PIPE
100
AcDbCircle
 10
1208.191472925113
 20
1999.982558850011
 30
0.0
 40
53.00000000000009
100
AcDbArc
 50
98.57756857500223
 51
100.5173938371167
1001
REVIT
1002
{
1070
     3
1000
963222
1002
}
  0
ARC
  5
2BC
330
2A7
100
AcDbEntity
  8
M-PIPE
100
AcDbCircle
 10
1208.191472925113
 20
1999.982558850011
 30
0.0
 40
52.99999999999995
100
AcDbArc
 50
94.28715832316383
 51
95.0000000000003
1001
REVIT
1002
{
1070
     3
1000
963222
1002
}
  0
SPLINE
  5
2BD
330
2A7
100
AcDbEntity
  8
M-PIPE
100
AcDbSpline
210
0.0
220
0.0
230
1.0
 70
     8
 71
     3
 72
    10
 73
     6
 74
     0
 42
0.000000001
 43
0.0000000001
 40
0.1666666666666666
 40
0.1666666666666666
 40
0.1666666666666666
 40
0.1666666666666666
 40
0.3333333333333333
 40
0.6666666666666666
 40
0.8333333333333332
 40
0.8333333333333332
 40
0.8333333333333332
 40
0.8333333333333332
 10
1182.650672836533
 20
2046.422680153499
 30
0.0
 10
1182.333200843568
 20
2046.248095590716
 30
0.0
 10
1181.480510298458
 20
2045.766719727741
 30
0.0
 10
1180.618490614085
 20
2045.246324522371
 30
0.0
 10
1180.413830729881
 20
2045.120589884155
 30
0.0
 10
1180.358062896905
 20
2045.08605470082
 30
0.0
1001
REVIT
1002
{
1070
     3
1000
963222
1002
}
  0
LINE
  5
2BE
330
2A7
100
AcDbEntity
  8
M-PIPE
100
AcDbLine
 10
1208.191472925113
 20
1946.98255885001
 30
0.0
 11
1208.191472925113
 21
1952.482558850011
 31
0.0
1001
REVIT
1002
{
1070
     3
1000
963222
1002
}
  0
LINE
  5
2BF
330
2A7
100
AcDbEntity
  8
M-PIPE
100
AcDbLine
 10
1208.191472925113
 20
2047.482558850011
 30
0.0
 11
1208.191472925113
 21
2052.982558850011
 31
0.0
1001
REVIT
1002
{
1070
     3
1000
963222
1002
}
  0
LINE
  5
2C0
330
2A7
100
AcDbEntity
  8
M-PIPE
100
AcDbLine
 10
1208.191472925113
 20
1952.482558850011
 30
0.0
 11
1208.191472925113
 21
1968.482558850011
 31
0.0
1001
REVIT
1002
{
1070
     3
1000
963222
1002
}
  0
ARC
  5
2C1
330
2A7
100
AcDbEntity
  8
M-PIPE
100
AcDbCircle
 10
1208.191472925113
 20
1999.982558850011
 30
0.0
 40
31.50000000000012
100
AcDbArc
 50
180.0000000000006
 51
270.0000000000002
1001
REVIT
1002
{
1070
     3
1000
963222
1002
}
  0
ARC
  5
2C2
330
2A7
100
AcDbEntity
  8
M-PIPE
100
AcDbCircle
 10
1208.191472925113
 20
1999.982558850011
 30
0.0
 40
31.5
100
AcDbArc
 50
89.99999999999959
 51
179.9999999999996
1001
REVIT
1002
{
1070
     3
1000
963222
1002
}
  0
LINE
  5
2C3
330
2A7
100
AcDbEntity
  8
M-PIPE
100
AcDbLine
 10
1208.191472925113
 20
2031.482558850011
 30
0.0
 11
1208.191472925113
 21
2047.482558850011
 31
0.0
1001
REVIT
1002
{
1070
     3
1000
963222
1002
}
  0
LINE
  5
2C4
330
2A7
100
AcDbEntity
  8
M-PIPE
100
AcDbLine
 10
1183.696575497281
 20
2046.982558850011
 30
0.0
 11
1183.769757973925
 21
2046.982558850011
 31
0.0
1001
REVIT
1002
{
1070
     3
1000
963222
1002
}
  0
LWPOLYLINE
  5
2C5
330
2A7
100
AcDbEntity
  8
P-SANR-FIXT
100
AcDbPolyline
 90
       41
 70
   128
 43
0.0
 10
1188.691472925116
 20
2082.482558850012
 10
1188.694272551802
 20
2082.622521519665
 10
1188.702666953056
 20
2082.762260278904
 10
1188.716642699627
 20
2082.901551575523
 10
1188.736177433301
 20
2083.040172573161
 10
1188.761239902671
 20
2083.177901507794
 10
1188.791790013133
 20
2083.314518042507
 10
1188.827778891028
 20
2083.449803619986
 10
1188.869148961827
 20
2083.583541812168
 10
1188.915834042243
 20
2083.715518666474
 10
1188.967759446105
 20
2083.845523048092
 10
1189.024842103846
 20
2083.973346977743
 10
1189.086990695388
 20
2084.098785964407
 10
1189.154105796244
 20
2084.221639332465
 10
1189.226080036569
 20
2084.341710542735
 10
1189.302798272932
 20
2084.458807506894
 10
1189.38413777252
 20
2084.57274289478
 10
1189.469968409487
 20
2084.683334434076
 10
1189.560152873122
 20
2084.790405201912
 10
1189.654546887522
 20
2084.893783907899
 10
1189.752999442401
 20
2084.99330516816
 10
1189.855353034671
 20
2085.08880976991
 10
1189.961443920421
 20
2085.180144926158
 10
1190.071102376863
 20
2085.267164520139
 10
1190.184152973862
 20
2085.349729339065
 10
1190.300414854577
 20
2085.427707296839
 10
1190.419702024801
 20
2085.500973645363
 10
1190.541823650508
 20
2085.569411174109
 10
1190.666584363147
 20
2085.63291039763
 10
1190.793784572194
 20
2085.691369730713
 10
1190.923220784447
 20
2085.744695650897
 10
1191.05468592958
 20
2085.792802848085
 10
1191.187969691404
 20
2085.835614361024
 10
1191.322858844332
 20
2085.873061700426
 10
1191.459137594496
 20
2085.905084958535
 10
1191.596587924965
 20
2085.931632904971
 10
1191.734989944532
 20
2085.952663068682
 10
1191.874122239491
 20
2085.968141805894
 10
1192.013762227848
 20
2085.978044353926
 10
1192.153686515412
 20
2085.982354870816
 10
1192.191472925115
 20
2085.982558850012
  0
LWPOLYLINE
  5
2C6
330
2A7
100
AcDbEntity
  8
P-SANR-FIXT
100
AcDbPolyline
 90
       33
 70
   128
 43
0.0
 10
1203.176472925116
 20
2085.982558850012
 10
1202.572896791413
 20
2085.982558850012
 10
1201.97830918096
 20
2085.982558850012
 10
1201.393661307093
 20
2085.982558850012
 10
1200.819888481692
 20
2085.982558850012
 10
1200.257908618879
 20
2085.982558850012
 10
1199.708620766554
 20
2085.982558850012
 10
1199.172903668103
 20
2085.982558850012
 10
1198.651614356605
 20
2085.982558850012
 10
1198.145586783755
 20
2085.982558850012
 10
1197.655630485723
 20
2085.982558850012
 10
1197.182529288068
 20
2085.982558850012
 10
1196.727040051782
 20
2085.982558850012
 10
1196.289891462479
 20
2085.982558850012
 10
1195.871782864647
 20
2085.982558850012
 10
1195.473383142852
 20
2085.982558850012
 10
1195.09532965166
 20
2085.982558850012
 10
1194.738227196011
 20
2085.982558850012
 10
1194.402647063656
 20
2085.982558850012
 10
1194.08912611122
 20
2085.982558850012
 10
1193.798165905346
 20
2085.982558850012
 10
1193.530231920295
 20
2085.982558850012
 10
1193.285752793287
 20
2085.982558850012
 10
1193.065119638774
 20
2085.982558850012
 10
1192.868685422734
 20
2085.982558850012
 10
1192.696764398012
 20
2085.982558850012
 10
1192.549631601571
 20
2085.982558850012
 10
1192.4275224145
 20
2085.982558850012
 10
1192.330632185449
 20
2085.982558850012
 10
1192.259115918116
 20
2085.982558850012
 10
1192.213088023273
 20
2085.982558850012
 10
1192.192622135732
 20
2085.982558850012
 10
1192.191472925115
 20
2085.982558850012
  0
LWPOLYLINE
  5
2C7
330
2A7
100
AcDbEntity
  8
P-SANR-FIXT
100
AcDbPolyline
 90
       33
 70
   128
 43
0.0
 10
1192.191472925115
 20
2085.982558850012
 10
1192.20427121854
 20
2085.982558850012
 10
1192.242645624274
 20
2085.982558850012
 10
1192.306534751454
 20
2085.982558850012
 10
1192.395836391106
 20
2085.982558850012
 10
1192.510407679655
 20
2085.982558850012
 10
1192.650065327483
 20
2085.982558850012
 10
1192.814585912143
 20
2085.982558850012
 10
1193.003706235796
 20
2085.982558850012
 10
1193.217123746268
 20
2085.982558850012
 10
1193.454497021069
 20
2085.982558850012
 10
1193.715446313596
 20
2085.982558850012
 10
1193.999554160647
 20
2085.982558850012
 10
1194.306366050273
 20
2085.982558850012
 10
1194.635391148901
 20
2085.982558850012
 10
1194.98610308656
 20
2085.982558850012
 10
1195.357940798967
 20
2085.982558850012
 10
1195.750309425101
 20
2085.982558850012
 10
1196.162581258861
 20
2085.982558850012
 10
1196.594096753261
 20
2085.982558850012
 10
1197.044165575561
 20
2085.982558850012
 10
1197.512067711655
 20
2085.982558850012
 10
1197.997054617938
 20
2085.982558850012
 10
1198.49835041882
 20
2085.982558850012
 10
1199.015153147956
 20
2085.982558850012
 10
1199.546636031225
 20
2085.982558850012
 10
1200.091948809391
 20
2085.982558850012
 10
1200.650219098336
 20
2085.982558850012
 10
1201.220553784688
 20
2085.982558850012
 10
1201.802040454615
 20
2085.982558850012
 10
1202.393748853489
 20
2085.982558850012
 10
1202.994732374095
 20
2085.982558850012
 10
1203.176472925116
 20
2085.982558850012
  0
LWPOLYLINE
  5
2C8
330
2A7
100
AcDbEntity
  8
P-SANR-FIXT
100
AcDbPolyline
 90
       41
 70
   128
 43
0.0
 10
1224.191472925115
 20
2085.982558850012
 10
1224.331435594769
 20
2085.979759223325
 10
1224.471174354008
 20
2085.971364822071
 10
1224.610465650627
 20
2085.9573890755
 10
1224.749086648266
 20
2085.937854341826
 10
1224.886815582898
 20
2085.912791872456
 10
1225.023432117611
 20
2085.882241761994
 10
1225.15871769509
 20
2085.846252884099
 10
1225.292455887272
 20
2085.8048828133
 10
1225.424432741579
 20
2085.758197732884
 10
1225.554437123196
 20
2085.706272329022
 10
1225.682261052847
 20
2085.649189671281
 10
1225.807700039511
 20
2085.587041079739
 10
1225.930553407569
 20
2085.519925978883
 10
1226.050624617839
 20
2085.447951738558
 10
1226.167721581998
 20
2085.371233502196
 10
1226.281656969884
 20
2085.289894002607
 10
1226.39224850918
 20
2085.20406336564
 10
1226.499319277016
 20
2085.113878902005
 10
1226.602697983003
 20
2085.019484887605
 10
1226.702219243264
 20
2084.921032332727
 10
1226.797723845014
 20
2084.818678740456
 10
1226.889059001262
 20
2084.712587854707
 10
1226.976078595243
 20
2084.602929398264
 10
1227.058643414169
 20
2084.489878801266
 10
1227.136621371944
 20
2084.37361692055
 10
1227.209887720467
 20
2084.254329750327
 10
1227.278325249213
 20
2084.13220812462
 10
1227.341824472733
 20
2084.00744741198
 10
1227.400283805817
 20
2083.880247202934
 10
1227.453609726001
 20
2083.75081099068
 10
1227.501716923189
 20
2083.619345845547
 10
1227.544528436128
 20
2083.486062083724
 10
1227.58197577553
 20
2083.351172930795
 10
1227.613999033639
 20
2083.214894180632
 10
1227.640546980075
 20
2083.077443850162
 10
1227.661577143787
 20
2082.939041830595
 10
1227.677055880997
 20
2082.799909535637
 10
1227.68695842903
 20
2082.660269547279
 10
1227.691268945921
 20
2082.520345259716
 10
1227.691472925116
 20
2082.482558850012
  0
LWPOLYLINE
  5
2C9
330
2A7
100
AcDbEntity
  8
P-SANR-FIXT
100
AcDbPolyline
 90
       33
 70
   128
 43
0.0
 10
1213.206472925116
 20
2085.982558850012
 10
1213.810049058818
 20
2085.982558850012
 10
1214.404636669271
 20
2085.982558850012
 10
1214.989284543138
 20
2085.982558850012
 10
1215.56305736854
 20
2085.982558850012
 10
1216.125037231352
 20
2085.982558850012
 10
1216.674325083677
 20
2085.982558850012
 10
1217.210042182128
 20
2085.982558850012
 10
1217.731331493626
 20
2085.982558850012
 10
1218.237359066476
 20
2085.982558850012
 10
1218.727315364508
 20
2085.982558850012
 10
1219.200416562164
 20
2085.982558850012
 10
1219.655905798449
 20
2085.982558850012
 10
1220.093054387752
 20
2085.982558850012
 10
1220.511162985584
 20
2085.982558850012
 10
1220.909562707379
 20
2085.982558850012
 10
1221.287616198571
 20
2085.982558850012
 10
1221.64471865422
 20
2085.982558850012
 10
1221.980298786575
 20
2085.982558850012
 10
1222.293819739011
 20
2085.982558850012
 10
1222.584779944885
 20
2085.982558850012
 10
1222.852713929936
 20
2085.982558850012
 10
1223.097193056944
 20
2085.982558850012
 10
1223.317826211458
 20
2085.982558850012
 10
1223.514260427497
 20
2085.982558850012
 10
1223.686181452219
 20
2085.982558850012
 10
1223.83331424866
 20
2085.982558850012
 10
1223.955423435731
 20
2085.982558850012
 10
1224.052313664782
 20
2085.982558850012
 10
1224.123829932115
 20
2085.982558850012
 10
1224.169857826958
 20
2085.982558850012
 10
1224.190323714499
 20
2085.982558850012
 10
1224.191472925115
 20
2085.982558850012
  0
LWPOLYLINE
  5
2CA
330
2A7
100
AcDbEntity
  8
P-SANR-FIXT
100
AcDbPolyline
 90
       33
 70
   128
 43
0.0
 10
1224.191472925115
 20
2085.982558850012
 10
1224.178674631692
 20
2085.982558850012
 10
1224.140300225958
 20
2085.982558850012
 10
1224.076411098778
 20
2085.982558850012
 10
1223.987109459126
 20
2085.982558850012
 10
1223.872538170575
 20
2085.982558850012
 10
1223.732880522748
 20
2085.982558850012
 10
1223.568359938088
 20
2085.982558850012
 10
1223.379239614435
 20
2085.982558850012
 10
1223.165822103963
 20
2085.982558850012
 10
1222.928448829162
 20
2085.982558850012
 10
1222.667499536635
 20
2085.982558850012
 10
1222.383391689584
 20
2085.982558850012
 10
1222.076579799958
 20
2085.982558850012
 10
1221.747554701331
 20
2085.982558850012
 10
1221.39684276367
 20
2085.982558850012
 10
1221.025005051264
 20
2085.982558850012
 10
1220.632636425131
 20
2085.982558850012
 10
1220.22036459137
 20
2085.982558850012
 10
1219.78884909697
 20
2085.982558850012
 10
1219.33878027467
 20
2085.982558850012
 10
1218.870878138577
 20
2085.982558850012
 10
1218.385891232293
 20
2085.982558850012
 10
1217.884595431411
 20
2085.982558850012
 10
1217.367792702275
 20
2085.982558850012
 10
1216.836309819006
 20
2085.982558850012
 10
1216.29099704084
 20
2085.982558850012
 10
1215.732726751896
 20
2085.982558850012
 10
1215.162392065543
 20
2085.982558850012
 10
1214.580905395616
 20
2085.982558850012
 10
1213.989196996743
 20
2085.982558850012
 10
1213.388213476136
 20
2085.982558850012
 10
1213.206472925116
 20
2085.982558850012
  0
LINE
  5
2CB
330
2A7
100
AcDbEntity
  8
P-SANR-FIXT
100
AcDbLine
 10
1188.691472925116
 20
2082.482558850012
 30
0.0
 11
1188.691472925116
 21
2060.318949537131
 31
0.0
  0
LINE
  5
2CC
330
2A7
100
AcDbEntity
  8
P-SANR-FIXT
100
AcDbLine
 10
1227.691472925116
 20
2060.318949537131
 30
0.0
 11
1227.691472925116
 21
2082.482558850012
 31
0.0
  0
LWPOLYLINE
  5
2CD
330
2A7
100
AcDbEntity
  8
P-SANR-FIXT
100
AcDbPolyline
 90
       21
 70
   128
 43
0.0
 10
1187.812793268675
 20
2058.197629193571
 10
1187.895926626798
 20
2058.284156211719
 10
1187.975533329256
 20
2058.373938465122
 10
1188.051486022308
 20
2058.466832321327
 10
1188.123663197848
 20
2058.562689169979
 10
1188.19194938779
 20
2058.66135566057
 10
1188.256235348798
 20
2058.762673947763
 10
1188.316418237049
 20
2058.86648194391
 10
1188.37240177276
 20
2058.972613578363
 10
1188.424096394215
 20
2059.080899063148
 10
1188.471419401047
 20
2059.191165164588
 10
1188.514295086543
 20
2059.303235480442
 10
1188.55265485875
 20
2059.416930722113
 10
1188.586437350215
 20
2059.532069001468
 10
1188.615588516161
 20
2059.648466121821
 10
1188.640061720938
 20
2059.765935872609
 10
1188.659817812641
 20
2059.884290327291
 10
1188.674825185738
 20
2060.003340143986
 10
1188.685059831631
 20
2060.122894868384
 10
1188.690505377072
 20
2060.242763238429
 10
1188.691472925116
 20
2060.318949537131
  0
LWPOLYLINE
  5
2CE
330
2A7
100
AcDbEntity
  8
P-SANR-FIXT
100
AcDbPolyline
 90
       21
 70
   128
 43
0.0
 10
1227.691472925116
 20
2060.318949537131
 10
1227.693872605133
 20
2060.198981534571
 10
1227.701067806208
 20
2060.079205455223
 10
1227.713047017554
 20
2059.959812915264
 10
1227.729791074989
 20
2059.840994917288
 10
1227.751273191592
 20
2059.722941544745
 10
1227.77745900056
 20
2059.605841657849
 10
1227.808306610183
 20
2059.489882591439
 10
1227.843766670868
 20
2059.375249855282
 10
1227.883782454082
 20
2059.262126837305
 10
1227.928289943107
 20
2059.150694510205
 10
1227.977217935456
 20
2059.041131141933
 10
1228.030488156778
 20
2058.933612010506
 10
1228.088015386083
 20
2058.828309123599
 10
1228.149707592075
 20
2058.725390943368
 10
1228.215466080387
 20
2058.625022116946
 10
1228.285185651463
 20
2058.527363213044
 10
1228.358754768863
 20
2058.432570465075
 10
1228.436055737693
 20
2058.340795521216
 10
1228.516964892893
 20
2058.252185201799
 10
1228.570152581556
 20
2058.197629193571
  0
LINE
  5
2CF
330
2A7
100
AcDbEntity
  8
P-SANR-FIXT
100
AcDbLine
 10
1187.812793268675
 20
2058.197629193571
 30
0.0
 11
1185.320152581556
 21
2055.704988506452
 31
0.0
  0
LINE
  5
2D0
330
2A7
100
AcDbEntity
  8
P-SANR-FIXT
100
AcDbLine
 10
1231.062793268675
 20
2055.704988506452
 30
0.0
 11
1228.570152581556
 21
2058.197629193571
 31
0.0
  0
LWPOLYLINE
  5
2D1
330
2A7
100
AcDbEntity
  8
P-SANR-FIXT
100
AcDbPolyline
 90
       21
 70
   128
 43
0.0
 10
1184.441472925116
 20
2053.583668162892
 10
1184.443872605132
 20
2053.703636165452
 10
1184.451067806208
 20
2053.8234122448
 10
1184.463047017554
 20
2053.942804784759
 10
1184.479791074989
 20
2054.061622782735
 10
1184.501273191592
 20
2054.179676155277
 10
1184.52745900056
 20
2054.296776042173
 10
1184.558306610183
 20
2054.412735108585
 10
1184.593766670868
 20
2054.527367844741
 10
1184.633782454082
 20
2054.640490862718
 10
1184.678289943107
 20
2054.751923189818
 10
1184.727217935456
 20
2054.86148655809
 10
1184.780488156778
 20
2054.969005689517
 10
1184.838015386083
 20
2055.074308576424
 10
1184.899707592075
 20
2055.177226756655
 10
1184.965466080387
 20
2055.277595583078
 10
1185.035185651463
 20
2055.37525448698
 10
1185.108754768863
 20
2055.470047234948
 10
1185.186055737693
 20
2055.561822178806
 10
1185.266964892893
 20
2055.650432498224
 10
1185.320152581556
 20
2055.704988506452
  0
LWPOLYLINE
  5
2D2
330
2A7
100
AcDbEntity
  8
P-SANR-FIXT
100
AcDbPolyline
 90
       21
 70
   128
 43
0.0
 10
1231.062793268675
 20
2055.704988506452
 10
1231.145926626798
 20
2055.618461488304
 10
1231.225533329257
 20
2055.528679234901
 10
1231.301486022309
 20
2055.435785378696
 10
1231.373663197848
 20
2055.339928530044
 10
1231.44194938779
 20
2055.241262039453
 10
1231.506235348799
 20
2055.13994375226
 10
1231.56641823705
 20
2055.036135756113
 10
1231.62240177276
 20
2054.93000412166
 10
1231.674096394215
 20
2054.821718636875
 10
1231.721419401048
 20
2054.711452535435
 10
1231.764295086543
 20
2054.599382219581
 10
1231.80265485875
 20
2054.48568697791
 10
1231.836437350216
 20
2054.370548698555
 10
1231.865588516161
 20
2054.254151578202
 10
1231.890061720939
 20
2054.136681827414
 10
1231.909817812642
 20
2054.018327372732
 10
1231.924825185738
 20
2053.899277556037
 10
1231.935059831631
 20
2053.779722831639
 10
1231.940505377072
 20
2053.659854461594
 10
1231.941472925116
 20
2053.583668162892
  0
LINE
  5
2D3
330
2A7
100
AcDbEntity
  8
P-SANR-FIXT
100
AcDbLine
 10
1184.441472925116
 20
2053.583668162892
 30
0.0
 11
1184.441472925116
 21
2050.982558850012
 31
0.0
  0
LINE
  5
2D4
330
2A7
100
AcDbEntity
  8
P-SANR-FIXT
100
AcDbLine
 10
1231.941472925116
 20
2050.982558850012
 30
0.0
 11
1231.941472925116
 21
2053.583668162892
 31
0.0
  0
LINE
  5
2D5
330
2A7
100
AcDbEntity
  8
P-SANR-FIXT
100
AcDbLine
 10
1213.206472925116
 20
2085.982558850012
 30
0.0
 11
1203.176472925116
 21
2085.982558850012
 31
0.0
  0
LINE
  5
2D6
330
2A7
100
AcDbEntity
  8
P-SANR-FIXT
100
AcDbLine
 10
1213.206472925113
 20
2085.982558850011
 30
0.0
 11
1213.206472925113
 21
2083.099987543484
 31
0.0
  0
LINE
  5
2D7
330
2A7
100
AcDbEntity
  8
P-SANR-FIXT
100
AcDbLine
 10
1213.206472925113
 20
2083.099987543484
 30
0.0
 11
1213.206472925113
 21
2050.982558850011
 31
0.0
  0
LINE
  5
2D8
330
2A7
100
AcDbEntity
  8
P-SANR-FIXT
100
AcDbLine
 10
1213.206472925113
 20
2050.982558850011
 30
0.0
 11
1231.941472925113
 21
2050.982558850011
 31
0.0
  0
LINE
  5
2D9
330
2A7
100
AcDbEntity
  8
P-SANR-FIXT
100
AcDbLine
 10
1213.206472925113
 20
2050.982558850011
 30
0.0
 11
1208.191472925113
 21
2050.982558850011
 31
0.0
  0
LINE
  5
2DA
330
2A7
100
AcDbEntity
  8
P-SANR-FIXT
100
AcDbLine
 10
1184.441472925113
 20
2050.982558850011
 30
0.0
 11
1193.774801620818
 21
2050.982558850011
 31
0.0
  0
LINE
  5
2DB
330
2A7
100
AcDbEntity
  8
P-SANR-FIXT
100
AcDbLine
 10
1203.176472925113
 20
2052.731651310064
 30
0.0
 11
1203.176472925113
 21
2083.099987543483
 31
0.0
  0
LINE
  5
2DC
330
2A7
100
AcDbEntity
  8
P-SANR-FIXT
100
AcDbLine
 10
1203.176472925113
 20
2083.099987543484
 30
0.0
 11
1203.176472925113
 21
2085.982558850011
 31
0.0
  0
LINE
  5
2DD
330
2A7
100
AcDbEntity
  8
P-SANR-FIXT
100
AcDbLine
 10
1242.191472925116
 20
1990.982558850011
 30
0.0
 11
1247.691472925116
 21
1990.982558850011
 31
0.0
  0
LINE
  5
2DE
330
2A7
100
AcDbEntity
  8
P-SANR-FIXT
100
AcDbLine
 10
1247.691472925116
 20
2008.982558850012
 30
0.0
 11
1242.191472925116
 21
2008.982558850012
 31
0.0
  0
LINE
  5
2DF
330
2A7
100
AcDbEntity
  8
P-SANR-FIXT
100
AcDbLine
 10
1182.191472925116
 20
2047.482558850012
 30
0.0
 11
1180.776246247455
 21
2046.6654773467
 31
0.0
  0
LINE
  5
2E0
330
2A7
100
AcDbEntity
  8
P-SANR-FIXT
100
AcDbLine
 10
1180.757734393713
 20
2046.654789522959
 30
0.0
 11
1180.691472925116
 21
2046.616533446227
 31
0.0
  0
LINE
  5
2E1
330
2A7
100
AcDbEntity
  8
P-SANR-FIXT
100
AcDbLine
 10
1235.691472925116
 20
2046.616533446227
 30
0.0
 11
1235.625211456518
 21
2046.654789522959
 31
0.0
  0
LINE
  5
2E2
330
2A7
100
AcDbEntity
  8
P-SANR-FIXT
100
AcDbLine
 10
1235.606699602777
 20
2046.6654773467
 30
0.0
 11
1234.191472925116
 21
2047.482558850012
 31
0.0
  0
LINE
  5
2E3
330
2A7
100
AcDbEntity
  8
P-SANR-FIXT
100
AcDbLine
 10
1180.691472925116
 20
2046.616533446227
 30
0.0
 11
1180.691472925116
 21
2045.25356360522
 31
0.0
  0
LINE
  5
2E4
330
2A7
100
AcDbEntity
  8
P-SANR-FIXT
100
AcDbLine
 10
1235.691472925116
 20
2042.182558850011
 30
0.0
 11
1235.691472925116
 21
2046.616533446227
 31
0.0
  0
LINE
  5
2E5
330
2A7
100
AcDbEntity
  8
P-SANR-FIXT
100
AcDbLine
 10
1234.777259362743
 20
2041.268345287639
 30
0.0
 11
1235.691472925116
 21
2042.182558850011
 31
0.0
  0
LWPOLYLINE
  5
2E6
330
2A7
100
AcDbEntity
  8
P-SANR-FIXT
100
AcDbPolyline
 90
       21
 70
   128
 43
0.0
 10
1234.777259362743
 20
2041.268345287639
 10
1234.721837123994
 20
2041.210660608873
 10
1234.668765989022
 20
2041.150805773271
 10
1234.618130860321
 20
2041.088876535802
 10
1234.570012743294
 20
2041.024971970033
 10
1234.524488616666
 20
2040.959194309639
 10
1234.481631309327
 20
2040.891648784844
 10
1234.441509383826
 20
2040.822443454079
 10
1234.404187026686
 20
2040.75168903111
 10
1234.369723945716
 20
2040.679498707921
 10
1234.338175274494
 20
2040.605987973628
 10
1234.309591484164
 20
2040.531274429724
 10
1234.284018302693
 20
2040.455477601944
 10
1234.261496641716
 20
2040.378718749041
 10
1234.242062531086
 20
2040.301120668805
 10
1234.225747061234
 20
2040.222807501613
 10
1234.212576333432
 20
2040.143904531825
 10
1234.202571418034
 20
2040.064537987362
 10
1234.195748320772
 20
2039.984834837763
 10
1234.192117957144
 20
2039.904922591067
 10
1234.191472925116
 20
2039.854131725265
  0
LINE
  5
2E7
330
2A7
100
AcDbEntity
  8
P-SANR-FIXT
100
AcDbLine
 10
1234.191472925116
 20
2019.612468002459
 30
0.0
 11
1234.191472925116
 21
2039.854131725265
 31
0.0
  0
LINE
  5
2E8
330
2A7
100
AcDbEntity
  8
P-SANR-FIXT
100
AcDbLine
 10
1242.191472925116
 20
2008.982558850012
 30
0.0
 11
1238.191472925116
 21
2008.982558850012
 31
0.0
  0
LINE
  5
2E9
330
2A7
100
AcDbEntity
  8
P-SANR-FIXT
100
AcDbLine
 10
1178.191472925115
 20
2008.982558850012
 30
0.0
 11
1178.031930555942
 21
2008.982558850012
 31
0.0
  0
LINE
  5
2EA
330
2A7
100
AcDbEntity
  8
P-SANR-FIXT
100
AcDbLine
 10
1178.031930555942
 20
1990.982558850011
 30
0.0
 11
1178.191472925116
 21
1990.982558850011
 31
0.0
  0
LINE
  5
2EB
330
2A7
100
AcDbEntity
  8
P-SANR-FIXT
100
AcDbLine
 10
1238.191472925116
 20
1990.982558850011
 30
0.0
 11
1242.191472925116
 21
1990.982558850011
 31
0.0
  0
LINE
  5
2EC
330
2A7
100
AcDbEntity
  8
P-SANR-FIXT
100
AcDbLine
 10
1183.191472925115
 20
2050.782558850011
 30
0.0
 11
1182.191472925116
 21
2049.782558850012
 31
0.0
  0
LINE
  5
2ED
330
2A7
100
AcDbEntity
  8
P-SANR-FIXT
100
AcDbLine
 10
1234.191472925116
 20
2049.782558850012
 30
0.0
 11
1233.191472925116
 21
2050.782558850011
 31
0.0
  0
LINE
  5
2EE
330
2A7
100
AcDbEntity
  8
P-SANR-FIXT
100
AcDbLine
 10
1182.191472925116
 20
2049.782558850012
 30
0.0
 11
1182.191472925116
 21
2047.482558850012
 31
0.0
  0
LINE
  5
2EF
330
2A7
100
AcDbEntity
  8
P-SANR-FIXT
100
AcDbLine
 10
1234.191472925116
 20
2047.482558850012
 30
0.0
 11
1234.191472925116
 21
2049.782558850012
 31
0.0
  0
LINE
  5
2F0
330
2A7
100
AcDbEntity
  8
P-SANR-FIXT
100
AcDbLine
 10
1189.929283100556
 20
2050.982558850012
 30
0.0
 11
1189.929283100556
 21
2050.782558850011
 31
0.0
  0
LINE
  5
2F1
330
2A7
100
AcDbEntity
  8
P-SANR-FIXT
100
AcDbLine
 10
1226.453662749676
 20
2050.782558850011
 30
0.0
 11
1226.453662749676
 21
2050.982558850012
 31
0.0
  0
ARC
  5
2F2
330
2A7
100
AcDbEntity
  8
P-SANR-FIXT
100
AcDbCircle
 10
1208.191472925113
 20
1999.982558850011
 30
0.0
 40
19.05000000000022
100
AcDbArc
 50
90.00000000000104
 51
270.0000000000007
  0
ARC
  5
2F3
330
2A7
100
AcDbEntity
  8
P-SANR-FIXT
100
AcDbCircle
 10
1208.191472925113
 20
1999.982558850011
 30
0.0
 40
19.04999999999995
100
AcDbArc
 50
270.0000000000003
 51
90.0
  0
ARC
  5
2F4
330
2A7
100
AcDbEntity
  8
P-SANR-FIXT
100
AcDbCircle
 10
1208.191472925113
 20
1999.982558850011
 30
0.0
 40
29.99999999999977
100
AcDbArc
 50
89.99999999999957
 51
122.604427941851
  0
ARC
  5
2F5
330
2A7
100
AcDbEntity
  8
P-SANR-FIXT
100
AcDbCircle
 10
1208.191472925113
 20
1999.982558850011
 30
0.0
 40
29.99999999999987
100
AcDbArc
 50
122.6249999999998
 51
237.3749999999994
  0
ARC
  5
2F6
330
2A7
100
AcDbEntity
  8
P-SANR-FIXT
100
AcDbCircle
 10
1208.191472925113
 20
1999.982558850011
 30
0.0
 40
29.99999999999976
100
AcDbArc
 50
237.5360397099198
 51
269.9999999999992
  0
SPLINE
  5
2F7
330
2A7
100
AcDbEntity
  8
P-SANR-FIXT
100
AcDbSpline
210
0.0
220
0.0
230
1.0
 70
    24
 71
     3
 72
     8
 73
     4
 74
     0
 42
0.000000001
 43
0.0000000001
 40
-0.8704166117277175
 40
-0.8704166117277175
 40
-0.8704166117277175
 40
-0.8704166117277175
 40
-0.5652986972355866
 40
-0.5652986972355866
 40
-0.5652986972355866
 40
-0.5652986972355866
 10
1201.605149884543
 20
2030.820959620945
 30
0.0
 10
1199.281494556831
 20
2029.479396591987
 30
0.0
 10
1196.959220174322
 20
2028.138630852113
 30
0.0
 10
1194.644649184489
 20
2026.802312668074
 30
0.0
  0
SPLINE
  5
2F8
330
2A7
100
AcDbEntity
  8
P-SANR-FIXT
100
AcDbSpline
210
0.0
220
0.0
230
1.0
 70
    24
 71
     3
 72
     9
 73
     5
 74
     0
 42
0.000000001
 43
0.0000000001
 40
-0.53972811532728
 40
-0.53972811532728
 40
-0.53972811532728
 40
-0.53972811532728
 40
-0.5
 40
-0.1306984160914107
 40
-0.1306984160914107
 40
-0.1306984160914107
 40
-0.1306984160914107
 10
1194.063860349091
 20
2026.466994077615
 30
0.0
 10
1193.762418853619
 20
2026.292956749059
 30
0.0
 10
1190.659381613603
 20
2024.501417363231
 30
0.0
 10
1187.566852744526
 20
2022.715944988192
 30
0.0
 10
1184.776820974512
 20
2021.105119394727
 30
0.0
  0
SPLINE
  5
2F9
330
2A7
100
AcDbEntity
  8
P-SANR-FIXT
100
AcDbSpline
210
0.0
220
0.0
230
1.0
 70
    24
 71
     3
 72
     9
 73
     5
 74
     0
 42
0.000000001
 43
0.0000000001
 40
-0.8704166117277061
 40
-0.8704166117277061
 40
-0.8704166117277061
 40
-0.8704166117277061
 40
-0.5
 40
-0.1306984160913898
 40
-0.1306984160913898
 40
-0.1306984160913898
 40
-0.1306984160913898
 10
1178.191472925113
 20
2009.697836164813
 30
0.0
 10
1178.191472925113
 20
2006.4404906731
 30
0.0
 10
1178.191472925113
 20
1999.946982944041
 30
0.0
 10
1178.191472925113
 20
1993.488240848168
 30
0.0
 10
1178.191472925113
 20
1990.266325861663
 30
0.0
  0
SPLINE
  5
2FA
330
2A7
100
AcDbEntity
  8
P-SANR-FIXT
100
AcDbSpline
210
0.0
220
0.0
230
1.0
 70
    24
 71
     3
 72
     9
 73
     5
 74
     0
 42
0.000000001
 43
0.0000000001
 40
-0.8704166117277189
 40
-0.8704166117277189
 40
-0.8704166117277189
 40
-0.8704166117277189
 40
-0.5
 40
-0.463130741691916
 40
-0.463130741691916
 40
-0.463130741691916
 40
-0.463130741691916
 10
1184.777795965683
 20
1978.859435393879
 30
0.0
 10
1187.59873991041
 20
1977.230762648022
 30
0.0
 10
1190.69747811135
 20
1975.441705313561
 30
0.0
 10
1193.781727183143
 20
1973.661013281713
 30
0.0
 10
1194.060826419419
 20
1973.499875262519
 30
0.0
  0
SPLINE
  5
2FB
330
2A7
100
AcDbEntity
  8
P-SANR-FIXT
100
AcDbSpline
210
0.0
220
0.0
230
1.0
 70
    24
 71
     3
 72
     8
 73
     4
 74
     0
 42
0.000000001
 43
0.0000000001
 40
-0.4375070214850046
 40
-0.4375070214850046
 40
-0.4375070214850046
 40
-0.4375070214850046
 40
-0.1306984160913911
 40
-0.1306984160913911
 40
-0.1306984160913911
 40
-0.1306984160913911
 10
1194.644600784828
 20
1973.162832975504
 30
0.0
 10
1196.969890985934
 20
1971.820326051952
 30
0.0
 10
1199.288818098364
 20
1970.481492859359
 30
0.0
 10
1201.606388857341
 20
1969.143442757798
 30
0.0
  0
ARC
  5
2FC
330
2A7
100
AcDbEntity
  8
P-SANR-FIXT
100
AcDbCircle
 10
1208.191472925113
 20
1999.982558850011
 30
0.0
 40
30.0
100
AcDbArc
 50
269.9999999999997
 51
89.99999999999957
  0
SPLINE
  5
2FD
330
2A7
100
AcDbEntity
  8
P-SANR-FIXT
100
AcDbSpline
210
0.0
220
0.0
230
1.0
 70
    24
 71
     3
 72
     8
 73
     4
 74
     0
 42
0.000000001
 43
0.0000000001
 40
-1.0
 40
-1.0
 40
-1.0
 40
-1.0
 40
-0.5652986972355897
 40
-0.5652986972355897
 40
-0.5652986972355897
 40
-0.5652986972355897
 10
1211.815099381668
 20
1967.433644408768
 30
0.0
 10
1215.130376961131
 20
1969.347720811709
 30
0.0
 10
1218.437658363978
 20
1971.257180619928
 30
0.0
 10
1221.736943590209
 20
1973.162023833426
 30
0.0
  0
SPLINE
  5
2FE
330
2A7
100
AcDbEntity
  8
P-SANR-FIXT
100
AcDbSpline
210
0.0
220
0.0
230
1.0
 70
    24
 71
     3
 72
     8
 73
     4
 74
     0
 42
0.000000001
 43
0.0000000001
 40
-0.5093176335147139
 40
-0.5093176335147139
 40
-0.5093176335147139
 40
-0.5093176335147139
 40
-0.5
 40
-0.5
 40
-0.5
 40
-0.5
 10
1223.011196844371
 20
1973.897714292732
 30
0.0
 10
1223.081871444844
 20
1973.93851829234
 30
0.0
 10
1223.152545978107
 20
1973.979322253145
 30
0.0
 10
1223.223209624485
 20
1974.020119928403
 30
0.0
  0
SPLINE
  5
2FF
330
2A7
100
AcDbEntity
  8
P-SANR-FIXT
100
AcDbSpline
210
0.0
220
0.0
230
1.0
 70
    24
 71
     3
 72
     8
 73
     4
 74
     0
 42
0.000000001
 43
0.0000000001
 40
-0.4701925778121736
 40
-0.4701925778121736
 40
-0.4701925778121736
 40
-0.4701925778121736
 40
0.0
 40
0.0
 40
0.0
 40
0.0
 10
1223.901297572839
 20
1974.411614187919
 30
0.0
 10
1227.466169048939
 20
1976.469793694272
 30
0.0
 10
1231.021685347512
 20
1978.522571986361
 30
0.0
 10
1234.567846468558
 20
1980.569949064187
 30
0.0
  0
SPLINE
  5
300
330
2A7
100
AcDbEntity
  8
P-SANR-FIXT
100
AcDbSpline
210
0.0
220
0.0
230
1.0
 70
    24
 71
     3
 72
     9
 73
     5
 74
     0
 42
0.000000001
 43
0.0000000001
 40
-1.0
 40
-1.0
 40
-1.0
 40
-1.0
 40
-0.5
 40
0.0
 40
0.0
 40
0.0
 40
0.0
 10
1238.191472925113
 20
1986.846254194591
 30
0.0
 10
1238.191472925113
 20
1991.249453335631
 30
0.0
 10
1238.191472925113
 20
2000.031420695144
 30
0.0
 10
1238.191472925113
 20
2008.764526209524
 30
0.0
 10
1238.191472925113
 20
2013.11886350543
 30
0.0
  0
SPLINE
  5
301
330
2A7
100
AcDbEntity
  8
P-SANR-FIXT
100
AcDbSpline
210
0.0
220
0.0
230
1.0
 70
    24
 71
     3
 72
     8
 73
     4
 74
     0
 42
0.000000001
 43
0.0000000001
 40
-1.0
 40
-1.0
 40
-1.0
 40
-1.0
 40
-0.5326809239952488
 40
-0.5326809239952488
 40
-0.5326809239952488
 40
-0.5326809239952488
 10
1234.567846468558
 20
2019.395168635834
 30
0.0
 10
1231.003807333453
 20
2021.45286758989
 30
0.0
 10
1227.449009380128
 20
2023.505231145156
 30
0.0
 10
1223.903452608584
 20
2025.552259301635
 30
0.0
  0
SPLINE
  5
302
330
2A7
100
AcDbEntity
  8
P-SANR-FIXT
100
AcDbSpline
210
0.0
220
0.0
230
1.0
 70
    24
 71
     3
 72
     8
 73
     4
 74
     0
 42
0.000000001
 43
0.0000000001
 40
-0.5
 40
-0.5
 40
-0.5
 40
-0.5
 40
-0.495239665613985
 40
-0.495239665613985
 40
-0.495239665613985
 40
-0.495239665613985
 10
1223.159736225742
 20
2025.981644155469
 30
0.0
 10
1223.123632664298
 20
2026.002488556388
 30
0.0
 10
1223.087531961308
 20
2026.023331306977
 30
0.0
 10
1223.051434062518
 20
2026.04417243856
 30
0.0
  0
SPLINE
  5
303
330
2A7
100
AcDbEntity
  8
P-SANR-FIXT
100
AcDbSpline
210
0.0
220
0.0
230
1.0
 70
    24
 71
     3
 72
     8
 73
     4
 74
     0
 42
0.000000001
 43
0.0000000001
 40
-0.4375070214849968
 40
-0.4375070214849968
 40
-0.4375070214849968
 40
-0.4375070214849968
 40
0.0
 40
0.0
 40
0.0
 40
0.0
 10
1221.738345065398
 20
2026.802284724517
 30
0.0
 10
1218.422496774022
 20
2028.716690628135
 30
0.0
 10
1215.114748212779
 20
2030.62642015038
 30
0.0
 10
1211.815099381668
 20
2032.531473291254
 30
0.0
  0
ARC
  5
304
330
2A7
100
AcDbEntity
  8
P-SANR-FIXT
100
AcDbCircle
 10
1208.191472925113
 20
1999.982558850011
 30
0.0
 40
32.74999999999999
100
AcDbArc
 50
323.6474969184968
 51
336.3525030815018
  0
ARC
  5
305
330
2A7
100
AcDbEntity
  8
P-SANR-FIXT
100
AcDbCircle
 10
1208.191472925113
 20
1999.982558850011
 30
0.0
 40
32.74999999999985
100
AcDbArc
 50
23.64749691849716
 51
36.35250308150212
  0
ARC
  5
306
330
2A7
100
AcDbEntity
  8
P-SANR-FIXT
100
AcDbCircle
 10
1208.191472925113
 20
1999.982558850011
 30
0.0
 40
32.74999999999977
100
AcDbArc
 50
269.9999999999997
 51
276.3525030815021
  0
ARC
  5
307
330
2A7
100
AcDbEntity
  8
P-SANR-FIXT
100
AcDbCircle
 10
1208.191472925113
 20
1999.982558850011
 30
0.0
 40
32.74999999999999
100
AcDbArc
 50
83.64749691849711
 51
89.9999999999996
  0
SPLINE
  5
308
330
2A7
100
AcDbEntity
  8
P-SANR-FIXT
100
AcDbSpline
210
0.0
220
0.0
230
1.0
 70
    24
 71
     3
 72
     8
 73
     4
 74
     0
 42
0.000000001
 43
0.0000000001
 40
-1.0
 40
-1.0
 40
-1.0
 40
-1.0
 40
-0.9120020748260959
 40
-0.9120020748260959
 40
-0.9120020748260959
 40
-0.9120020748260959
 10
1178.191472925113
 20
1999.982558850011
 30
0.0
 10
1178.191472925113
 20
2000.372124133068
 30
0.0
 10
1178.191472925113
 20
2000.761316061608
 30
0.0
 10
1178.191472925113
 20
2001.150134635629
 30
0.0
  0
SPLINE
  5
309
330
2A7
100
AcDbEntity
  8
P-SANR-FIXT
100
AcDbSpline
210
0.0
220
0.0
230
1.0
 70
    24
 71
     3
 72
     8
 73
     4
 74
     0
 42
0.000000001
 43
0.0000000001
 40
-0.547709073953871
 40
-0.547709073953871
 40
-0.547709073953871
 40
-0.547709073953871
 40
-0.5269076706483867
 40
-0.5269076706483867
 40
-0.5269076706483867
 40
-0.5269076706483867
 10
1192.040911659528
 20
2025.299044107139
 30
0.0
 10
1192.201750923382
 20
2025.391904699421
 30
0.0
 10
1192.362784129489
 20
2025.484877264316
 30
0.0
 10
1192.523952480905
 20
2025.57792785539
 30
0.0
  0
SPLINE
  5
30A
330
2A7
100
AcDbEntity
  8
P-SANR-FIXT
100
AcDbSpline
210
0.0
220
0.0
230
1.0
 70
    24
 71
     3
 72
     8
 73
     4
 74
     0
 42
0.000000001
 43
0.0000000001
 40
-0.4695603937901685
 40
-0.4695603937901685
 40
-0.4695603937901685
 40
-0.4695603937901685
 40
-0.4487589904846927
 40
-0.4487589904846927
 40
-0.4487589904846927
 40
-0.4487589904846927
 10
1192.526956025828
 20
1974.385455747161
 30
0.0
 10
1192.365841798197
 20
1974.478475089854
 30
0.0
 10
1192.204622800232
 20
1974.571554921728
 30
0.0
 10
1192.043383605142
 20
1974.664646414417
 30
0.0
  0
SPLINE
  5
30B
330
2A7
100
AcDbEntity
  8
P-SANR-FIXT
100
AcDbSpline
210
0.0
220
0.0
230
1.0
 70
    24
 71
     3
 72
     8
 73
     4
 74
     0
 42
0.000000001
 43
0.0000000001
 40
-0.0874532234463279
 40
-0.0874532234463279
 40
-0.0874532234463279
 40
-0.0874532234463279
 40
0.0
 40
0.0
 40
0.0
 40
0.0
 10
1178.191472925113
 20
1998.813243937015
 30
0.0
 10
1178.191472925113
 20
1999.202360620294
 30
0.0
 10
1178.191472925113
 20
1999.59213225796
 30
0.0
 10
1178.191472925113
 20
1999.982558850011
 30
0.0
  0
SPLINE
  5
30C
330
2A7
100
AcDbEntity
  8
P-SANR-FIXT
100
AcDbSpline
210
0.0
220
0.0
230
1.0
 70
    24
 71
     3
 72
     8
 73
     4
 74
     0
 42
0.000000001
 43
0.0000000001
 40
-0.4695603937901757
 40
-0.4695603937901757
 40
-0.4695603937901757
 40
-0.4695603937901757
 40
-0.4487589904846999
 40
-0.4487589904846999
 40
-0.4487589904846999
 40
-0.4487589904846999
 10
1223.855989824399
 20
2025.57966195286
 30
0.0
 10
1224.01710405203
 20
2025.486642610167
 30
0.0
 10
1224.178323049995
 20
2025.393562778294
 30
0.0
 10
1224.339562245085
 20
2025.300471285605
 30
0.0
  0
SPLINE
  5
30D
330
2A7
100
AcDbEntity
  8
P-SANR-FIXT
100
AcDbSpline
210
0.0
220
0.0
230
1.0
 70
    24
 71
     3
 72
     8
 73
     4
 74
     0
 42
0.000000001
 43
0.0000000001
 40
-0.0874532234463238
 40
-0.0874532234463238
 40
-0.0874532234463238
 40
-0.0874532234463238
 40
0.0
 40
0.0
 40
0.0
 40
0.0
 10
1238.191472925113
 20
2001.151873763006
 30
0.0
 10
1238.191472925113
 20
2000.762757079727
 30
0.0
 10
1238.191472925113
 20
2000.372985442062
 30
0.0
 10
1238.191472925113
 20
1999.982558850011
 30
0.0
  0
SPLINE
  5
30E
330
2A7
100
AcDbEntity
  8
P-SANR-FIXT
100
AcDbSpline
210
0.0
220
0.0
230
1.0
 70
    24
 71
     3
 72
     8
 73
     4
 74
     0
 42
0.000000001
 43
0.0000000001
 40
-1.0
 40
-1.0
 40
-1.0
 40
-1.0
 40
-0.9120020748260934
 40
-0.9120020748260934
 40
-0.9120020748260934
 40
-0.9120020748260934
 10
1238.191472925113
 20
1999.982558850011
 30
0.0
 10
1238.191472925113
 20
1999.592993566953
 30
0.0
 10
1238.191472925113
 20
1999.203801638414
 30
0.0
 10
1238.191472925113
 20
1998.814983064393
 30
0.0
  0
SPLINE
  5
30F
330
2A7
100
AcDbEntity
  8
P-SANR-FIXT
100
AcDbSpline
210
0.0
220
0.0
230
1.0
 70
    24
 71
     3
 72
     8
 73
     4
 74
     0
 42
0.000000001
 43
0.0000000001
 40
-0.5477090739538643
 40
-0.5477090739538643
 40
-0.5477090739538643
 40
-0.5477090739538643
 40
-0.5269076706483885
 40
-0.5269076706483885
 40
-0.5269076706483885
 40
-0.5269076706483885
 10
1224.342034190698
 20
1974.666073592882
 30
0.0
 10
1224.181194926844
 20
1974.573213000599
 30
0.0
 10
1224.020161720738
 20
1974.480240435705
 30
0.0
 10
1223.858993369322
 20
1974.387189844631
 30
0.0
  0
LINE
  5
310
330
2A7
100
AcDbEntity
  8
P-SANR-FIXT
100
AcDbLine
 10
1247.691472925113
 20
2004.849209267478
 30
0.0
 11
1247.691472925113
 21
2004.105664475628
 31
0.0
  0
LINE
  5
311
330
2A7
100
AcDbEntity
  8
P-SANR-FIXT
100
AcDbLine
 10
1247.691472925113
 20
1995.859453224393
 30
0.0
 11
1247.691472925113
 21
2004.105664475628
 31
0.0
  0
LINE
  5
312
330
2A7
100
AcDbEntity
  8
P-SANR-FIXT
100
AcDbLine
 10
1247.691472925113
 20
1995.859453224393
 30
0.0
 11
1247.691472925113
 21
1995.115908432544
 31
0.0
  0
LINE
  5
313
330
2A7
100
AcDbEntity
  8
P-SANR-FIXT
100
AcDbLine
 10
1247.691472925113
 20
1990.992802806926
 30
0.0
 11
1247.691472925113
 21
1995.115908432544
 31
0.0
  0
LINE
  5
314
330
2A7
100
AcDbEntity
  8
P-SANR-FIXT
100
AcDbLine
 10
1247.691472925113
 20
1990.992802806926
 30
0.0
 11
1247.691472925113
 21
1990.98255885001
 31
0.0
  0
LINE
  5
315
330
2A7
100
AcDbEntity
  8
P-SANR-FIXT
100
AcDbLine
 10
1247.691472925113
 20
2008.982558850011
 30
0.0
 11
1247.691472925113
 21
2008.972314893095
 31
0.0
  0
LINE
  5
316
330
2A7
100
AcDbEntity
  8
P-SANR-FIXT
100
AcDbLine
 10
1247.691472925113
 20
2004.849209267478
 30
0.0
 11
1247.691472925113
 21
2008.972314893095
 31
0.0
  0
LINE
  5
317
330
2A7
100
AcDbEntity
  8
P-SANR-FIXT
100
AcDbLine
 10
1242.191472925113
 20
1990.992802806926
 30
0.0
 11
1247.691472925113
 21
1990.992802806926
 31
0.0
  0
LINE
  5
318
330
2A7
100
AcDbEntity
  8
P-SANR-FIXT
100
AcDbLine
 10
1247.691472925113
 20
1995.115908432544
 30
0.0
 11
1242.191472925113
 21
1995.115908432544
 31
0.0
  0
LINE
  5
319
330
2A7
100
AcDbEntity
  8
P-SANR-FIXT
100
AcDbLine
 10
1242.191472925113
 20
1995.859453224393
 30
0.0
 11
1247.691472925113
 21
1995.859453224393
 31
0.0
  0
LINE
  5
31A
330
2A7
100
AcDbEntity
  8
P-SANR-FIXT
100
AcDbLine
 10
1247.691472925113
 20
2004.105664475628
 30
0.0
 11
1242.191472925113
 21
2004.105664475628
 31
0.0
  0
LINE
  5
31B
330
2A7
100
AcDbEntity
  8
P-SANR-FIXT
100
AcDbLine
 10
1242.191472925113
 20
2004.849209267478
 30
0.0
 11
1247.691472925113
 21
2004.849209267478
 31
0.0
  0
LINE
  5
31C
330
2A7
100
AcDbEntity
  8
P-SANR-FIXT
100
AcDbLine
 10
1247.691472925113
 20
2008.972314893095
 30
0.0
 11
1242.191472925113
 21
2008.972314893095
 31
0.0
  0
SPLINE
  5
31D
330
2A7
100
AcDbEntity
  8
P-SANR-FIXT
100
AcDbSpline
210
0.0
220
0.0
230
1.0
 70
     8
 71
     3
 72
     9
 73
     5
 74
     0
 42
0.000000001
 43
0.0000000001
 40
-0.8723554548331112
 40
-0.8723554548331112
 40
-0.8723554548331112
 40
-0.8723554548331112
 40
-0.8125
 40
-0.7878314627120194
 40
-0.7878314627120194
 40
-0.7878314627120194
 40
-0.7878314627120194
 10
1190.203766761382
 20
2006.547107757161
 30
0.0
 10
1190.306407888435
 20
2006.717623444172
 30
0.0
 10
1190.449352169343
 20
2006.96148852746
 30
0.0
 10
1190.589823594601
 20
2007.209206313075
 30
0.0
 10
1190.630522232926
 20
2007.281899928026
 30
0.0
  0
SPLINE
  5
31E
330
2A7
100
AcDbEntity
  8
P-SANR-FIXT
100
AcDbSpline
210
0.0
220
0.0
230
1.0
 70
     8
 71
     3
 72
     8
 73
     4
 74
     0
 42
0.000000001
 43
0.0000000001
 40
-0.5534812751812164
 40
-0.5534812751812164
 40
-0.5534812751812164
 40
-0.5534812751812164
 40
-0.5494826595769046
 40
-0.5494826595769046
 40
-0.5494826595769046
 40
-0.5494826595769046
 10
1191.698476171207
 20
2009.465041922559
 30
0.0
 10
1191.704317203367
 20
2009.477825118976
 30
0.0
 10
1191.710161016328
 20
2009.490608917618
 30
0.0
 10
1191.716007976383
 20
2009.503392987921
 30
0.0
  0
SPLINE
  5
31F
330
2A7
100
AcDbEntity
  8
P-SANR-FIXT
100
AcDbSpline
210
0.0
220
0.0
230
1.0
 70
     8
 71
     3
 72
     8
 73
     4
 74
     0
 42
0.000000001
 43
0.0000000001
 40
-0.4505173404230977
 40
-0.4505173404230977
 40
-0.4505173404230977
 40
-0.4505173404230977
 40
-0.4465187248189153
 40
-0.4465187248189153
 40
-0.4465187248189153
 40
-0.4465187248189153
 10
1224.666937430805
 20
2009.503392269965
 30
0.0
 10
1224.672784674285
 20
2009.490608658961
 30
0.0
 10
1224.678628576645
 20
2009.477825016489
 30
0.0
 10
1224.68446947953
 20
2009.465041631379
 30
0.0
  0
SPLINE
  5
320
330
2A7
100
AcDbEntity
  8
P-SANR-FIXT
100
AcDbSpline
210
0.0
220
0.0
230
1.0
 70
     8
 71
     3
 72
     9
 73
     5
 74
     0
 42
0.000000001
 43
0.0000000001
 40
-0.2121685372879569
 40
-0.2121685372879569
 40
-0.2121685372879569
 40
-0.2121685372879569
 40
-0.1875
 40
-0.1276445451668774
 40
-0.1276445451668774
 40
-0.1276445451668774
 40
-0.1276445451668774
 10
1225.752424222472
 20
2007.281900823053
 30
0.0
 10
1225.793122679795
 20
2007.209206940407
 30
0.0
 10
1225.933780782498
 20
2006.961809128572
 30
0.0
 10
1226.075627502147
 20
2006.716063945154
 30
0.0
 10
1226.179064230369
 20
2006.546911019523
 30
0.0
  0
SPLINE
  5
321
330
2A7
100
AcDbEntity
  8
P-SANR-FIXT
100
AcDbSpline
210
0.0
220
0.0
230
1.0
 70
    24
 71
     3
 72
     8
 73
     4
 74
     0
 42
0.000000001
 43
0.0000000001
 40
-0.5512410095153005
 40
-0.5512410095153005
 40
-0.5512410095153005
 40
-0.5512410095153005
 40
-0.530439606209826
 40
-0.530439606209826
 40
-0.530439606209826
 40
-0.530439606209826
 10
1192.043693802117
 20
1974.66446732211
 30
0.0
 10
1192.204744833244
 20
1974.571484465935
 30
0.0
 10
1192.365991736646
 20
1974.47838852285
 30
0.0
 10
1192.527362901935
 20
1974.385220837131
 30
0.0
  0
SPLINE
  5
322
330
2A7
100
AcDbEntity
  8
P-SANR-FIXT
100
AcDbSpline
210
0.0
220
0.0
230
1.0
 70
    24
 71
     3
 72
     8
 73
     4
 74
     0
 42
0.000000001
 43
0.0000000001
 40
-0.4730923293516116
 40
-0.4730923293516116
 40
-0.4730923293516116
 40
-0.4730923293516116
 40
-0.4522909260461358
 40
-0.4522909260461358
 40
-0.4522909260461358
 40
-0.4522909260461358
 10
1223.85927371491
 20
1974.387351702232
 30
0.0
 10
1224.0202652112
 20
1974.480300185952
 30
0.0
 10
1224.181363588227
 20
1974.573310377294
 30
0.0
 10
1224.342464865344
 20
1974.666322243004
 30
0.0
  0
LINE
  5
323
330
2A7
100
AcDbEntity
  8
P-SANR-FIXT
100
AcDbLine
 10
1184.71293841647
 20
2047.482558850011
 30
0.0
 11
1182.191472925113
 21
2047.482558850011
 31
0.0
  0
LINE
  5
324
330
2A7
100
AcDbEntity
  8
P-SANR-FIXT
100
AcDbLine
 10
1234.191472925113
 20
2047.482558850011
 30
0.0
 11
1208.191472925113
 21
2047.482558850011
 31
0.0
  0
LINE
  5
325
330
2A7
100
AcDbEntity
  8
P-SANR-FIXT
100
AcDbLine
 10
1180.691472925113
 20
2046.616533446226
 30
0.0
 11
1183.064442193899
 21
2046.616533446226
 31
0.0
  0
LINE
  5
326
330
2A7
100
AcDbEntity
  8
P-SANR-FIXT
100
AcDbLine
 10
1208.191472925113
 20
2046.616533446226
 30
0.0
 11
1235.691472925113
 21
2046.616533446226
 31
0.0
  0
LINE
  5
327
330
2A7
100
AcDbEntity
  8
P-SANR-FIXT
100
AcDbLine
 10
1208.191472925113
 20
2042.182558850011
 30
0.0
 11
1235.691472925113
 21
2042.182558850011
 31
0.0
  0
LINE
  5
328
330
2A7
100
AcDbEntity
  8
P-SANR-FIXT
100
AcDbLine
 10
1242.191472925113
 20
1999.982558850011
 30
0.0
 11
1242.191472925113
 21
2004.105664475628
 31
0.0
  0
LINE
  5
329
330
2A7
100
AcDbEntity
  8
P-SANR-FIXT
100
AcDbLine
 10
1242.191472925113
 20
2004.849209267478
 30
0.0
 11
1242.191472925113
 21
2008.972314893095
 31
0.0
  0
LINE
  5
32A
330
2A7
100
AcDbEntity
  8
P-SANR-FIXT
100
AcDbLine
 10
1242.191472925113
 20
1990.992802806926
 30
0.0
 11
1242.191472925113
 21
1995.115908432544
 31
0.0
  0
LINE
  5
32B
330
2A7
100
AcDbEntity
  8
P-SANR-FIXT
100
AcDbLine
 10
1242.191472925113
 20
1995.859453224393
 30
0.0
 11
1242.191472925113
 21
1999.982558850011
 31
0.0
  0
LINE
  5
32C
330
2A7
100
AcDbEntity
  8
P-SANR-FIXT
100
AcDbLine
 10
1183.191472925113
 20
2050.782558850011
 30
0.0
 11
1193.138273343238
 21
2050.782558850011
 31
0.0
  0
LINE
  5
32D
330
2A7
100
AcDbEntity
  8
P-SANR-FIXT
100
AcDbLine
 10
1208.191472925113
 20
2050.782558850011
 30
0.0
 11
1233.191472925113
 21
2050.782558850011
 31
0.0
  0
LINE
  5
32E
330
2A7
100
AcDbEntity
  8
P-SANR-FIXT
100
AcDbLine
 10
1182.191472925113
 20
2049.782558850011
 30
0.0
 11
1190.056585934691
 21
2049.782558850011
 31
0.0
  0
LINE
  5
32F
330
2A7
100
AcDbEntity
  8
P-SANR-FIXT
100
AcDbLine
 10
1208.191472925113
 20
2049.782558850011
 30
0.0
 11
1234.191472925113
 21
2049.782558850011
 31
0.0
  0
ENDBLK
  5
331
330
2A7
100
AcDbEntity
  8
0
100
AcDbBlockEnd
  0
ENDSEC
  0
SECTION
  2
ENTITIES
  0
INSERT
  5
1DA
330
71
100
AcDbEntity
  8
P-SANR-FIXT
100
AcDbBlockReference
  2
Automatic flow rate regulator valve_Caleffi_121 DN15 - 1_2__-859151-Est - Idraulica
 10
0.0
 20
0.0
 30
0.0
1001
REVIT
1002
{
1070
     1
1000
863131
1002
}
1002
{
1070
     5
1000
859151
1002
}
1002
{
1070
     2
1000
-2001160
1002
}
  0
INSERT
  5
2A6
330
71
100
AcDbEntity
  8
P-SANR-FIXT
100
AcDbBlockReference
  2
Automatic flow rate regulator valve_Caleffi_121 DN15 - 1_2__-V1-Est - Idraulica
 10
0.0
 20
0.0
 30
0.0
1001
REVIT
1002
{
1070
     1
1000
863152
1002
}
1002
{
1070
     5
1000
859151
1002
}
1002
{
1070
     2
1000
-2001160
1002
}
  0
INSERT
  5
332
330
71
100
AcDbEntity
  8
P-SANR-FIXT
100
AcDbBlockReference
  2
Automatic flow rate regulator valve_Caleffi_121 DN15 - 1_2__-V2-Est - Idraulica
 10
0.0
 20
0.0
 30
0.0
1001
REVIT
1002
{
1070
     1
1000
863172
1002
}
1002
{
1070
     5
1000
859151
1002
}
1002
{
1070
     2
1000
-2001160
1002
}
  0
ENDSEC
  0
SECTION
  2
OBJECTS
  0
DICTIONARY
  5
C
330
0
100
AcDbDictionary
281
     1
  3
ACAD_CIP_PREVIOUS_PRODUCT_INFO
350
7A
  3
ACAD_COLOR
350
63
  3
ACAD_DETAILVIEWSTYLE
350
6B
  3
ACAD_GROUP
350
D
  3
ACAD_IMAGE_VARS
350
7B
  3
ACAD_LAYOUT
350
62
  3
ACAD_MATERIAL
350
10
  3
ACAD_MLEADERSTYLE
350
66
  3
ACAD_MLINESTYLE
350
5F
  3
ACAD_PLOTSETTINGS
350
61
  3
ACAD_PLOTSTYLENAME
350
E
  3
ACAD_SCALELIST
350
42
  3
ACAD_SECTIONVIEWSTYLE
350
68
  3
ACAD_TABLESTYLE
350
64
  3
ACAD_VISUALSTYLE
350
29
  3
ACDB_RECOMPOSE_DATA
350
33D
  3
AcDbVariableDictionary
350
7C
  3
REVIT_DICTIONARY
350
334
  0
DICTIONARY
  5
339
330
71
100
AcDbDictionary
280
     1
281
     1
  3
ACAD_SORTENTS
360
33A
  0
XRECORD
  5
7A
102
{ACAD_REACTORS
330
C
102
}
330
C
100
AcDbXrecord
280
     1
300
RVT
300
2013
300
RVT2013
  0
DICTIONARY
  5
63
102
{ACAD_REACTORS
330
C
102
}
330
C
100
AcDbDictionary
281
     1
  0
DICTIONARY
  5
6B
102
{ACAD_REACTORS
330
C
102
}
330
C
100
AcDbDictionary
281
     1
  3
Imperial24
350
6C
  0
DICTIONARY
  5
D
102
{ACAD_REACTORS
330
C
102
}
330
C
100
AcDbDictionary
281
     1
  0
RASTERVARIABLES
  5
7B
102
{ACAD_REACTORS
330
C
102
}
330
C
100
AcDbRasterVariables
 90
        0
 70
     0
 71
     1
 72
     1
  0
DICTIONARY
  5
62
102
{ACAD_REACTORS
330
C
102
}
330
C
100
AcDbDictionary
281
     1
  3
Layout1
350
70
  3
Layout2
350
78
  3
Model
350
74
  0
DICTIONARY
  5
10
102
{ACAD_REACTORS
330
C
102
}
330
C
100
AcDbDictionary
281
     1
  3
ByBlock
350
19
  3
ByLayer
350
11
  3
Global
350
21
  0
DICTIONARY
  5
66
102
{ACAD_REACTORS
330
C
102
}
330
C
100
AcDbDictionary
281
     1
  3
Standard
350
67
  0
DICTIONARY
  5
5F
102
{ACAD_REACTORS
330
C
102
}
330
C
100
AcDbDictionary
281
     1
  3
Standard
350
60
  0
DICTIONARY
  5
61
102
{ACAD_REACTORS
330
C
102
}
330
C
100
AcDbDictionary
281
     1
  0
ACDBDICTIONARYWDFLT
  5
E
102
{ACAD_REACTORS
330
C
102
}
330
C
100
AcDbDictionary
281
     1
  3
Normal
350
F
100
AcDbDictionaryWithDefault
340
F
  0
DICTIONARY
  5
42
102
{ACAD_REACTORS
330
C
102
}
330
C
100
AcDbDictionary
281
     1
  3
A0
350
43
  3
A1
350
44
  3
A2
350
45
  3
A3
350
46
  3
A4
350
47
  3
A5
350
48
  3
A6
350
49
  3
A7
350
4A
  3
A8
350
4B
  3
A9
350
4C
  3
B0
350
4D
  3
B1
350
4E
  3
B2
350
4F
  3
B3
350
50
  3
B4
350
51
  3
B5
350
52
  3
B6
350
53
  0
DICTIONARY
  5
68
102
{ACAD_REACTORS
330
C
102
}
330
C
100
AcDbDictionary
281
     1
  3
Imperial24
350
6A
  0
DICTIONARY
  5
64
102
{ACAD_REACTORS
330
C
102
}
330
C
100
AcDbDictionary
281
     1
  3
Standard
350
65
  0
DICTIONARY
  5
29
102
{ACAD_REACTORS
330
C
102
}
330
C
100
AcDbDictionary
281
     1
  3
2dWireframe
350
2F
  3
Basic
350
2E
  3
Brighten
350
35
  3
ColorChange
350
39
  3
Conceptual
350
32
  3
Dim
350
34
  3
EdgeColorOff
350
41
  3
Facepattern
350
38
  3
Flat
350
2A
  3
FlatWithEdges
350
2B
  3
Gouraud
350
2C
  3
GouraudWithEdges
350
2D
  3
Hidden
350
31
  3
JitterOff
350
3F
  3
Linepattern
350
37
  3
OverhangOff
350
40
  3
Realistic
350
33
  3
Shaded
350
3E
  3
Shaded with edges
350
3D
  3
Shades of Gray
350
3A
  3
Sketchy
350
3B
  3
Thicken
350
36
  3
Wireframe
350
30
  3
X-Ray
350
3C
  0
XRECORD
  5
33D
102
{ACAD_REACTORS
330
C
102
}
330
C
100
AcDbXrecord
280
     1
 90
        1
330
65
  0
DICTIONARY
  5
7C
102
{ACAD_REACTORS
330
C
102
}
330
C
100
AcDbDictionary
281
     1
  3
CANNOSCALE
350
81
  3
CMLEADERSTYLE
350
7E
  3
CTABLESTYLE
350
7D
  3
CVIEWDETAILSTYLE
350
7F
  3
CVIEWSECTIONSTYLE
350
80
  0
DICTIONARY
  5
334
102
{ACAD_REACTORS
330
C
102
}
330
C
100
AcDbDictionary
281
     1
  3
DRAWING_TOOL
350
338
  3
REVIT_CATEGORY_MAPPING
350
336
  3
REVIT_SUB_CATEGORY_MAPPING
350
337
  3
REVIT_TYPE_MAPPING
350
335
  0
SORTENTSTABLE
  5
33A
102
{ACAD_REACTORS
330
339
102
}
330
339
100
AcDbSortentsTable
330
71
  0
ACDBDETAILVIEWSTYLE
  5
6C
102
{ACAD_REACTORS
330
6B
102
}
330
6B
100
AcDbModelDocViewStyle
 70
     0
  3
Imperial24
290
     1
100
AcDbDetailViewStyle
 70
     0
 71
     0
 90
        3
 71
     1
340
55
 62
   256
 40
0.24
340
0
 62
   256
 40
0.24
300

 40
0.36
280
     3
 71
     2
340
5D
 90
       25
 62
   256
 71
     3
340
55
 62
   256
 40
0.24
 90
        1
 40
0.75
 90
        1
300
%<\AcVar ViewType \f "%tc1">% %<\AcVar ViewDetailId>%\PSCALA %<\AcVar ViewScale \f "%sn">%
 71
     4
340
5D
 90
       25
 62
   256
340
5D
 90
       25
 62
   256
280
     0
  0
LAYOUT
  5
70
102
{ACAD_REACTORS
330
62
102
}
330
62
100
AcDbPlotSettings
  1

  2

  4

  6

 40
0.0
 41
0.0
 42
0.0
 43
0.0
 44
0.0
 45
0.0
 46
0.0
 47
0.0
 48
0.0
 49
0.0
140
0.0
141
0.0
142
1.0
143
1.0
 70
   688
 72
     0
 73
     0
 74
     5
  7

 75
    16
147
1.0
 76
     0
 77
     2
 78
   300
148
0.0
149
0.0
100
AcDbLayout
  1
Layout1
 70
     1
 71
     1
 10
0.0
 20
0.0
 11
12.0
 21
9.0
 12
0.0
 22
0.0
 32
0.0
 14
0.0
 24
0.0
 34
0.0
 15
0.0
 25
0.0
 35
0.0
146
0.0
 13
0.0
 23
0.0
 33
0.0
 16
1.0
 26
0.0
 36
0.0
 17
0.0
 27
1.0
 37
0.0
 76
     0
330
6D
  0
LAYOUT
  5
78
102
{ACAD_REACTORS
330
62
102
}
330
62
100
AcDbPlotSettings
  1

  2

  4

  6

 40
0.0
 41
0.0
 42
0.0
 43
0.0
 44
0.0
 45
0.0
 46
0.0
 47
0.0
 48
0.0
 49
0.0
140
0.0
141
0.0
142
1.0
143
1.0
 70
   688
 72
     0
 73
     0
 74
     5
  7

 75
    16
147
1.0
 76
     0
 77
     2
 78
   300
148
0.0
149
0.0
100
AcDbLayout
  1
Layout2
 70
     1
 71
     2
 10
0.0
 20
0.0
 11
12.0
 21
9.0
 12
0.0
 22
0.0
 32
0.0
 14
0.0
 24
0.0
 34
0.0
 15
0.0
 25
0.0
 35
0.0
146
0.0
 13
0.0
 23
0.0
 33
0.0
 16
1.0
 26
0.0
 36
0.0
 17
0.0
 27
1.0
 37
0.0
 76
     0
330
75
  0
LAYOUT
  5
74
102
{ACAD_REACTORS
330
62
102
}
330
62
100
AcDbPlotSettings
  1

  2

  4

  6

 40
0.0
 41
0.0
 42
0.0
 43
0.0
 44
0.0
 45
0.0
 46
0.0
 47
0.0
 48
0.0
 49
0.0
140
0.0
141
0.0
142
1.0
143
1.0
 70
  1712
 72
     0
 73
     0
 74
     0
  7

 75
     0
147
1.0
 76
     0
 77
     2
 78
   300
148
0.0
149
0.0
100
AcDbLayout
  1
Model
 70
     1
 71
     0
 10
0.0
 20
0.0
 11
12.0
 21
9.0
 12
0.0
 22
0.0
 32
0.0
 14
0.0
 24
0.0
 34
0.0
 15
0.0
 25
0.0
 35
0.0
146
0.0
 13
0.0
 23
0.0
 33
0.0
 16
1.0
 26
0.0
 36
0.0
 17
0.0
 27
1.0
 37
0.0
 76
     0
330
71
  0
MATERIAL
  5
19
102
{ACAD_XDICTIONARY
360
1A
102
}
102
{ACAD_REACTORS
330
10
102
}
330
10
100
AcDbMaterial
  1
ByBlock
 72
     0
 43
0.0208333333333333
 43
0.0
 43
0.0
 43
0.0
 43
0.0
 43
0.0208333333333333
 43
0.0
 43
0.0
 43
0.0
 43
0.0
 43
1.0
 43
0.0
 43
0.0
 43
0.0
 43
0.0
 43
1.0
 77
     0
 47
0.0208333333333333
 47
0.0
 47
0.0
 47
0.0
 47
0.0
 47
0.0208333333333333
 47
0.0
 47
0.0
 47
0.0
 47
0.0
 47
1.0
 47
0.0
 47
0.0
 47
0.0
 47
0.0
 47
1.0
171
     0
 49
0.0208333333333333
 49
0.0
 49
0.0
 49
0.0
 49
0.0
 49
0.0208333333333333
 49
0.0
 49
0.0
 49
0.0
 49
0.0
 49
1.0
 49
0.0
 49
0.0
 49
0.0
 49
0.0
 49
1.0
175
     0
142
0.0208333333333333
142
0.0
142
0.0
142
0.0
142
0.0
142
0.0208333333333333
142
0.0
142
0.0
142
0.0
142
0.0
142
1.0
142
0.0
142
0.0
142
0.0
142
0.0
142
1.0
179
     0
144
0.0208333333333333
144
0.0
144
0.0
144
0.0
144
0.0
144
0.0208333333333333
144
0.0
144
0.0
144
0.0
144
0.0
144
1.0
144
0.0
144
0.0
144
0.0
144
0.0
144
1.0
147
0.0208333333333333
147
0.0
147
0.0
147
0.0
147
0.0
147
0.0208333333333333
147
0.0
147
0.0
147
0.0
147
0.0
147
1.0
147
0.0
147
0.0
147
0.0
147
0.0
147
1.0
  0
MATERIAL
  5
11
102
{ACAD_XDICTIONARY
360
12
102
}
102
{ACAD_REACTORS
330
10
102
}
330
10
100
AcDbMaterial
  1
ByLayer
 72
     0
 43
0.0208333333333333
 43
0.0
 43
0.0
 43
0.0
 43
0.0
 43
0.0208333333333333
 43
0.0
 43
0.0
 43
0.0
 43
0.0
 43
1.0
 43
0.0
 43
0.0
 43
0.0
 43
0.0
 43
1.0
 77
     0
 47
0.0208333333333333
 47
0.0
 47
0.0
 47
0.0
 47
0.0
 47
0.0208333333333333
 47
0.0
 47
0.0
 47
0.0
 47
0.0
 47
1.0
 47
0.0
 47
0.0
 47
0.0
 47
0.0
 47
1.0
171
     0
 49
0.0208333333333333
 49
0.0
 49
0.0
 49
0.0
 49
0.0
 49
0.0208333333333333
 49
0.0
 49
0.0
 49
0.0
 49
0.0
 49
1.0
 49
0.0
 49
0.0
 49
0.0
 49
0.0
 49
1.0
175
     0
142
0.0208333333333333
142
0.0
142
0.0
142
0.0
142
0.0
142
0.0208333333333333
142
0.0
142
0.0
142
0.0
142
0.0
142
1.0
142
0.0
142
0.0
142
0.0
142
0.0
142
1.0
179
     0
144
0.0208333333333333
144
0.0
144
0.0
144
0.0
144
0.0
144
0.0208333333333333
144
0.0
144
0.0
144
0.0
144
0.0
144
1.0
144
0.0
144
0.0
144
0.0
144
0.0
144
1.0
147
0.0208333333333333
147
0.0
147
0.0
147
0.0
147
0.0
147
0.0208333333333333
147
0.0
147
0.0
147
0.0
147
0.0
147
1.0
147
0.0
147
0.0
147
0.0
147
0.0
147
1.0
  0
MATERIAL
  5
21
102
{ACAD_XDICTIONARY
360
22
102
}
102
{ACAD_REACTORS
330
10
102
}
330
10
100
AcDbMaterial
  1
Global
 72
     0
 43
0.0208333333333333
 43
0.0
 43
0.0
 43
0.0
 43
0.0
 43
0.0208333333333333
 43
0.0
 43
0.0
 43
0.0
 43
0.0
 43
1.0
 43
0.0
 43
0.0
 43
0.0
 43
0.0
 43
1.0
 77
     0
 47
0.0208333333333333
 47
0.0
 47
0.0
 47
0.0
 47
0.0
 47
0.0208333333333333
 47
0.0
 47
0.0
 47
0.0
 47
0.0
 47
1.0
 47
0.0
 47
0.0
 47
0.0
 47
0.0
 47
1.0
171
     0
 49
0.0208333333333333
 49
0.0
 49
0.0
 49
0.0
 49
0.0
 49
0.0208333333333333
 49
0.0
 49
0.0
 49
0.0
 49
0.0
 49
1.0
 49
0.0
 49
0.0
 49
0.0
 49
0.0
 49
1.0
175
     0
142
0.0208333333333333
142
0.0
142
0.0
142
0.0
142
0.0
142
0.0208333333333333
142
0.0
142
0.0
142
0.0
142
0.0
142
1.0
142
0.0
142
0.0
142
0.0
142
0.0
142
1.0
179
     0
144
0.0208333333333333
144
0.0
144
0.0
144
0.0
144
0.0
144
0.0208333333333333
144
0.0
144
0.0
144
0.0
144
0.0
144
1.0
144
0.0
144
0.0
144
0.0
144
0.0
144
1.0
147
0.0208333333333333
147
0.0
147
0.0
147
0.0
147
0.0
147
0.0208333333333333
147
0.0
147
0.0
147
0.0
147
0.0
147
1.0
147
0.0
147
0.0
147
0.0
147
0.0
147
1.0
  0
MLEADERSTYLE
  5
67
102
{ACAD_REACTORS
330
66
102
}
330
66
100
AcDbMLeaderStyle
179
     2
170
     2
171
     1
172
     0
 90
        2
 40
0.0
 41
0.0
173
     1
 91
-1056964608
340
5B
 92
       -2
290
     1
 42
0.09
291
     1
 43
0.36
  3
Standard
 44
0.18
300

342
55
174
     1
178
     6
175
     1
176
     0
 93
-1056964608
 45
0.18
292
     0
297
     0
 46
0.18
 94
-1056964608
 47
1.0
 49
1.0
140
1.0
293
     1
141
0.0
294
     1
177
     0
142
1.0
295
     1
296
     0
143
0.125
271
     0
272
     9
273
     9
298
     1
  0
MLINESTYLE
  5
60
102
{ACAD_REACTORS
330
5F
102
}
330
5F
100
AcDbMlineStyle
  2
STANDARD
 70
     0
  3

 62
   256
 51
90.0
 52
90.0
 71
     2
 49
0.5
 62
   256
  6
BYLAYER
 49
-0.5
 62
   256
  6
BYLAYER
  0
ACDBPLACEHOLDER
  5
F
102
{ACAD_REACTORS
330
E
102
}
330
E
  0
SCALE
  5
43
102
{ACAD_REACTORS
330
42
102
}
330
42
100
AcDbScale
 70
     0
300
1:1
140
1.0
141
1.0
290
     1
  0
SCALE
  5
44
102
{ACAD_REACTORS
330
42
102
}
330
42
100
AcDbScale
 70
     0
300
1/128" = 1'-0"
140
0.0078125
141
12.0
290
     0
  0
SCALE
  5
45
102
{ACAD_REACTORS
330
42
102
}
330
42
100
AcDbScale
 70
     0
300
1/64" = 1'-0"
140
0.015625
141
12.0
290
     0
  0
SCALE
  5
46
102
{ACAD_REACTORS
330
42
102
}
330
42
100
AcDbScale
 70
     0
300
1/32" = 1'-0"
140
0.03125
141
12.0
290
     0
  0
SCALE
  5
47
102
{ACAD_REACTORS
330
42
102
}
330
42
100
AcDbScale
 70
     0
300
1/16" = 1'-0"
140
0.0625
141
12.0
290
     0
  0
SCALE
  5
48
102
{ACAD_REACTORS
330
42
102
}
330
42
100
AcDbScale
 70
     0
300
3/32" = 1'-0"
140
0.09375
141
12.0
290
     0
  0
SCALE
  5
49
102
{ACAD_REACTORS
330
42
102
}
330
42
100
AcDbScale
 70
     0
300
1/8" = 1'-0"
140
0.125
141
12.0
290
     0
  0
SCALE
  5
4A
102
{ACAD_REACTORS
330
42
102
}
330
42
100
AcDbScale
 70
     0
300
3/16" = 1'-0"
140
0.1875
141
12.0
290
     0
  0
SCALE
  5
4B
102
{ACAD_REACTORS
330
42
102
}
330
42
100
AcDbScale
 70
     0
300
1/4" = 1'-0"
140
0.25
141
12.0
290
     0
  0
SCALE
  5
4C
102
{ACAD_REACTORS
330
42
102
}
330
42
100
AcDbScale
 70
     0
300
3/8" = 1'-0"
140
0.375
141
12.0
290
     0
  0
SCALE
  5
4D
102
{ACAD_REACTORS
330
42
102
}
330
42
100
AcDbScale
 70
     0
300
1/2" = 1'-0"
140
0.5
141
12.0
290
     0
  0
SCALE
  5
4E
102
{ACAD_REACTORS
330
42
102
}
330
42
100
AcDbScale
 70
     0
300
3/4" = 1'-0"
140
0.75
141
12.0
290
     0
  0
SCALE
  5
4F
102
{ACAD_REACTORS
330
42
102
}
330
42
100
AcDbScale
 70
     0
300
1" = 1'-0"
140
1.0
141
12.0
290
     0
  0
SCALE
  5
50
102
{ACAD_REACTORS
330
42
102
}
330
42
100
AcDbScale
 70
     0
300
1-1/2" = 1'-0"
140
1.5
141
12.0
290
     0
  0
SCALE
  5
51
102
{ACAD_REACTORS
330
42
102
}
330
42
100
AcDbScale
 70
     0
300
3" = 1'-0"
140
3.0
141
12.0
290
     0
  0
SCALE
  5
52
102
{ACAD_REACTORS
330
42
102
}
330
42
100
AcDbScale
 70
     0
300
6" = 1'-0"
140
6.0
141
12.0
290
     0
  0
SCALE
  5
53
102
{ACAD_REACTORS
330
42
102
}
330
42
100
AcDbScale
 70
     0
300
1'-0" = 1'-0"
140
12.0
141
12.0
290
     0
  0
ACDBSECTIONVIEWSTYLE
  5
6A
102
{ACAD_REACTORS
330
68
102
}
330
68
100
AcDbModelDocViewStyle
 70
     0
  3
Imperial24
290
     1
100
AcDbSectionViewStyle
 70
     0
 71
     0
 90
       78
 71
     1
340
55
 62
   256
 40
0.24
340
0
340
0
 62
   256
 40
0.24
300
I, O, Q, S, X, Z
 40
0.48
 90
        3
 40
0.18
 90
        1
 71
     2
340
69
 90
       25
 62
   256
340
5D
 90
       50
 62
   256
 40
0.24
 40
0.0
 40
0.24
 71
     3
340
55
 62
   256
 40
0.24
 90
        1
 40
0.75
 90
        1
300
%<\AcVar ViewType \f "%tc1">% %<\AcVar ViewSectionStartId>%-%<\AcVar ViewSectionEndId>%\PSCALA %<\AcVar ViewScale \f "%sn">%
 71
     4
 62
   256
 62
   257
300
ANSI31
 40
1.0
 90
        0
290
     0
290
     0
 90
        6
 40
0.0
 40
1.570796326794896
 40
0.2617993877991494
 40
1.308996938995747
 40
-0.2617993877991494
 40
1.832595714594046
  0
TABLESTYLE
  5
65
102
{ACAD_XDICTIONARY
360
33B
102
}
102
{ACAD_REACTORS
330
64
102
}
330
64
100
AcDbTableStyle
280
     0
  3
Standard
 70
     0
 71
     0
 40
0.06
 41
0.06
280
     0
281
     0
  7
Standard
140
0.18
170
     2
 62
     0
 63
     7
283
     0
 90
      512
 91
        0
  1

274
    -2
284
     1
 64
     0
275
    -2
285
     1
 65
     0
276
    -2
286
     1
 66
     0
277
    -2
287
     1
 67
     0
278
    -2
288
     1
 68
     0
279
    -2
289
     1
 69
     0
  7
Standard
140
0.25
170
     5
 62
     0
 63
     7
283
     0
 90
      512
 91
        0
  1

274
    -2
284
     1
 64
     0
275
    -2
285
     1
 65
     0
276
    -2
286
     1
 66
     0
277
    -2
287
     1
 67
     0
278
    -2
288
     1
 68
     0
279
    -2
289
     1
 69
     0
  7
Standard
140
0.18
170
     5
 62
     0
 63
     7
283
     0
 90
      512
 91
        0
  1

274
    -2
284
     1
 64
     0
275
    -2
285
     1
 65
     0
276
    -2
286
     1
 66
     0
277
    -2
287
     1
 67
     0
278
    -2
288
     1
 68
     0
279
    -2
289
     1
 69
     0
  0
VISUALSTYLE
  5
2F
102
{ACAD_REACTORS
330
29
102
}
330
29
100
AcDbVisualStyle
  2
2dWireframe
 70
     4
177
     3
291
     0
 70
    58
 90
        0
176
     1
 90
        2
176
     1
 90
        0
176
     1
 90
        0
176
     1
 40
0.6
176
     1
 40
30.0
176
     1
 62
     7
420
 16777215
176
     1
 90
        1
176
     1
 90
        4
176
     1
 62
     7
176
     1
 62
   257
176
     1
 90
        1
176
     1
 90
        1
176
     1
 40
1.0
176
     1
 90
        0
176
     1
 62
   257
176
     1
 40
1.0
176
     1
 90
        1
176
     1
 90
        6
176
     1
 90
        2
176
     1
 62
     7
176
     1
 90
        5
176
     1
 90
        0
176
     1
 90
        0
176
     1
290
     0
176
     1
 90
        1
176
     1
 40
0.0
176
     1
 90
        0
176
     1
290
     1
176
     1
290
     1
176
     1
290
     0
176
     1
290
     0
176
     1
290
     0
176
     1
290
     0
176
     1
290
     0
176
     1
290
     0
176
     1
290
     0
176
     1
 90
       50
176
     1
 40
0.0
176
     1
 40
1.0
176
     1
 90
        0
176
     1
 62
    18
420
        0
176
     1
 90
       50
176
     1
 90
        3
176
     1
 62
     5
420
      255
176
     1
290
     0
176
     1
 90
       50
176
     1
 90
       50
176
     1
 90
       50
176
     1
290
     0
176
     1
 90
       50
176
     1
 62
   256
176
     0
 40
1.0
176
     0
 90
        2
176
     1
  1
strokes_ogs.tif
176
     1
290
     0
176
     1
 40
1.0
176
     1
 40
1.0
176
     1
  0
VISUALSTYLE
  5
2E
102
{ACAD_REACTORS
330
29
102
}
330
29
100
AcDbVisualStyle
  2
Basic
 70
     7
177
     3
291
     1
 70
    58
 90
        1
176
     1
 90
        0
176
     1
 90
        1
176
     1
 90
        0
176
     1
 40
0.6
176
     1
 40
30.0
176
     1
 62
     7
420
 16777215
176
     1
 90
        0
176
     1
 90
        4
176
     1
 62
     7
176
     1
 62
   257
176
     1
 90
        1
176
     1
 90
        1
176
     1
 40
1.0
176
     1
 90
        8
176
     1
 62
     7
176
     1
 40
1.0
176
     1
 90
        1
176
     1
 90
        6
176
     1
 90
        2
176
     1
 62
     7
176
     1
 90
        5
176
     1
 90
        0
176
     1
 90
        0
176
     1
290
     0
176
     1
 90
        1
176
     1
 40
0.0
176
     1
 90
        0
176
     1
290
     0
176
     1
290
     1
176
     1
290
     1
176
     1
290
     0
176
     1
290
     0
176
     1
290
     0
176
     1
290
     0
176
     1
290
     0
176
     1
290
     0
176
     1
 90
       50
176
     1
 40
0.0
176
     1
 40
1.0
176
     1
 90
        0
176
     1
 62
    18
420
        0
176
     1
 90
       50
176
     1
 90
        3
176
     1
 62
     5
420
      255
176
     1
290
     0
176
     1
 90
       50
176
     1
 90
       50
176
     1
 90
       50
176
     1
290
     0
176
     1
 90
       50
176
     1
 62
   256
176
     0
 40
1.0
176
     0
 90
        2
176
     1
  1
strokes_ogs.tif
176
     1
290
     0
176
     1
 40
1.0
176
     1
 40
1.0
176
     1
  0
VISUALSTYLE
  5
35
102
{ACAD_REACTORS
330
29
102
}
330
29
100
AcDbVisualStyle
  2
Brighten
 70
    12
177
     3
291
     1
 70
    58
 90
        2
176
     1
 90
        2
176
     1
 90
        0
176
     1
 90
        0
176
     1
 40
0.6
176
     1
 40
30.0
176
     1
 62
     7
420
 16777215
176
     1
 90
        1
176
     1
 90
        4
176
     1
 62
     7
176
     1
 62
   257
176
     1
 90
        1
176
     1
 90
        1
176
     1
 40
1.0
176
     1
 90
        8
176
     1
 62
     7
176
     1
 40
1.0
176
     1
 90
        1
176
     1
 90
        6
176
     1
 90
        2
176
     1
 62
     7
176
     1
 90
        5
176
     1
 90
        0
176
     1
 90
        0
176
     1
290
     0
176
     1
 90
        1
176
     1
 40
50.0
176
     1
 90
        0
176
     1
290
     0
176
     1
290
     1
176
     1
290
     1
176
     1
290
     0
176
     1
290
     0
176
     1
290
     0
176
     1
290
     0
176
     1
290
     0
176
     1
290
     0
176
     1
 90
       50
176
     1
 40
0.0
176
     1
 40
1.0
176
     1
 90
        0
176
     1
 62
    18
420
        0
176
     1
 90
       50
176
     1
 90
        3
176
     1
 62
     5
420
      255
176
     1
290
     0
176
     1
 90
       50
176
     1
 90
       50
176
     1
 90
       50
176
     1
290
     0
176
     1
 90
       50
176
     1
 62
   256
176
     0
 40
1.0
176
     0
 90
        2
176
     1
  1
strokes_ogs.tif
176
     1
290
     0
176
     1
 40
1.0
176
     1
 40
1.0
176
     1
  0
VISUALSTYLE
  5
39
102
{ACAD_REACTORS
330
29
102
}
330
29
100
AcDbVisualStyle
  2
ColorChange
 70
    16
177
     3
291
     1
 70
    58
 90
        2
176
     1
 90
        2
176
     1
 90
        3
176
     1
 90
        0
176
     1
 40
0.6
176
     1
 40
30.0
176
     1
 62
     8
420
  8421504
176
     1
 90
        1
176
     1
 90
        4
176
     1
 62
     7
176
     1
 62
   257
176
     1
 90
        1
176
     1
 90
        1
176
     1
 40
1.0
176
     1
 90
        8
176
     1
 62
     8
420
  8421504
176
     1
 40
1.0
176
     1
 90
        1
176
     1
 90
        6
176
     1
 90
        2
176
     1
 62
     7
176
     1
 90
        5
176
     1
 90
        0
176
     1
 90
        0
176
     1
290
     0
176
     1
 90
        1
176
     1
 40
0.0
176
     1
 90
        0
176
     1
290
     0
176
     1
290
     1
176
     1
290
     1
176
     1
290
     0
176
     1
290
     0
176
     1
290
     0
176
     1
290
     0
176
     1
290
     0
176
     1
290
     0
176
     1
 90
       50
176
     1
 40
0.0
176
     1
 40
1.0
176
     1
 90
        0
176
     1
 62
    18
420
        0
176
     1
 90
       50
176
     1
 90
        3
176
     1
 62
     5
420
      255
176
     1
290
     0
176
     1
 90
       50
176
     1
 90
       50
176
     1
 90
       50
176
     1
290
     0
176
     1
 90
       50
176
     1
 62
   256
176
     0
 40
1.0
176
     0
 90
        2
176
     1
  1
strokes_ogs.tif
176
     1
290
     0
176
     1
 40
1.0
176
     1
 40
1.0
176
     1
  0
VISUALSTYLE
  5
32
102
{ACAD_REACTORS
330
29
102
}
330
29
100
AcDbVisualStyle
  2
Conceptual
 70
     9
177
     3
291
     0
 70
    58
 90
        3
176
     1
 90
        2
176
     1
 90
        0
176
     1
 90
        0
176
     1
 40
0.6
176
     1
 40
30.0
176
     1
 62
     7
420
 16777215
176
     1
 90
        2
176
     1
 90
        2
176
     1
 62
     7
176
     1
 62
   257
176
     1
 90
        1
176
     1
 90
        1
176
     1
 40
179.0
176
     1
 90
        8
176
     1
 62
     7
176
     1
 40
1.0
176
     1
 90
        1
176
     1
 90
        6
176
     1
 90
        2
176
     1
 62
     7
176
     1
 90
        3
176
     1
 90
        0
176
     1
 90
        0
176
     1
290
     0
176
     1
 90
        1
176
     1
 40
0.0
176
     1
 90
        0
176
     1
290
     0
176
     1
290
     1
176
     1
290
     1
176
     1
290
     0
176
     1
290
     0
176
     1
290
     0
176
     1
290
     0
176
     1
290
     0
176
     1
290
     0
176
     1
 90
       50
176
     1
 40
0.0
176
     1
 40
1.0
176
     1
 90
        0
176
     1
 62
    18
420
        0
176
     1
 90
       50
176
     1
 90
        3
176
     1
 62
     5
420
      255
176
     1
290
     0
176
     1
 90
       50
176
     1
 90
       50
176
     1
 90
       50
176
     1
290
     0
176
     1
 90
       50
176
     1
 62
   256
176
     0
 40
1.0
176
     0
 90
        2
176
     1
  1
strokes_ogs.tif
176
     1
290
     0
176
     1
 40
1.0
176
     1
 40
1.0
176
     1
  0
VISUALSTYLE
  5
34
102
{ACAD_REACTORS
330
29
102
}
330
29
100
AcDbVisualStyle
  2
Dim
 70
    11
177
     3
291
     1
 70
    58
 90
        2
176
     1
 90
        2
176
     1
 90
        0
176
     1
 90
        0
176
     1
 40
0.6
176
     1
 40
30.0
176
     1
 62
     7
420
 16777215
176
     1
 90
        1
176
     1
 90
        4
176
     1
 62
     7
176
     1
 62
   257
176
     1
 90
        1
176
     1
 90
        1
176
     1
 40
1.0
176
     1
 90
        8
176
     1
 62
     7
176
     1
 40
1.0
176
     1
 90
        1
176
     1
 90
        6
176
     1
 90
        2
176
     1
 62
     7
176
     1
 90
        5
176
     1
 90
        0
176
     1
 90
        0
176
     1
290
     0
176
     1
 90
        1
176
     1
 40
-50.0
176
     1
 90
        0
176
     1
290
     0
176
     1
290
     1
176
     1
290
     1
176
     1
290
     0
176
     1
290
     0
176
     1
290
     0
176
     1
290
     0
176
     1
290
     0
176
     1
290
     0
176
     1
 90
       50
176
     1
 40
0.0
176
     1
 40
1.0
176
     1
 90
        0
176
     1
 62
    18
420
        0
176
     1
 90
       50
176
     1
 90
        3
176
     1
 62
     5
420
      255
176
     1
290
     0
176
     1
 90
       50
176
     1
 90
       50
176
     1
 90
       50
176
     1
290
     0
176
     1
 90
       50
176
     1
 62
   256
176
     0
 40
1.0
176
     0
 90
        2
176
     1
  1
strokes_ogs.tif
176
     1
290
     0
176
     1
 40
1.0
176
     1
 40
1.0
176
     1
  0
VISUALSTYLE
  5
41
102
{ACAD_REACTORS
330
29
102
}
330
29
100
AcDbVisualStyle
  2
EdgeColorOff
 70
    22
177
     3
291
     1
 70
    58
 90
        2
176
     0
 90
        2
176
     0
 90
        0
176
     0
 90
        0
176
     0
 40
0.6
176
     0
 40
30.0
176
     0
 62
     7
420
 16777215
176
     0
 90
        1
176
     0
 90
        4
176
     0
 62
     7
176
     0
 62
   257
176
     0
 90
        1
176
     0
 90
        1
176
     0
 40
1.0
176
     0
 90
        8
176
     2
 62
     7
176
     0
 40
1.0
176
     0
 90
        1
176
     0
 90
        6
176
     0
 90
        2
176
     0
 62
     7
176
     0
 90
        5
176
     0
 90
        0
176
     0
 90
        0
176
     0
290
     0
176
     0
 90
        1
176
     0
 40
0.0
176
     0
 90
        0
176
     0
290
     0
176
     0
290
     1
176
     0
290
     1
176
     0
290
     0
176
     0
290
     0
176
     0
290
     0
176
     0
290
     0
176
     0
290
     0
176
     0
290
     0
176
     0
 90
       50
176
     0
 40
0.0
176
     0
 40
1.0
176
     0
 90
        0
176
     0
 62
    18
420
        0
176
     0
 90
       50
176
     0
 90
        3
176
     0
 62
     5
420
      255
176
     0
290
     0
176
     0
 90
       50
176
     0
 90
       50
176
     0
 90
       50
176
     0
290
     0
176
     0
 90
       50
176
     0
 62
   256
176
     0
 40
1.0
176
     0
 90
        2
176
     0
  1
strokes_ogs.tif
176
     0
290
     0
176
     0
 40
1.0
176
     0
 40
1.0
176
     0
  0
VISUALSTYLE
  5
38
102
{ACAD_REACTORS
330
29
102
}
330
29
100
AcDbVisualStyle
  2
Facepattern
 70
    15
177
     3
291
     1
 70
    58
 90
        2
176
     1
 90
        2
176
     1
 90
        0
176
     1
 90
        0
176
     1
 40
0.6
176
     1
 40
30.0
176
     1
 62
     7
420
 16777215
176
     1
 90
        1
176
     1
 90
        4
176
     1
 62
     7
176
     1
 62
   257
176
     1
 90
        1
176
     1
 90
        1
176
     1
 40
1.0
176
     1
 90
        8
176
     1
 62
     7
176
     1
 40
1.0
176
     1
 90
        1
176
     1
 90
        6
176
     1
 90
        2
176
     1
 62
     7
176
     1
 90
        5
176
     1
 90
        0
176
     1
 90
        0
176
     1
290
     0
176
     1
 90
        1
176
     1
 40
0.0
176
     1
 90
        0
176
     1
290
     0
176
     1
290
     1
176
     1
290
     1
176
     1
290
     0
176
     1
290
     0
176
     1
290
     0
176
     1
290
     0
176
     1
290
     0
176
     1
290
     0
176
     1
 90
       50
176
     1
 40
0.0
176
     1
 40
1.0
176
     1
 90
        0
176
     1
 62
    18
420
        0
176
     1
 90
       50
176
     1
 90
        3
176
     1
 62
     5
420
      255
176
     1
290
     0
176
     1
 90
       50
176
     1
 90
       50
176
     1
 90
       50
176
     1
290
     0
176
     1
 90
       50
176
     1
 62
   256
176
     0
 40
1.0
176
     0
 90
        2
176
     1
  1
strokes_ogs.tif
176
     1
290
     0
176
     1
 40
1.0
176
     1
 40
1.0
176
     1
  0
VISUALSTYLE
  5
2A
102
{ACAD_REACTORS
330
29
102
}
330
29
100
AcDbVisualStyle
  2
Flat
 70
     0
177
     3
291
     1
 70
    58
 90
        2
176
     1
 90
        1
176
     1
 90
        1
176
     1
 90
        2
176
     1
 40
0.6
176
     1
 40
30.0
176
     1
 62
     7
420
 16777215
176
     1
 90
        0
176
     1
 90
        0
176
     1
 62
     7
176
     1
 62
   257
176
     1
 90
        1
176
     1
 90
        1
176
     1
 40
1.0
176
     1
 90
        8
176
     1
 62
     7
176
     1
 40
1.0
176
     1
 90
        1
176
     1
 90
        6
176
     1
 90
        2
176
     1
 62
     7
176
     1
 90
        5
176
     1
 90
        0
176
     1
 90
        0
176
     1
290
     0
176
     1
 90
       13
176
     1
 40
0.0
176
     1
 90
        0
176
     1
290
     0
176
     1
290
     1
176
     1
290
     1
176
     1
290
     0
176
     1
290
     0
176
     1
290
     0
176
     1
290
     0
176
     1
290
     0
176
     1
290
     0
176
     1
 90
       50
176
     1
 40
0.0
176
     1
 40
1.0
176
     1
 90
        0
176
     1
 62
    18
420
        0
176
     1
 90
       50
176
     1
 90
        3
176
     1
 62
     5
420
      255
176
     1
290
     0
176
     1
 90
       50
176
     1
 90
       50
176
     1
 90
       50
176
     1
290
     0
176
     1
 90
       50
176
     1
 62
   256
176
     0
 40
1.0
176
     0
 90
        2
176
     1
  1
strokes_ogs.tif
176
     1
290
     0
176
     1
 40
1.0
176
     1
 40
1.0
176
     1
  0
VISUALSTYLE
  5
2B
102
{ACAD_REACTORS
330
29
102
}
330
29
100
AcDbVisualStyle
  2
FlatWithEdges
 70
     1
177
     3
291
     1
 70
    58
 90
        2
176
     1
 90
        1
176
     1
 90
        1
176
     1
 90
        2
176
     1
 40
0.6
176
     1
 40
30.0
176
     1
 62
     7
420
 16777215
176
     1
 90
        1
176
     1
 90
        0
176
     1
 62
     7
176
     1
 62
   257
176
     1
 90
        1
176
     1
 90
        1
176
     1
 40
1.0
176
     1
 90
        0
176
     1
 62
   257
176
     1
 40
1.0
176
     1
 90
        1
176
     1
 90
        6
176
     1
 90
        2
176
     1
 62
     7
176
     1
 90
        5
176
     1
 90
        0
176
     1
 90
        0
176
     1
290
     0
176
     1
 90
       13
176
     1
 40
0.0
176
     1
 90
        0
176
     1
290
     0
176
     1
290
     1
176
     1
290
     1
176
     1
290
     0
176
     1
290
     0
176
     1
290
     0
176
     1
290
     0
176
     1
290
     0
176
     1
290
     0
176
     1
 90
       50
176
     1
 40
0.0
176
     1
 40
1.0
176
     1
 90
        0
176
     1
 62
    18
420
        0
176
     1
 90
       50
176
     1
 90
        3
176
     1
 62
     5
420
      255
176
     1
290
     0
176
     1
 90
       50
176
     1
 90
       50
176
     1
 90
       50
176
     1
290
     0
176
     1
 90
       50
176
     1
 62
   256
176
     0
 40
1.0
176
     0
 90
        2
176
     1
  1
strokes_ogs.tif
176
     1
290
     0
176
     1
 40
1.0
176
     1
 40
1.0
176
     1
  0
VISUALSTYLE
  5
2C
102
{ACAD_REACTORS
330
29
102
}
330
29
100
AcDbVisualStyle
  2
Gouraud
 70
     2
177
     3
291
     1
 70
    58
 90
        2
176
     1
 90
        2
176
     1
 90
        1
176
     1
 90
        2
176
     1
 40
0.6
176
     1
 40
30.0
176
     1
 62
     7
420
 16777215
176
     1
 90
        0
176
     1
 90
        0
176
     1
 62
     7
176
     1
 62
   257
176
     1
 90
        1
176
     1
 90
        1
176
     1
 40
1.0
176
     1
 90
        0
176
     1
 62
     7
176
     1
 40
1.0
176
     1
 90
        1
176
     1
 90
        6
176
     1
 90
        2
176
     1
 62
     7
176
     1
 90
        5
176
     1
 90
        0
176
     1
 90
        0
176
     1
290
     0
176
     1
 90
       13
176
     1
 40
0.0
176
     1
 90
        0
176
     1
290
     0
176
     1
290
     1
176
     1
290
     1
176
     1
290
     0
176
     1
290
     0
176
     1
290
     0
176
     1
290
     0
176
     1
290
     0
176
     1
290
     0
176
     1
 90
       50
176
     1
 40
0.0
176
     1
 40
1.0
176
     1
 90
        0
176
     1
 62
    18
420
        0
176
     1
 90
       50
176
     1
 90
        3
176
     1
 62
     5
420
      255
176
     1
290
     0
176
     1
 90
       50
176
     1
 90
       50
176
     1
 90
       50
176
     1
290
     0
176
     1
 90
       50
176
     1
 62
   256
176
     0
 40
1.0
176
     0
 90
        2
176
     1
  1
strokes_ogs.tif
176
     1
290
     0
176
     1
 40
1.0
176
     1
 40
1.0
176
     1
  0
VISUALSTYLE
  5
2D
102
{ACAD_REACTORS
330
29
102
}
330
29
100
AcDbVisualStyle
  2
GouraudWithEdges
 70
     3
177
     3
291
     1
 70
    58
 90
        2
176
     1
 90
        2
176
     1
 90
        1
176
     1
 90
        2
176
     1
 40
0.6
176
     1
 40
30.0
176
     1
 62
     7
420
 16777215
176
     1
 90
        1
176
     1
 90
        0
176
     1
 62
     7
176
     1
 62
   257
176
     1
 90
        1
176
     1
 90
        1
176
     1
 40
1.0
176
     1
 90
        0
176
     1
 62
   257
176
     1
 40
1.0
176
     1
 90
        1
176
     1
 90
        6
176
     1
 90
        2
176
     1
 62
     7
176
     1
 90
        5
176
     1
 90
        0
176
     1
 90
        0
176
     1
290
     0
176
     1
 90
       13
176
     1
 40
0.0
176
     1
 90
        0
176
     1
290
     0
176
     1
290
     1
176
     1
290
     1
176
     1
290
     0
176
     1
290
     0
176
     1
290
     0
176
     1
290
     0
176
     1
290
     0
176
     1
290
     0
176
     1
 90
       50
176
     1
 40
0.0
176
     1
 40
1.0
176
     1
 90
        0
176
     1
 62
    18
420
        0
176
     1
 90
       50
176
     1
 90
        3
176
     1
 62
     5
420
      255
176
     1
290
     0
176
     1
 90
       50
176
     1
 90
       50
176
     1
 90
       50
176
     1
290
     0
176
     1
 90
       50
176
     1
 62
   256
176
     0
 40
1.0
176
     0
 90
        2
176
     1
  1
strokes_ogs.tif
176
     1
290
     0
176
     1
 40
1.0
176
     1
 40
1.0
176
     1
  0
VISUALSTYLE
  5
31
102
{ACAD_REACTORS
330
29
102
}
330
29
100
AcDbVisualStyle
  2
Hidden
 70
     6
177
     3
291
     0
 70
    58
 90
        1
176
     1
 90
        2
176
     1
 90
        2
176
     1
 90
        0
176
     1
 40
0.6
176
     1
 40
30.0
176
     1
 62
     7
420
 16777215
176
     1
 90
        2
176
     1
 90
        2
176
     1
 62
     7
176
     1
 62
   257
176
     1
 90
        2
176
     1
 90
        1
176
     1
 40
40.0
176
     1
 90
        0
176
     1
 62
   257
176
     1
 40
1.0
176
     1
 90
        1
176
     1
 90
        6
176
     1
 90
        2
176
     1
 62
     7
176
     1
 90
        3
176
     1
 90
        0
176
     1
 90
        0
176
     1
290
     0
176
     1
 90
        1
176
     1
 40
0.0
176
     1
 90
        0
176
     1
290
     0
176
     1
290
     1
176
     1
290
     1
176
     1
290
     0
176
     1
290
     0
176
     1
290
     0
176
     1
290
     0
176
     1
290
     0
176
     1
290
     0
176
     1
 90
       50
176
     1
 40
0.0
176
     1
 40
1.0
176
     1
 90
        0
176
     1
 62
    18
420
        0
176
     1
 90
       50
176
     1
 90
        3
176
     1
 62
     5
420
      255
176
     1
290
     0
176
     1
 90
       50
176
     1
 90
       50
176
     1
 90
       50
176
     1
290
     0
176
     1
 90
       50
176
     1
 62
   256
176
     0
 40
1.0
176
     0
 90
        2
176
     1
  1
strokes_ogs.tif
176
     1
290
     0
176
     1
 40
1.0
176
     1
 40
1.0
176
     1
  0
VISUALSTYLE
  5
3F
102
{ACAD_REACTORS
330
29
102
}
330
29
100
AcDbVisualStyle
  2
JitterOff
 70
    20
177
     3
291
     1
 70
    58
 90
        2
176
     0
 90
        2
176
     0
 90
        0
176
     0
 90
        0
176
     0
 40
0.6
176
     0
 40
30.0
176
     0
 62
     7
420
 16777215
176
     0
 90
        1
176
     0
 90
        4
176
     0
 62
     7
176
     0
 62
   257
176
     0
 90
        1
176
     0
 90
        1
176
     0
 40
1.0
176
     0
 90
       10
176
     2
 62
     7
176
     0
 40
1.0
176
     0
 90
        1
176
     0
 90
        6
176
     0
 90
        2
176
     0
 62
     7
176
     0
 90
        5
176
     0
 90
        0
176
     0
 90
        0
176
     0
290
     0
176
     0
 90
        1
176
     0
 40
0.0
176
     0
 90
        0
176
     0
290
     0
176
     0
290
     1
176
     0
290
     1
176
     0
290
     0
176
     0
290
     0
176
     0
290
     0
176
     0
290
     0
176
     0
290
     0
176
     0
290
     0
176
     0
 90
       50
176
     0
 40
0.0
176
     0
 40
1.0
176
     0
 90
        0
176
     0
 62
    18
420
        0
176
     0
 90
       50
176
     0
 90
        3
176
     0
 62
     5
420
      255
176
     0
290
     0
176
     0
 90
       50
176
     0
 90
       50
176
     0
 90
       50
176
     0
290
     0
176
     0
 90
       50
176
     0
 62
   256
176
     0
 40
1.0
176
     0
 90
        2
176
     0
  1
strokes_ogs.tif
176
     0
290
     0
176
     0
 40
1.0
176
     0
 40
1.0
176
     0
  0
VISUALSTYLE
  5
37
102
{ACAD_REACTORS
330
29
102
}
330
29
100
AcDbVisualStyle
  2
Linepattern
 70
    14
177
     3
291
     1
 70
    58
 90
        2
176
     1
 90
        2
176
     1
 90
        0
176
     1
 90
        0
176
     1
 40
0.6
176
     1
 40
30.0
176
     1
 62
     7
420
 16777215
176
     1
 90
        1
176
     1
 90
        4
176
     1
 62
     7
176
     1
 62
   257
176
     1
 90
        7
176
     1
 90
        7
176
     1
 40
1.0
176
     1
 90
        8
176
     1
 62
     7
176
     1
 40
1.0
176
     1
 90
        1
176
     1
 90
        6
176
     1
 90
        2
176
     1
 62
     7
176
     1
 90
        5
176
     1
 90
        0
176
     1
 90
        0
176
     1
290
     0
176
     1
 90
        1
176
     1
 40
0.0
176
     1
 90
        0
176
     1
290
     0
176
     1
290
     1
176
     1
290
     1
176
     1
290
     0
176
     1
290
     0
176
     1
290
     0
176
     1
290
     0
176
     1
290
     0
176
     1
290
     0
176
     1
 90
       50
176
     1
 40
0.0
176
     1
 40
1.0
176
     1
 90
        0
176
     1
 62
    18
420
        0
176
     1
 90
       50
176
     1
 90
        3
176
     1
 62
     5
420
      255
176
     1
290
     0
176
     1
 90
       50
176
     1
 90
       50
176
     1
 90
       50
176
     1
290
     0
176
     1
 90
       50
176
     1
 62
   256
176
     0
 40
1.0
176
     0
 90
        2
176
     1
  1
strokes_ogs.tif
176
     1
290
     0
176
     1
 40
1.0
176
     1
 40
1.0
176
     1
  0
VISUALSTYLE
  5
40
102
{ACAD_REACTORS
330
29
102
}
330
29
100
AcDbVisualStyle
  2
OverhangOff
 70
    21
177
     3
291
     1
 70
    58
 90
        2
176
     0
 90
        2
176
     0
 90
        0
176
     0
 90
        0
176
     0
 40
0.6
176
     0
 40
30.0
176
     0
 62
     7
420
 16777215
176
     0
 90
        1
176
     0
 90
        4
176
     0
 62
     7
176
     0
 62
   257
176
     0
 90
        1
176
     0
 90
        1
176
     0
 40
1.0
176
     0
 90
        9
176
     2
 62
     7
176
     0
 40
1.0
176
     0
 90
        1
176
     0
 90
        6
176
     0
 90
        2
176
     0
 62
     7
176
     0
 90
        5
176
     0
 90
        0
176
     0
 90
        0
176
     0
290
     0
176
     0
 90
        1
176
     0
 40
0.0
176
     0
 90
        0
176
     0
290
     0
176
     0
290
     1
176
     0
290
     1
176
     0
290
     0
176
     0
290
     0
176
     0
290
     0
176
     0
290
     0
176
     0
290
     0
176
     0
290
     0
176
     0
 90
       50
176
     0
 40
0.0
176
     0
 40
1.0
176
     0
 90
        0
176
     0
 62
    18
420
        0
176
     0
 90
       50
176
     0
 90
        3
176
     0
 62
     5
420
      255
176
     0
290
     0
176
     0
 90
       50
176
     0
 90
       50
176
     0
 90
       50
176
     0
290
     0
176
     0
 90
       50
176
     0
 62
   256
176
     0
 40
1.0
176
     0
 90
        2
176
     0
  1
strokes_ogs.tif
176
     0
290
     0
176
     0
 40
1.0
176
     0
 40
1.0
176
     0
  0
VISUALSTYLE
  5
33
102
{ACAD_REACTORS
330
29
102
}
330
29
100
AcDbVisualStyle
  2
Realistic
 70
     8
177
     3
291
     0
 70
    58
 90
        2
176
     1
 90
        3
176
     1
 90
        0
176
     1
 90
        2
176
     1
 40
0.6
176
     1
 40
30.0
176
     1
 62
     7
420
 16777215
176
     1
 90
        0
176
     1
 90
        0
176
     1
 62
     7
176
     1
 62
   257
176
     1
 90
        1
176
     1
 90
        1
176
     1
 40
1.0
176
     1
 90
        8
176
     1
 62
   257
176
     1
 40
1.0
176
     1
 90
        1
176
     1
 90
        6
176
     1
 90
        2
176
     1
 62
     7
176
     1
 90
        3
176
     1
 90
        0
176
     1
 90
        0
176
     1
290
     0
176
     1
 90
       13
176
     1
 40
0.0
176
     1
 90
        0
176
     1
290
     0
176
     1
290
     1
176
     1
290
     1
176
     1
290
     0
176
     1
290
     0
176
     1
290
     0
176
     1
290
     0
176
     1
290
     0
176
     1
290
     0
176
     1
 90
       50
176
     1
 40
0.0
176
     1
 40
1.0
176
     1
 90
        0
176
     1
 62
    18
420
        0
176
     1
 90
       50
176
     1
 90
        3
176
     1
 62
     5
420
      255
176
     1
290
     0
176
     1
 90
       50
176
     1
 90
       50
176
     1
 90
       50
176
     1
290
     0
176
     1
 90
       50
176
     1
 62
   256
176
     0
 40
1.0
176
     0
 90
        2
176
     1
  1
strokes_ogs.tif
176
     1
290
     0
176
     1
 40
1.0
176
     1
 40
1.0
176
     1
  0
VISUALSTYLE
  5
3E
102
{ACAD_REACTORS
330
29
102
}
330
29
100
AcDbVisualStyle
  2
Shaded
 70
    27
177
     3
291
     0
 70
    58
 90
        2
176
     1
 90
        2
176
     1
 90
        1
176
     1
 90
        2
176
     1
 40
0.6
176
     1
 40
30.0
176
     1
 62
     7
420
 16777215
176
     1
 90
        0
176
     1
 90
        4
176
     1
 62
     7
176
     1
 62
   257
176
     1
 90
        1
176
     1
 90
        1
176
     1
 40
1.0
176
     1
 90
        8
176
     1
 62
   257
176
     1
 40
1.0
176
     1
 90
        1
176
     1
 90
        6
176
     1
 90
        2
176
     1
 62
     8
420
  7895160
176
     1
 90
        3
176
     1
 90
        0
176
     1
 90
        0
176
     1
290
     0
176
     1
 90
        5
176
     1
 40
0.0
176
     1
 90
        0
176
     1
290
     0
176
     1
290
     1
176
     1
290
     1
176
     1
290
     0
176
     1
290
     0
176
     1
290
     0
176
     1
290
     0
176
     1
290
     0
176
     1
290
     0
176
     1
 90
       50
176
     1
 40
0.0
176
     1
 40
1.0
176
     1
 90
        0
176
     1
 62
    18
420
        0
176
     1
 90
       50
176
     1
 90
        3
176
     1
 62
     5
420
      255
176
     1
290
     0
176
     1
 90
       50
176
     1
 90
       50
176
     1
 90
       50
176
     1
290
     0
176
     1
 90
       50
176
     1
 62
   256
176
     0
 40
1.0
176
     0
 90
        2
176
     1
  1
strokes_ogs.tif
176
     1
290
     0
176
     1
 40
1.0
176
     1
 40
1.0
176
     1
  0
VISUALSTYLE
  5
3D
102
{ACAD_REACTORS
330
29
102
}
330
29
100
AcDbVisualStyle
  2
Shaded with edges
 70
    26
177
     3
291
     0
 70
    58
 90
        2
176
     1
 90
        2
176
     1
 90
        1
176
     1
 90
        2
176
     1
 40
0.6
176
     1
 40
30.0
176
     1
 62
     7
420
 16777215
176
     1
 90
        1
176
     1
 90
       10
176
     1
 62
     7
176
     1
 62
   257
176
     1
 90
        2
176
     1
 90
        1
176
     1
 40
1.0
176
     1
 90
        8
176
     1
 62
   257
176
     1
 40
1.0
176
     1
 90
        1
176
     1
 90
        6
176
     1
 90
        2
176
     1
 62
     7
176
     1
 90
        3
176
     1
 90
        0
176
     1
 90
        0
176
     1
290
     0
176
     1
 90
        5
176
     1
 40
0.0
176
     1
 90
        0
176
     1
290
     0
176
     1
290
     1
176
     1
290
     1
176
     1
290
     0
176
     1
290
     0
176
     1
290
     0
176
     1
290
     0
176
     1
290
     0
176
     1
290
     0
176
     1
 90
       50
176
     1
 40
0.0
176
     1
 40
1.0
176
     1
 90
        0
176
     1
 62
    18
420
        0
176
     1
 90
       50
176
     1
 90
        3
176
     1
 62
     5
420
      255
176
     1
290
     0
176
     1
 90
       50
176
     1
 90
       50
176
     1
 90
       50
176
     1
290
     0
176
     1
 90
       50
176
     1
 62
   256
176
     0
 40
1.0
176
     0
 90
        2
176
     1
  1
strokes_ogs.tif
176
     1
290
     0
176
     1
 40
1.0
176
     1
 40
1.0
176
     1
  0
VISUALSTYLE
  5
3A
102
{ACAD_REACTORS
330
29
102
}
330
29
100
AcDbVisualStyle
  2
Shades of Gray
 70
    23
177
     3
291
     0
 70
    58
 90
        2
176
     1
 90
        2
176
     1
 90
        3
176
     1
 90
        0
176
     1
 40
0.6
176
     1
 40
30.0
176
     1
 62
     7
420
 16777215
176
     1
 90
        2
176
     1
 90
        2
176
     1
 62
     7
176
     1
 62
     7
176
     1
 90
        1
176
     1
 90
        1
176
     1
 40
40.0
176
     1
 90
        8
176
     1
 62
     7
176
     1
 40
1.0
176
     1
 90
        1
176
     1
 90
        6
176
     1
 90
        2
176
     1
 62
     7
176
     1
 90
        3
176
     1
 90
        0
176
     1
 90
        0
176
     1
290
     0
176
     1
 90
        1
176
     1
 40
0.0
176
     1
 90
        0
176
     1
290
     0
176
     1
290
     1
176
     1
290
     1
176
     1
290
     0
176
     1
290
     0
176
     1
290
     0
176
     1
290
     0
176
     1
290
     0
176
     1
290
     0
176
     1
 90
       50
176
     1
 40
0.0
176
     1
 40
1.0
176
     1
 90
        0
176
     1
 62
    18
420
        0
176
     1
 90
       50
176
     1
 90
        3
176
     1
 62
     5
420
      255
176
     1
290
     0
176
     1
 90
       50
176
     1
 90
       50
176
     1
 90
       50
176
     1
290
     0
176
     1
 90
       50
176
     1
 62
   256
176
     0
 40
1.0
176
     0
 90
        2
176
     1
  1
strokes_ogs.tif
176
     1
290
     0
176
     1
 40
1.0
176
     1
 40
1.0
176
     1
  0
VISUALSTYLE
  5
3B
102
{ACAD_REACTORS
330
29
102
}
330
29
100
AcDbVisualStyle
  2
Sketchy
 70
    24
177
     3
291
     0
 70
    58
 90
        1
176
     1
 90
        2
176
     1
 90
        2
176
     1
 90
        0
176
     1
 40
0.6
176
     1
 40
30.0
176
     1
 62
     7
420
 16777215
176
     1
 90
        2
176
     1
 90
        2
176
     1
 62
     7
176
     1
 62
     7
176
     1
 90
        1
176
     1
 90
        1
176
     1
 40
40.0
176
     1
 90
       11
176
     1
 62
     7
176
     1
 40
1.0
176
     1
 90
        1
176
     1
 90
        6
176
     1
 90
        2
176
     1
 62
     7
176
     1
 90
        6
176
     1
 90
        0
176
     1
 90
        0
176
     1
290
     0
176
     1
 90
        1
176
     1
 40
0.0
176
     1
 90
        0
176
     1
290
     0
176
     1
290
     1
176
     1
290
     1
176
     1
290
     0
176
     1
290
     0
176
     1
290
     0
176
     1
290
     0
176
     1
290
     0
176
     1
290
     0
176
     1
 90
       50
176
     1
 40
0.0
176
     1
 40
1.0
176
     1
 90
        0
176
     1
 62
    18
420
        0
176
     1
 90
       50
176
     1
 90
        3
176
     1
 62
     5
420
      255
176
     1
290
     0
176
     1
 90
       50
176
     1
 90
       50
176
     1
 90
       50
176
     1
290
     0
176
     1
 90
       50
176
     1
 62
   256
176
     0
 40
1.0
176
     0
 90
        2
176
     1
  1
strokes_ogs.tif
176
     1
290
     0
176
     1
 40
1.0
176
     1
 40
1.0
176
     1
  0
VISUALSTYLE
  5
36
102
{ACAD_REACTORS
330
29
102
}
330
29
100
AcDbVisualStyle
  2
Thicken
 70
    13
177
     3
291
     1
 70
    58
 90
        2
176
     1
 90
        2
176
     1
 90
        0
176
     1
 90
        0
176
     1
 40
0.6
176
     1
 40
30.0
176
     1
 62
     7
420
 16777215
176
     1
 90
        1
176
     1
 90
        4
176
     1
 62
     7
176
     1
 62
   257
176
     1
 90
        1
176
     1
 90
        1
176
     1
 40
1.0
176
     1
 90
       12
176
     1
 62
     7
176
     1
 40
1.0
176
     1
 90
        1
176
     1
 90
        6
176
     1
 90
        2
176
     1
 62
     7
176
     1
 90
        5
176
     1
 90
        0
176
     1
 90
        0
176
     1
290
     0
176
     1
 90
        1
176
     1
 40
0.0
176
     1
 90
        0
176
     1
290
     0
176
     1
290
     1
176
     1
290
     1
176
     1
290
     0
176
     1
290
     0
176
     1
290
     0
176
     1
290
     0
176
     1
290
     0
176
     1
290
     0
176
     1
 90
       50
176
     1
 40
0.0
176
     1
 40
1.0
176
     1
 90
        0
176
     1
 62
    18
420
        0
176
     1
 90
       50
176
     1
 90
        3
176
     1
 62
     5
420
      255
176
     1
290
     0
176
     1
 90
       50
176
     1
 90
       50
176
     1
 90
       50
176
     1
290
     0
176
     1
 90
       50
176
     1
 62
   256
176
     0
 40
1.0
176
     0
 90
        2
176
     1
  1
strokes_ogs.tif
176
     1
290
     0
176
     1
 40
1.0
176
     1
 40
1.0
176
     1
  0
VISUALSTYLE
  5
30
102
{ACAD_REACTORS
330
29
102
}
330
29
100
AcDbVisualStyle
  2
Wireframe
 70
     5
177
     3
291
     0
 70
    58
 90
        0
176
     1
 90
        2
176
     1
 90
        0
176
     1
 90
        0
176
     1
 40
0.6
176
     1
 40
30.0
176
     1
 62
     7
420
 16777215
176
     1
 90
        1
176
     1
 90
        4
176
     1
 62
     7
176
     1
 62
   257
176
     1
 90
        1
176
     1
 90
        1
176
     1
 40
1.0
176
     1
 90
        0
176
     1
 62
   257
176
     1
 40
1.0
176
     1
 90
        1
176
     1
 90
        6
176
     1
 90
        2
176
     1
 62
     7
176
     1
 90
        3
176
     1
 90
        0
176
     1
 90
        0
176
     1
290
     0
176
     1
 90
        1
176
     1
 40
0.0
176
     1
 90
        0
176
     1
290
     0
176
     1
290
     1
176
     1
290
     1
176
     1
290
     0
176
     1
290
     0
176
     1
290
     0
176
     1
290
     0
176
     1
290
     0
176
     1
290
     0
176
     1
 90
       50
176
     1
 40
0.0
176
     1
 40
1.0
176
     1
 90
        0
176
     1
 62
    18
420
        0
176
     1
 90
       50
176
     1
 90
        3
176
     1
 62
     5
420
      255
176
     1
290
     0
176
     1
 90
       50
176
     1
 90
       50
176
     1
 90
       50
176
     1
290
     0
176
     1
 90
       50
176
     1
 62
   256
176
     0
 40
1.0
176
     0
 90
        2
176
     1
  1
strokes_ogs.tif
176
     1
290
     0
176
     1
 40
1.0
176
     1
 40
1.0
176
     1
  0
VISUALSTYLE
  5
3C
102
{ACAD_REACTORS
330
29
102
}
330
29
100
AcDbVisualStyle
  2
X-Ray
 70
    25
177
     3
291
     0
 70
    58
 90
        2
176
     1
 90
        2
176
     1
 90
        1
176
     1
 90
        1
176
     1
 40
0.5
176
     1
 40
30.0
176
     1
 62
     7
420
 16777215
176
     1
 90
        1
176
     1
 90
        0
176
     1
 62
     7
176
     1
 62
   257
176
     1
 90
        1
176
     1
 90
        1
176
     1
 40
1.0
176
     1
 90
        8
176
     1
 62
     7
176
     1
 40
1.0
176
     1
 90
        1
176
     1
 90
        6
176
     1
 90
        2
176
     1
 62
     7
176
     1
 90
        3
176
     1
 90
        0
176
     1
 90
        0
176
     1
290
     0
176
     1
 90
       13
176
     1
 40
0.0
176
     1
 90
        0
176
     1
290
     0
176
     1
290
     1
176
     1
290
     1
176
     1
290
     0
176
     1
290
     0
176
     1
290
     0
176
     1
290
     0
176
     1
290
     0
176
     1
290
     0
176
     1
 90
       50
176
     1
 40
0.0
176
     1
 40
1.0
176
     1
 90
        0
176
     1
 62
    18
420
        0
176
     1
 90
       50
176
     1
 90
        3
176
     1
 62
     5
420
      255
176
     1
290
     0
176
     1
 90
       50
176
     1
 90
       50
176
     1
 90
       50
176
     1
290
     0
176
     1
 90
       50
176
     1
 62
   256
176
     0
 40
1.0
176
     0
 90
        2
176
     1
  1
strokes_ogs.tif
176
     1
290
     0
176
     1
 40
1.0
176
     1
 40
1.0
176
     1
  0
DICTIONARYVAR
  5
81
102
{ACAD_REACTORS
330
7C
102
}
330
7C
100
DictionaryVariables
280
     0
  1
1:1
  0
DICTIONARYVAR
  5
7E
102
{ACAD_REACTORS
330
7C
102
}
330
7C
100
DictionaryVariables
280
     0
  1
STANDARD
  0
DICTIONARYVAR
  5
7D
102
{ACAD_REACTORS
330
7C
102
}
330
7C
100
DictionaryVariables
280
     0
  1
STANDARD
  0
DICTIONARYVAR
  5
7F
102
{ACAD_REACTORS
330
7C
102
}
330
7C
100
DictionaryVariables
280
     0
  1
Imperial24
  0
DICTIONARYVAR
  5
80
102
{ACAD_REACTORS
330
7C
102
}
330
7C
100
DictionaryVariables
280
     0
  1
Imperial24
  0
XRECORD
  5
338
102
{ACAD_REACTORS
330
334
102
}
330
334
100
AcDbXrecord
280
     1
  1
BUILDING_ID
  1
Progetto per messa in tavola DXF, DWG
  1
FLOOR_ID
  1
694395
  0
XRECORD
  5
336
102
{ACAD_REACTORS
330
334
102
}
330
334
100
AcDbXrecord
280
     1
  1
-2001160
  1
Apparecchi idraulici
  0
XRECORD
  5
337
102
{ACAD_REACTORS
330
334
102
}
330
334
100
AcDbXrecord
280
     1
  1
963222
  1
Insulation
  0
XRECORD
  5
335
102
{ACAD_REACTORS
330
334
102
}
330
334
100
AcDbXrecord
280
     1
  1
859151
  1
Automatic flow rate regulator valve_Caleffi_121 DN15 : 1/2''
  0
DICTIONARY
  5
1A
330
19
100
AcDbDictionary
280
     1
281
     1
  3
BUMPTILE
360
1C
  3
DIFFUSETILE
360
1B
  3
OPACITYTILE
360
1F
  3
REFLECTIONTILE
360
1E
  3
REFRACTIONTILE
360
20
  3
SPECULARTILE
360
1D
  0
DICTIONARY
  5
12
330
11
100
AcDbDictionary
280
     1
281
     1
  3
BUMPTILE
360
14
  3
DIFFUSETILE
360
13
  3
OPACITYTILE
360
17
  3
REFLECTIONTILE
360
16
  3
REFRACTIONTILE
360
18
  3
SPECULARTILE
360
15
  0
DICTIONARY
  5
22
330
21
100
AcDbDictionary
280
     1
281
     1
  3
BUMPTILE
360
24
  3
DIFFUSETILE
360
23
  3
OPACITYTILE
360
27
  3
REFLECTIONTILE
360
26
  3
REFRACTIONTILE
360
28
  3
SPECULARTILE
360
25
  0
DICTIONARY
  5
33B
330
65
100
AcDbDictionary
280
     1
281
     1
  3
ACAD_ROUNDTRIP_2008_TABLESTYLE_CELLSTYLEMAP
360
33C
  0
XRECORD
  5
1C
102
{ACAD_REACTORS
330
1A
102
}
330
1A
100
AcDbXrecord
280
     1
270
     1
271
     1
  0
XRECORD
  5
1B
102
{ACAD_REACTORS
330
1A
102
}
330
1A
100
AcDbXrecord
280
     1
270
     1
271
     1
  0
XRECORD
  5
1F
102
{ACAD_REACTORS
330
1A
102
}
330
1A
100
AcDbXrecord
280
     1
270
     1
271
     1
  0
XRECORD
  5
1E
102
{ACAD_REACTORS
330
1A
102
}
330
1A
100
AcDbXrecord
280
     1
270
     1
271
     1
  0
XRECORD
  5
20
102
{ACAD_REACTORS
330
1A
102
}
330
1A
100
AcDbXrecord
280
     1
270
     1
271
     1
  0
XRECORD
  5
1D
102
{ACAD_REACTORS
330
1A
102
}
330
1A
100
AcDbXrecord
280
     1
270
     1
271
     1
  0
XRECORD
  5
14
102
{ACAD_REACTORS
330
12
102
}
330
12
100
AcDbXrecord
280
     1
270
     1
271
     1
  0
XRECORD
  5
13
102
{ACAD_REACTORS
330
12
102
}
330
12
100
AcDbXrecord
280
     1
270
     1
271
     1
  0
XRECORD
  5
17
102
{ACAD_REACTORS
330
12
102
}
330
12
100
AcDbXrecord
280
     1
270
     1
271
     1
  0
XRECORD
  5
16
102
{ACAD_REACTORS
330
12
102
}
330
12
100
AcDbXrecord
280
     1
270
     1
271
     1
  0
XRECORD
  5
18
102
{ACAD_REACTORS
330
12
102
}
330
12
100
AcDbXrecord
280
     1
270
     1
271
     1
  0
XRECORD
  5
15
102
{ACAD_REACTORS
330
12
102
}
330
12
100
AcDbXrecord
280
     1
270
     1
271
     1
  0
XRECORD
  5
24
102
{ACAD_REACTORS
330
22
102
}
330
22
100
AcDbXrecord
280
     1
270
     1
271
     1
  0
XRECORD
  5
23
102
{ACAD_REACTORS
330
22
102
}
330
22
100
AcDbXrecord
280
     1
270
     1
271
     1
  0
XRECORD
  5
27
102
{ACAD_REACTORS
330
22
102
}
330
22
100
AcDbXrecord
280
     1
270
     1
271
     1
  0
XRECORD
  5
26
102
{ACAD_REACTORS
330
22
102
}
330
22
100
AcDbXrecord
280
     1
270
     1
271
     1
  0
XRECORD
  5
28
102
{ACAD_REACTORS
330
22
102
}
330
22
100
AcDbXrecord
280
     1
270
     1
271
     1
  0
XRECORD
  5
25
102
{ACAD_REACTORS
330
22
102
}
330
22
100
AcDbXrecord
280
     1
270
     1
271
     1
  0
CELLSTYLEMAP
  5
33C
102
{ACAD_REACTORS
330
33B
102
}
330
33B
100
AcDbCellStyleMap
 90
        3
300
CELLSTYLE
  1
TABLEFORMAT_BEGIN
 90
        5
170
     1
 91
        0
 92
    32768
 62
   257
 93
        1
300
CONTENTFORMAT
  1
CONTENTFORMAT_BEGIN
 90
        0
 91
        0
 92
      512
 93
        0
300

 40
0.0
140
1.0
 94
        5
 62
     0
340
55
144
0.25
309
CONTENTFORMAT_END
171
     0
 94
        0
309
TABLEFORMAT_END
  1
CELLSTYLE_BEGIN
 90
        1
 91
        1
300
_TITLE
309
CELLSTYLE_END
300
CELLSTYLE
  1
TABLEFORMAT_BEGIN
 90
        5
170
     1
 91
        0
 92
        0
 62
   257
 93
        1
300
CONTENTFORMAT
  1
CONTENTFORMAT_BEGIN
 90
        0
 91
        0
 92
      512
 93
        0
300

 40
0.0
140
1.0
 94
        5
 62
     0
340
55
144
0.18
309
CONTENTFORMAT_END
171
     0
 94
        0
309
TABLEFORMAT_END
  1
CELLSTYLE_BEGIN
 90
        2
 91
        1
300
_HEADER
309
CELLSTYLE_END
300
CELLSTYLE
  1
TABLEFORMAT_BEGIN
 90
        5
170
     1
 91
        0
 92
        0
 62
   257
 93
        1
300
CONTENTFORMAT
  1
CONTENTFORMAT_BEGIN
 90
        0
 91
        0
 92
      512
 93
        0
300

 40
0.0
140
1.0
 94
        2
 62
     0
340
55
144
0.18
309
CONTENTFORMAT_END
171
     0
 94
        0
309
TABLEFORMAT_END
  1
CELLSTYLE_BEGIN
 90
        3
 91
        2
300
_DATA
309
CELLSTYLE_END
  0
ENDSEC
  0
EOF
