  0
SECTION
  2
HEADER
  9
$ACADVER
  1
AC1027
  9
$ACADMAINTVER
 70
    20
  9
$DWGCODEPAGE
  3
ANSI_1252
  9
$REQUIREDVERSIONS
160
                 0
  9
$INSBASE
 10
0.0
 20
0.0
 30
0.0
  9
$EXTMIN
 10
744.1664074331876
 20
1682.443120209091
 30
-0.00000001
  9
$EXTMAX
 10
1194.667112454057
 20
2143.918183849963
 30
0.00000001
  9
$LIMMIN
 10
0.0
 20
0.0
  9
$LIMMAX
 10
12.0
 20
9.0
  9
$ORTHOMODE
 70
     0
  9
$REGENMODE
 70
     1
  9
$FILLMODE
 70
     1
  9
$QTEXTMODE
 70
     0
  9
$MIRRTEXT
 70
     0
  9
$LTSCALE
 40
1.0
  9
$ATTMODE
 70
     1
  9
$TEXTSIZE
 40
0.2
  9
$TRACEWID
 40
0.05
  9
$TEXTSTYLE
  7
Standard
  9
$CLAYER
  8
0
  9
$CELTYPE
  6
ByLayer
  9
$CECOLOR
 62
   256
  9
$CELTSCALE
 40
1.0
  9
$DISPSILH
 70
     0
  9
$DIMSCALE
 40
1.0
  9
$DIMASZ
 40
0.18
  9
$DIMEXO
 40
0.0625
  9
$DIMDLI
 40
0.38
  9
$DIMRND
 40
0.0
  9
$DIMDLE
 40
0.0
  9
$DIMEXE
 40
0.18
  9
$DIMTP
 40
0.0
  9
$DIMTM
 40
0.0
  9
$DIMTXT
 40
0.18
  9
$DIMCEN
 40
0.09
  9
$DIMTSZ
 40
0.0
  9
$DIMTOL
 70
     0
  9
$DIMLIM
 70
     0
  9
$DIMTIH
 70
     1
  9
$DIMTOH
 70
     1
  9
$DIMSE1
 70
     0
  9
$DIMSE2
 70
     0
  9
$DIMTAD
 70
     0
  9
$DIMZIN
 70
     0
  9
$DIMBLK
  1

  9
$DIMASO
 70
     1
  9
$DIMSHO
 70
     1
  9
$DIMPOST
  1

  9
$DIMAPOST
  1

  9
$DIMALT
 70
     0
  9
$DIMALTD
 70
     2
  9
$DIMALTF
 40
25.4
  9
$DIMLFAC
 40
1.0
  9
$DIMTOFL
 70
     0
  9
$DIMTVP
 40
0.0
  9
$DIMTIX
 70
     0
  9
$DIMSOXD
 70
     0
  9
$DIMSAH
 70
     0
  9
$DIMBLK1
  1

  9
$DIMBLK2
  1

  9
$DIMSTYLE
  2
Standard
  9
$DIMCLRD
 70
     0
  9
$DIMCLRE
 70
     0
  9
$DIMCLRT
 70
     0
  9
$DIMTFAC
 40
1.0
  9
$DIMGAP
 40
0.09
  9
$DIMJUST
 70
     0
  9
$DIMSD1
 70
     0
  9
$DIMSD2
 70
     0
  9
$DIMTOLJ
 70
     1
  9
$DIMTZIN
 70
     0
  9
$DIMALTZ
 70
     0
  9
$DIMALTTZ
 70
     0
  9
$DIMUPT
 70
     0
  9
$DIMDEC
 70
     4
  9
$DIMTDEC
 70
     4
  9
$DIMALTU
 70
     2
  9
$DIMALTTD
 70
     2
  9
$DIMTXSTY
  7
Standard
  9
$DIMAUNIT
 70
     0
  9
$DIMADEC
 70
     0
  9
$DIMALTRND
 40
0.0
  9
$DIMAZIN
 70
     0
  9
$DIMDSEP
 70
    46
  9
$DIMATFIT
 70
     3
  9
$DIMFRAC
 70
     0
  9
$DIMLDRBLK
  1

  9
$DIMLUNIT
 70
     2
  9
$DIMLWD
 70
    -2
  9
$DIMLWE
 70
    -2
  9
$DIMTMOVE
 70
     0
  9
$DIMFXL
 40
1.0
  9
$DIMFXLON
 70
     0
  9
$DIMJOGANG
 40
0.7853981633974483
  9
$DIMTFILL
 70
     0
  9
$DIMTFILLCLR
 70
     0
  9
$DIMARCSYM
 70
     0
  9
$DIMLTYPE
  6

  9
$DIMLTEX1
  6

  9
$DIMLTEX2
  6

  9
$DIMTXTDIRECTION
 70
     0
  9
$LUNITS
 70
     2
  9
$LUPREC
 70
     4
  9
$SKETCHINC
 40
0.1
  9
$FILLETRAD
 40
0.0
  9
$AUNITS
 70
     0
  9
$AUPREC
 70
     0
  9
$MENU
  1
.
  9
$ELEVATION
 40
0.0
  9
$PELEVATION
 40
0.0
  9
$THICKNESS
 40
0.0
  9
$LIMCHECK
 70
     0
  9
$CHAMFERA
 40
0.0
  9
$CHAMFERB
 40
0.0
  9
$CHAMFERC
 40
0.0
  9
$CHAMFERD
 40
0.0
  9
$SKPOLY
 70
     0
  9
$TDCREATE
 40
2457569.591177003
  9
$TDUCREATE
 40
2457569.507843669
  9
$TDUPDATE
 40
2457569.591177003
  9
$TDUUPDATE
 40
2457569.507843669
  9
$TDINDWG
 40
0.0000154167
  9
$TDUSRTIMER
 40
0.0000154167
  9
$USRTIMER
 70
     1
  9
$ANGBASE
 50
0.0
  9
$ANGDIR
 70
     0
  9
$PDMODE
 70
     0
  9
$PDSIZE
 40
0.0
  9
$PLINEWID
 40
0.0
  9
$SPLFRAME
 70
     0
  9
$SPLINETYPE
 70
     6
  9
$SPLINESEGS
 70
     8
  9
$HANDSEED
  5
2D2
  9
$SURFTAB1
 70
     6
  9
$SURFTAB2
 70
     6
  9
$SURFTYPE
 70
     6
  9
$SURFU
 70
     6
  9
$SURFV
 70
     6
  9
$UCSBASE
  2

  9
$UCSNAME
  2

  9
$UCSORG
 10
0.0
 20
0.0
 30
0.0
  9
$UCSXDIR
 10
1.0
 20
0.0
 30
0.0
  9
$UCSYDIR
 10
0.0
 20
1.0
 30
0.0
  9
$UCSORTHOREF
  2

  9
$UCSORTHOVIEW
 70
     0
  9
$UCSORGTOP
 10
0.0
 20
0.0
 30
0.0
  9
$UCSORGBOTTOM
 10
0.0
 20
0.0
 30
0.0
  9
$UCSORGLEFT
 10
0.0
 20
0.0
 30
0.0
  9
$UCSORGRIGHT
 10
0.0
 20
0.0
 30
0.0
  9
$UCSORGFRONT
 10
0.0
 20
0.0
 30
0.0
  9
$UCSORGBACK
 10
0.0
 20
0.0
 30
0.0
  9
$PUCSBASE
  2

  9
$PUCSNAME
  2

  9
$PUCSORG
 10
0.0
 20
0.0
 30
0.0
  9
$PUCSXDIR
 10
1.0
 20
0.0
 30
0.0
  9
$PUCSYDIR
 10
0.0
 20
1.0
 30
0.0
  9
$PUCSORTHOREF
  2

  9
$PUCSORTHOVIEW
 70
     0
  9
$PUCSORGTOP
 10
0.0
 20
0.0
 30
0.0
  9
$PUCSORGBOTTOM
 10
0.0
 20
0.0
 30
0.0
  9
$PUCSORGLEFT
 10
0.0
 20
0.0
 30
0.0
  9
$PUCSORGRIGHT
 10
0.0
 20
0.0
 30
0.0
  9
$PUCSORGFRONT
 10
0.0
 20
0.0
 30
0.0
  9
$PUCSORGBACK
 10
0.0
 20
0.0
 30
0.0
  9
$USERI1
 70
     0
  9
$USERI2
 70
     0
  9
$USERI3
 70
     0
  9
$USERI4
 70
     0
  9
$USERI5
 70
     0
  9
$USERR1
 40
0.0
  9
$USERR2
 40
0.0
  9
$USERR3
 40
0.0
  9
$USERR4
 40
0.0
  9
$USERR5
 40
0.0
  9
$WORLDVIEW
 70
     1
  9
$SHADEDGE
 70
     3
  9
$SHADEDIF
 70
    70
  9
$TILEMODE
 70
     1
  9
$MAXACTVP
 70
    64
  9
$PINSBASE
 10
0.0
 20
0.0
 30
0.0
  9
$PLIMCHECK
 70
     0
  9
$PEXTMIN
 10
1.000000000000000E+20
 20
1.000000000000000E+20
 30
1.000000000000000E+20
  9
$PEXTMAX
 10
-1.000000000000000E+20
 20
-1.000000000000000E+20
 30
-1.000000000000000E+20
  9
$PLIMMIN
 10
0.0
 20
0.0
  9
$PLIMMAX
 10
12.0
 20
9.0
  9
$UNITMODE
 70
     0
  9
$VISRETAIN
 70
     1
  9
$PLINEGEN
 70
     0
  9
$PSLTSCALE
 70
     1
  9
$TREEDEPTH
 70
  3020
  9
$CMLSTYLE
  2
Standard
  9
$CMLJUST
 70
     0
  9
$CMLSCALE
 40
1.0
  9
$PROXYGRAPHICS
 70
     1
  9
$MEASUREMENT
 70
     1
  9
$CELWEIGHT
370
    -1
  9
$ENDCAPS
280
     0
  9
$JOINSTYLE
280
     0
  9
$LWDISPLAY
290
     0
  9
$INSUNITS
 70
     4
  9
$HYPERLINKBASE
  1

  9
$STYLESHEET
  1

  9
$XEDIT
290
     1
  9
$CEPSNTYPE
380
     0
  9
$PSTYLEMODE
290
     1
  9
$FINGERPRINTGUID
  2
{06C754B3-1D78-41DA-943B-0264A214A3F8}
  9
$VERSIONGUID
  2
{0F5EF289-4460-41E5-9D71-B4ECE9B966D8}
  9
$EXTNAMES
290
     1
  9
$PSVPSCALE
 40
0.0
  9
$OLESTARTUP
290
     0
  9
$SORTENTS
280
   127
  9
$INDEXCTL
280
     0
  9
$HIDETEXT
280
     1
  9
$XCLIPFRAME
280
     2
  9
$HALOGAP
280
     0
  9
$OBSCOLOR
 70
   257
  9
$OBSLTYPE
280
     0
  9
$INTERSECTIONDISPLAY
280
     0
  9
$INTERSECTIONCOLOR
 70
   257
  9
$DIMASSOC
280
     2
  9
$PROJECTNAME
  1

  9
$CAMERADISPLAY
290
     0
  9
$LENSLENGTH
 40
50.0
  9
$CAMERAHEIGHT
 40
0.0
  9
$STEPSPERSEC
 40
2.0
  9
$STEPSIZE
 40
6.0
  9
$3DDWFPREC
 40
2.0
  9
$PSOLWIDTH
 40
0.25
  9
$PSOLHEIGHT
 40
4.0
  9
$LOFTANG1
 40
1.570796326794896
  9
$LOFTANG2
 40
1.570796326794896
  9
$LOFTMAG1
 40
0.0
  9
$LOFTMAG2
 40
0.0
  9
$LOFTPARAM
 70
     7
  9
$LOFTNORMALS
280
     1
  9
$LATITUDE
 40
37.795
  9
$LONGITUDE
 40
-122.394
  9
$NORTHDIRECTION
 40
0.0
  9
$TIMEZONE
 70
 -8000
  9
$LIGHTGLYPHDISPLAY
280
     1
  9
$TILEMODELIGHTSYNCH
280
     1
  9
$CMATERIAL
347
11
  9
$SOLIDHIST
280
     0
  9
$SHOWHIST
280
     1
  9
$DWFFRAME
280
     2
  9
$DGNFRAME
280
     0
  9
$REALWORLDSCALE
290
     1
  9
$INTERFERECOLOR
 62
     1
  9
$INTERFEREOBJVS
345
33
  9
$INTERFEREVPVS
346
30
  9
$CSHADOW
280
     0
  9
$SHADOWPLANELOCATION
 40
0.0
  0
ENDSEC
  0
SECTION
  2
CLASSES
  0
CLASS
  1
ACDBDICTIONARYWDFLT
  2
AcDbDictionaryWithDefault
  3
ObjectDBX Classes
 90
        0
 91
        1
280
     0
281
     0
  0
CLASS
  1
MATERIAL
  2
AcDbMaterial
  3
ObjectDBX Classes
 90
     1153
 91
        3
280
     0
281
     0
  0
CLASS
  1
VISUALSTYLE
  2
AcDbVisualStyle
  3
ObjectDBX Classes
 90
     4095
 91
       24
280
     0
281
     0
  0
CLASS
  1
SCALE
  2
AcDbScale
  3
ObjectDBX Classes
 90
     1153
 91
       17
280
     0
281
     0
  0
CLASS
  1
TABLESTYLE
  2
AcDbTableStyle
  3
ObjectDBX Classes
 90
     4095
 91
        1
280
     0
281
     0
  0
CLASS
  1
MLEADERSTYLE
  2
AcDbMLeaderStyle
  3
ACDB_MLEADERSTYLE_CLASS
 90
     4095
 91
        1
280
     0
281
     0
  0
CLASS
  1
ACDBSECTIONVIEWSTYLE
  2
AcDbSectionViewStyle
  3
ObjectDBX Classes
 90
     1025
 91
        1
280
     0
281
     0
  0
CLASS
  1
ACDBDETAILVIEWSTYLE
  2
AcDbDetailViewStyle
  3
ObjectDBX Classes
 90
     1025
 91
        1
280
     0
281
     0
  0
CLASS
  1
RASTERVARIABLES
  2
AcDbRasterVariables
  3
ISM
 90
        0
 91
        1
280
     0
281
     0
  0
CLASS
  1
DICTIONARYVAR
  2
AcDbDictionaryVar
  3
ObjectDBX Classes
 90
        0
 91
        5
280
     0
281
     0
  0
CLASS
  1
CELLSTYLEMAP
  2
AcDbCellStyleMap
  3
ObjectDBX Classes
 90
     1152
 91
        2
280
     0
281
     0
  0
CLASS
  1
SORTENTSTABLE
  2
AcDbSortentsTable
  3
ObjectDBX Classes
 90
        0
 91
        1
280
     0
281
     0
  0
ENDSEC
  0
SECTION
  2
TABLES
  0
TABLE
  2
VPORT
  5
8
330
0
100
AcDbSymbolTable
 70
     1
  0
VPORT
  5
57
330
8
100
AcDbSymbolTableRecord
100
AcDbViewportTableRecord
  2
*Active
 70
     0
 10
0.0
 20
0.0
 11
1.0
 21
1.0
 12
969.4167599436223
 22
1913.180652029527
 13
0.0
 23
0.0
 14
1.0
 24
1.0
 15
0.0
 25
0.0
 16
0.0
 26
0.0
 36
1.0
 17
0.0
 27
0.0
 37
0.0
 40
461.4750636408709
 41
0.976218956375632
 42
50.0
 43
0.0
 44
0.0
 50
0.0
 51
0.0
 71
     0
 72
  1000
 73
     1
 74
     1
 75
     0
 76
     0
 77
     0
 78
     0
281
     0
 65
     1
110
0.0
120
0.0
130
0.0
111
1.0
121
0.0
131
0.0
112
0.0
122
1.0
132
0.0
 79
     0
146
0.0
 60
     3
 61
     5
292
     1
282
     1
141
0.0
142
0.0
 63
   250
421
  3355443
  0
ENDTAB
  0
TABLE
  2
LTYPE
  5
5
330
0
100
AcDbSymbolTable
 70
     3
  0
LTYPE
  5
5B
330
5
100
AcDbSymbolTableRecord
100
AcDbLinetypeTableRecord
  2
ByBlock
 70
     0
  3

 72
    65
 73
     0
 40
0.0
  0
LTYPE
  5
5C
330
5
100
AcDbSymbolTableRecord
100
AcDbLinetypeTableRecord
  2
ByLayer
 70
     0
  3

 72
    65
 73
     0
 40
0.0
  0
LTYPE
  5
5D
330
5
100
AcDbSymbolTableRecord
100
AcDbLinetypeTableRecord
  2
Continuous
 70
     0
  3
Solid line
 72
    65
 73
     0
 40
0.0
  0
LTYPE
  5
69
330
5
100
AcDbSymbolTableRecord
100
AcDbLinetypeTableRecord
  2
PHANTOM2
 70
     0
  3
___ _ _ ___ _ _ ___ _ _ ___ _ _
 72
    65
 73
     6
 40
1.25
 49
0.625
 74
     0
 49
-0.125
 74
     0
 49
0.125
 74
     0
 49
-0.125
 74
     0
 49
0.125
 74
     0
 49
-0.125
 74
     0
  0
LTYPE
  5
86
330
5
100
AcDbSymbolTableRecord
100
AcDbLinetypeTableRecord
  2
Nascosto 1_5 mm
 70
     0
  3

 72
    65
 73
     2
 40
2.2
 49
1.5
 74
     0
 49
-0.7000000000000001
 74
     0
  0
ENDTAB
  0
TABLE
  2
LAYER
  5
2
330
0
100
AcDbSymbolTable
 70
     4
  0
LAYER
  5
54
330
2
100
AcDbSymbolTableRecord
100
AcDbLayerTableRecord
  2
0
 70
     0
 62
     7
  6
Continuous
370
    -3
390
F
347
21
348
0
  0
LAYER
  5
85
330
2
100
AcDbSymbolTableRecord
100
AcDbLayerTableRecord
  2
P-SANR-FIXT
 70
     0
 62
     6
  6
Continuous
370
    18
390
F
347
21
348
0
  0
LAYER
  5
88
330
2
100
AcDbSymbolTableRecord
100
AcDbLayerTableRecord
  2
M-PIPE
 70
     0
 62
     3
  6
Continuous
370
    18
390
F
347
21
348
0
  0
ENDTAB
  0
TABLE
  2
STYLE
  5
3
330
0
100
AcDbSymbolTable
 70
     2
  0
STYLE
  5
55
330
3
100
AcDbSymbolTableRecord
100
AcDbTextStyleTableRecord
  2
Standard
 70
     0
 40
0.0
 41
1.0
 50
0.0
 71
     0
 42
0.2
  3
txt
  4

  0
STYLE
  5
5A
330
3
100
AcDbSymbolTableRecord
100
AcDbTextStyleTableRecord
  2
Annotative
 70
     0
 40
0.0
 41
1.0
 50
0.0
 71
     0
 42
0.2
  3
txt
  4

1001
AcadAnnotative
1000
AnnotativeData
1002
{
1070
     1
1070
     1
1002
}
  0
ENDTAB
  0
TABLE
  2
VIEW
  5
6
330
0
100
AcDbSymbolTable
 70
     0
  0
ENDTAB
  0
TABLE
  2
UCS
  5
7
330
0
100
AcDbSymbolTable
 70
     0
  0
ENDTAB
  0
TABLE
  2
APPID
  5
9
330
0
100
AcDbSymbolTable
 70
     3
  0
APPID
  5
56
330
9
100
AcDbSymbolTableRecord
100
AcDbRegAppTableRecord
  2
ACAD
 70
     0
  0
APPID
  5
5E
330
9
100
AcDbSymbolTableRecord
100
AcDbRegAppTableRecord
  2
AcadAnnotative
 70
     0
  0
APPID
  5
79
330
9
100
AcDbSymbolTableRecord
100
AcDbRegAppTableRecord
  2
REVIT
 70
     0
  0
ENDTAB
  0
TABLE
  2
DIMSTYLE
  5
A
330
0
100
AcDbSymbolTable
 70
     2
100
AcDbDimStyleTable
 71
     0
  0
DIMSTYLE
105
58
330
A
100
AcDbSymbolTableRecord
100
AcDbDimStyleTableRecord
  2
Standard
 70
     0
340
55
  0
DIMSTYLE
105
59
330
A
100
AcDbSymbolTableRecord
100
AcDbDimStyleTableRecord
  2
Annotative
 70
     0
340
55
1001
AcadAnnotative
1000
AnnotativeData
1002
{
1070
     1
1070
     1
1002
}
  0
ENDTAB
  0
TABLE
  2
BLOCK_RECORD
  5
1
330
0
100
AcDbSymbolTable
 70
     4
  0
BLOCK_RECORD
  5
71
102
{ACAD_XDICTIONARY
360
2CD
102
}
330
1
100
AcDbSymbolTableRecord
100
AcDbBlockTableRecord
  2
*Model_Space
340
74
 70
     0
280
     1
281
     0
  0
BLOCK_RECORD
  5
6D
330
1
100
AcDbSymbolTableRecord
100
AcDbBlockTableRecord
  2
*Paper_Space
340
70
 70
     0
280
     1
281
     0
  0
BLOCK_RECORD
  5
75
330
1
100
AcDbSymbolTableRecord
100
AcDbBlockTableRecord
  2
*Paper_Space0
340
78
 70
     0
280
     1
281
     0
  0
BLOCK_RECORD
  5
87
330
1
100
AcDbSymbolTableRecord
100
AcDbBlockTableRecord
  2
Automatic flow rate regulator valve_Caleffi_121 DN15 - 1_2__-859151-Est - Idraulica
340
0
102
{BLKREFS
331
1C6
102
}
 70
     0
280
     1
281
     0
  0
BLOCK_RECORD
  5
1C7
330
1
100
AcDbSymbolTableRecord
100
AcDbBlockTableRecord
  2
Automatic flow rate regulator valve_Caleffi_121 DN15 - 1_2__-V1-Est - Idraulica
340
0
102
{BLKREFS
331
21B
102
}
 70
     0
280
     1
281
     0
  0
BLOCK_RECORD
  5
21C
330
1
100
AcDbSymbolTableRecord
100
AcDbBlockTableRecord
  2
Automatic flow rate regulator valve_Caleffi_121 DN15 - 1_2__-V2-Est - Idraulica
340
0
102
{BLKREFS
331
2C6
102
}
 70
     0
280
     1
281
     0
  0
ENDTAB
  0
ENDSEC
  0
SECTION
  2
BLOCKS
  0
BLOCK
  5
72
330
71
100
AcDbEntity
  8
0
100
AcDbBlockBegin
  2
*Model_Space
 70
     0
 10
0.0
 20
0.0
 30
0.0
  3
*Model_Space
  1

  0
ENDBLK
  5
73
330
71
100
AcDbEntity
  8
0
100
AcDbBlockEnd
  0
BLOCK
  5
6E
330
6D
100
AcDbEntity
 67
     1
  8
0
100
AcDbBlockBegin
  2
*Paper_Space
 70
     0
 10
0.0
 20
0.0
 30
0.0
  3
*Paper_Space
  1

  0
ENDBLK
  5
6F
330
6D
100
AcDbEntity
 67
     1
  8
0
100
AcDbBlockEnd
  0
BLOCK
  5
76
330
75
100
AcDbEntity
 67
     1
  8
0
100
AcDbBlockBegin
  2
*Paper_Space0
 70
     0
 10
0.0
 20
0.0
 30
0.0
  3
*Paper_Space0
  1

  0
ENDBLK
  5
77
330
75
100
AcDbEntity
 67
     1
  8
0
100
AcDbBlockEnd
  0
BLOCK
  5
1C4
330
87
100
AcDbEntity
  8
0
100
AcDbBlockBegin
  2
Automatic flow rate regulator valve_Caleffi_121 DN15 - 1_2__-859151-Est - Idraulica
 70
     0
 10
0.0
 20
0.0
 30
0.0
  3
Automatic flow rate regulator valve_Caleffi_121 DN15 - 1_2__-859151-Est - Idraulica
  1

  0
LWPOLYLINE
  5
89
330
87
100
AcDbEntity
  8
M-PIPE
100
AcDbPolyline
 90
       41
 70
   128
 43
0.0
 10
881.6664074431892
 20
2019.600564266141
 10
881.8863487812157
 20
2019.596164852776
 10
882.1059382600198
 20
2019.582973650805
 10
882.3248245832784
 20
2019.561011763338
 10
882.5426575795678
 20
2019.530314324707
 10
882.7590887625621
 20
2019.490930444268
 10
882.9737718885388
 20
2019.442923127827
 10
883.1863635102919
 20
2019.386369176851
 10
883.3965235265779
 20
2019.321359065594
 10
883.6039157262021
 20
2019.24799679637
 10
883.808208325887
 20
2019.166399733157
 10
884.0090745010524
 20
2019.076698413851
 10
884.2061929086673
 20
2018.979036341427
 10
884.3992482013298
 20
2018.873569754368
 10
884.5879315317542
 20
2018.760467376715
 10
884.771941046862
 20
2018.639910148144
 10
884.9509823706824
 20
2018.512090934505
 10
885.1247690752909
 20
2018.377214219271
 10
885.2930231390326
 20
2018.235495776416
 10
885.4554753912973
 20
2018.087162325216
 10
885.6118659431365
 20
2017.93245116755
 10
885.7619446030291
 20
2017.771609808268
 10
885.9054712771337
 20
2017.604895559233
 10
886.0422163533892
 20
2017.43257512768
 10
886.1719610688449
 20
2017.25492418954
 10
886.2944978596328
 20
2017.072226948416
 10
886.4096306930278
 20
2016.884775680921
 10
886.5171753810566
 20
2016.692870269096
 10
886.6169598751602
 20
2016.496817720663
 10
886.708824541434
 20
2016.296931677875
 10
886.792622416009
 20
2016.093531915763
 10
886.8682194401618
 20
2015.886943830554
 10
886.9354946747801
 20
2015.677497919117
 10
886.9943404938396
 20
2015.465529250229
 10
887.0446627565836
 20
2015.251376928544
 10
887.086380958126
 20
2015.035383552092
 10
887.1194283582436
 20
2014.817894664201
 10
887.1437520881462
 20
2014.599258200695
 10
887.1593132350552
 20
2014.379823933276
 10
887.1660869044543
 20
2014.159942909961
 10
887.1664074431894
 20
2014.100564266141
1001
REVIT
1002
{
1070
     3
1000
939838
1002
}
  0
LWPOLYLINE
  5
8A
330
87
100
AcDbEntity
  8
M-PIPE
100
AcDbPolyline
 90
       41
 70
   128
 43
0.0
 10
887.1664074431889
 20
1927.61618926614
 10
887.1620080298246
 20
1927.396247928113
 10
887.1488168278535
 20
1927.176658449309
 10
887.1268549403852
 20
1926.957772126051
 10
887.0961575017549
 20
1926.739939129761
 10
887.0567736213159
 20
1926.523507946767
 10
887.0087663048753
 20
1926.308824820791
 10
886.9522123538983
 20
1926.096233199037
 10
886.8872022426426
 20
1925.886073182751
 10
886.8138399734176
 20
1925.678680983127
 10
886.7322429102047
 20
1925.474388383442
 10
886.6425415908988
 20
1925.273522208277
 10
886.544879518475
 20
1925.076403800662
 10
886.4394129314161
 20
1924.883348507999
 10
886.326310553763
 20
1924.694665177575
 10
886.2057533251922
 20
1924.510655662467
 10
886.0779341115526
 20
1924.331614338646
 10
885.9430573963191
 20
1924.157827634038
 10
885.801338953464
 20
1923.989573570296
 10
885.653005502264
 20
1923.827121318032
 10
885.4982943445984
 20
1923.670730766193
 10
885.3374529853162
 20
1923.5206521063
 10
885.1707387362813
 20
1923.377125432195
 10
884.9984183047279
 20
1923.24038035594
 10
884.8207673665875
 20
1923.110635640484
 10
884.6380701254638
 20
1922.988098849696
 10
884.4506188579691
 20
1922.872966016302
 10
884.2587134461446
 20
1922.765421328273
 10
884.0626608977109
 20
1922.665636834169
 10
883.8627748549235
 20
1922.573772167895
 10
883.6593750928106
 20
1922.48997429332
 10
883.4527870076021
 20
1922.414377269167
 10
883.2433410961648
 20
1922.347102034549
 10
883.0313724272771
 20
1922.288256215489
 10
882.8172201055918
 20
1922.237933952746
 10
882.6012267291403
 20
1922.196215751203
 10
882.3837378412488
 20
1922.163168351085
 10
882.1651013777426
 20
1922.138844621183
 10
881.9456671103237
 20
1922.123283474274
 10
881.7257860870096
 20
1922.116509804875
 10
881.6664074431889
 20
1922.11618926614
1001
REVIT
1002
{
1070
     3
1000
939838
1002
}
  0
LWPOLYLINE
  5
8B
330
87
100
AcDbEntity
  8
M-PIPE
100
AcDbPolyline
 90
        4
 70
   128
 43
0.0
 10
887.1664074431894
 20
2014.100564266141
 10
887.1664074431896
 20
2014.065975128395
 10
887.1664074431894
 20
2013.962263050399
 10
887.1664074431894
 20
2013.820966063796
1001
REVIT
1002
{
1070
     3
1000
939838
1002
}
  0
LWPOLYLINE
  5
8C
330
87
100
AcDbEntity
  8
M-PIPE
100
AcDbPolyline
 90
        5
 70
   128
 43
0.0
 10
887.1664074431889
 20
1927.896838120616
 10
887.1664074431889
 20
1927.839150163838
 10
887.1664074431889
 20
1927.698186308744
 10
887.1664074431889
 20
1927.626269551366
 10
887.1664074431889
 20
1927.61618926614
1001
REVIT
1002
{
1070
     3
1000
939838
1002
}
  0
LWPOLYLINE
  5
8D
330
87
100
AcDbEntity
  8
M-PIPE
100
AcDbPolyline
 90
       80
 70
   128
 43
0.0
 10
753.760157443189
 20
1922.716436462803
 10
753.7589576031807
 20
1922.776420464083
 10
753.7553600026432
 20
1922.836308503757
 10
753.7493703969699
 20
1922.896004773736
 10
753.7409983682525
 20
1922.955413772724
 10
753.730257309951
 20
1923.014440458995
 10
753.717164405467
 20
1923.072990402444
 10
753.7017406006553
 20
1923.130969935649
 10
753.6840105703127
 20
1923.188286303727
 10
753.664002678706
 20
1923.244847812716
 10
753.6417489341934
 20
1923.300563976266
 10
753.6172849380191
 20
1923.355345660402
 10
753.5906498273581
 20
1923.409105226116
 10
753.5618862127056
 20
1923.461756669568
 10
753.5310401097092
 20
1923.513215759684
 10
753.4981608655536
 20
1923.563400172896
 10
753.4633010800155
 20
1923.612229624847
 10
753.4265165213154
 20
1923.659625998831
 10
753.3878660369004
 20
1923.70551347076
 10
753.3474114593005
 20
1923.749818630469
 10
753.3052175072098
 20
1923.792470599152
 10
753.261351681951
 20
1923.83340114276
 10
753.2158841594869
 20
1923.872544781152
 10
753.1688876781543
 20
1923.909838892857
 10
753.1204374222977
 20
1923.945223815255
 10
753.0706109019913
 20
1923.978642940015
 10
753.0194878290383
 20
1924.010042803668
 10
752.9671499894496
 20
1924.039373173131
 10
752.9136811126042
 20
1924.066587126068
 10
752.8591667372984
 20
1924.091641125961
 10
752.8036940749039
 20
1924.114495091754
 10
752.7473518698472
 20
1924.135112461977
 10
752.6902302576371
 20
1924.153460253237
 10
752.6324206206676
 20
1924.16950911298
 10
752.5740154420262
 20
1924.183233366456
 10
752.5151081575394
 20
1924.194611057786
 10
752.4557930062963
 20
1924.203623985091
 10
752.3961648798855
 20
1924.210257729609
 10
752.3363191705895
 20
1924.214501678767
 10
752.2763516187763
 20
1924.216349043148
 10
752.2163581597371
 20
1924.215796867365
 10
752.1564347702078
 20
1924.212846034782
 10
752.0966773148293
 20
1924.2075012661
 10
752.037181392782
 20
1924.19977111181
 10
751.9780421848497
 20
1924.189667938509
 10
751.9193543011494
 20
1924.17720790912
 10
751.8612116297755
 20
1924.162410957032
 10
751.8037071865993
 20
1924.14530075421
 10
751.7469329664627
 20
1924.125904673331
 10
751.6909797960067
 20
1924.104253743985
 10
751.6359371883683
 20
1924.080382603042
 10
751.5818931999778
 20
1924.054329439233
 10
751.5289342896874
 20
1924.026135932064
 10
751.477145180457
 20
1923.995847185133
 10
751.4266087238131
 20
1923.963511653971
 10
751.3774057673061
 20
1923.929181068533
 10
751.32961502517
 20
1923.89291035043
 10
751.2833129523977
 20
1923.854757525074
 10
751.2385736224282
 20
1923.814783628849
 10
751.1954686086458
 20
1923.773052611458
 10
751.1540668698772
 20
1923.72963123363
 10
751.1144346400724
 20
1923.684588960304
 10
751.0766353223447
 20
1923.637997849512
 10
751.0407293875391
 20
1923.589932437089
 10
751.0067742774919
 20
1923.540469617444
 10
750.9748243131356
 20
1923.489688520535
 10
750.9449306075977
 20
1923.437670385286
 10
750.9171409844297
 20
1923.384498429616
 10
750.8914999011011
 20
1923.330257717311
 10
750.8680483778748
 20
1923.275035021941
 10
750.8468239321859
 20
1923.218918688037
 10
750.8278605186196
 20
1923.161998489763
 10
750.8111884745922
 20
1923.104365487295
 10
750.7968344718175
 20
1923.046111881141
 10
750.784821473638
 20
1922.987330864645
 10
750.7751686982884
 20
1922.928116474893
 10
750.7678915881499
 20
1922.868563442278
 10
750.7630017850465
 20
1922.808767038948
 10
750.7605071116196
 20
1922.748822926392
 10
750.760157443189
 20
1922.716436462803
1001
REVIT
1002
{
1070
     3
1000
939838
1002
}
  0
LWPOLYLINE
  5
8E
330
87
100
AcDbEntity
  8
M-PIPE
100
AcDbPolyline
 90
       80
 70
   128
 43
0.0
 10
750.760157443189
 20
2019.000317069479
 10
750.7613572831976
 20
2018.940333068199
 10
750.7649548837352
 20
2018.880445028525
 10
750.7709444894081
 20
2018.820748758546
 10
750.7793165181255
 20
2018.761339759558
 10
750.7900575764273
 20
2018.702313073286
 10
750.8031504809109
 20
2018.643763129838
 10
750.8185742857229
 20
2018.585783596633
 10
750.8363043160654
 20
2018.528467228554
 10
750.8563122076722
 20
2018.471905719566
 10
750.8785659521848
 20
2018.416189556015
 10
750.903029948359
 20
2018.36140787188
 10
750.9296650590201
 20
2018.307648306167
 10
750.9584286736726
 20
2018.254996862713
 10
750.9892747766689
 20
2018.203537772597
 10
751.0221540208244
 20
2018.153353359386
 10
751.0570138063626
 20
2018.104523907435
 10
751.0937983650626
 20
2018.057127533451
 10
751.1324488494777
 20
2018.011240061522
 10
751.1729034270777
 20
2017.966934901813
 10
751.2150973791682
 20
2017.92428293313
 10
751.258963204427
 20
2017.883352389523
 10
751.3044307268913
 20
2017.84420875113
 10
751.3514272082237
 20
2017.806914639424
 10
751.3998774640803
 20
2017.771529717027
 10
751.4497039843869
 20
2017.738110592267
 10
751.50082705734
 20
2017.706710728614
 10
751.5531648969283
 20
2017.677380359151
 10
751.606633773774
 20
2017.650166406214
 10
751.6611481490796
 20
2017.625112406321
 10
751.7166208114741
 20
2017.602258440528
 10
751.7729630165308
 20
2017.581641070305
 10
751.8300846287412
 20
2017.563293279045
 10
751.8878942657104
 20
2017.547244419301
 10
751.9462994443519
 20
2017.533520165826
 10
752.0052067288386
 20
2017.522142474496
 10
752.0645218800817
 20
2017.513129547191
 10
752.1241500064926
 20
2017.506495802672
 10
752.1839957157887
 20
2017.502251853516
 10
752.2439632676016
 20
2017.500404489134
 10
752.3039567266409
 20
2017.500956664917
 10
752.3638801161702
 20
2017.5039074975
 10
752.4236375715489
 20
2017.509252266182
 10
752.4831334935961
 20
2017.516982420472
 10
752.5422727015283
 20
2017.527085593773
 10
752.6009605852286
 20
2017.539545623161
 10
752.6591032566025
 20
2017.55434257525
 10
752.7166076997787
 20
2017.571452778071
 10
752.7733819199154
 20
2017.590848858951
 10
752.8293350903712
 20
2017.612499788297
 10
752.8843776980099
 20
2017.63637092924
 10
752.9384216864005
 20
2017.662424093049
 10
752.9913805966906
 20
2017.690617600218
 10
753.043169705921
 20
2017.720906347149
 10
753.0937061625651
 20
2017.753241878311
 10
753.1429091190722
 20
2017.787572463749
 10
753.190699861208
 20
2017.823843181852
 10
753.2370019339804
 20
2017.861996007207
 10
753.2817412639499
 20
2017.901969903433
 10
753.3248462777322
 20
2017.943700920824
 10
753.366248016501
 20
2017.987122298652
 10
753.4058802463058
 20
2018.032164571977
 10
753.4436795640333
 20
2018.07875568277
 10
753.4795854988389
 20
2018.126821095193
 10
753.5135406088862
 20
2018.176283914838
 10
753.5454905732424
 20
2018.227065011746
 10
753.5753842787805
 20
2018.279083146996
 10
753.6031739019484
 20
2018.332255102666
 10
753.628814985277
 20
2018.386495814971
 10
753.6522665085032
 20
2018.441718510342
 10
753.673490954192
 20
2018.497834844245
 10
753.6924543677585
 20
2018.554755042519
 10
753.7091264117862
 20
2018.612388044987
 10
753.7234804145607
 20
2018.670641651141
 10
753.7354934127399
 20
2018.729422667638
 10
753.7451461880897
 20
2018.788637057389
 10
753.7524232982283
 20
2018.848190090004
 10
753.757313101332
 20
2018.907986493334
 10
753.7598077747584
 20
2018.96793060589
 10
753.760157443189
 20
2019.000317069479
1001
REVIT
1002
{
1070
     3
1000
939838
1002
}
  0
LWPOLYLINE
  5
8F
330
87
100
AcDbEntity
  8
M-PIPE
100
AcDbPolyline
 90
       41
 70
   128
 43
0.0
 10
744.1664074431892
 20
2014.100564266141
 10
744.1708068565539
 20
2014.320505604167
 10
744.1839980585247
 20
2014.540095082971
 10
744.205959945993
 20
2014.75898140623
 10
744.2366573846231
 20
2014.976814402519
 10
744.2760412650624
 20
2015.193245585514
 10
744.3240485815029
 20
2015.40792871149
 10
744.3806025324798
 20
2015.620520333244
 10
744.4456126437358
 20
2015.83068034953
 10
744.5189749129605
 20
2016.038072549154
 10
744.6005719761733
 20
2016.242365148839
 10
744.6902732954794
 20
2016.443231324004
 10
744.7879353679032
 20
2016.640349731619
 10
744.893401954962
 20
2016.833405024282
 10
745.0065043326154
 20
2017.022088354706
 10
745.1270615611859
 20
2017.206097869814
 10
745.2548807748256
 20
2017.385139193635
 10
745.3897574900592
 20
2017.558925898243
 10
745.5314759329143
 20
2017.727179961984
 10
745.6798093841142
 20
2017.889632214249
 10
745.8345205417798
 20
2018.046022766089
 10
745.995361901062
 20
2018.196101425981
 10
746.1620761500969
 20
2018.339628100086
 10
746.3343965816502
 20
2018.476373176341
 10
746.5120475197907
 20
2018.606117891797
 10
746.6947447609144
 20
2018.728654682584
 10
746.8821960284088
 20
2018.843787515979
 10
747.0741014402335
 20
2018.951332204008
 10
747.2701539886672
 20
2019.051116698112
 10
747.4700400314547
 20
2019.142981364386
 10
747.6734397935675
 20
2019.226779238961
 10
747.8800278787759
 20
2019.302376263114
 10
748.0894737902135
 20
2019.369651497731
 10
748.3014424591011
 20
2019.428497316791
 10
748.5155947807863
 20
2019.478819579535
 10
748.7315881572378
 20
2019.520537781077
 10
748.9490770451294
 20
2019.553585181195
 10
749.1677135086355
 20
2019.577908911098
 10
749.3871477760546
 20
2019.593470058007
 10
749.6070287993688
 20
2019.600243727406
 10
749.6664074431891
 20
2019.600564266141
1001
REVIT
1002
{
1070
     3
1000
939838
1002
}
  0
LWPOLYLINE
  5
90
330
87
100
AcDbEntity
  8
M-PIPE
100
AcDbPolyline
 90
       41
 70
   128
 43
0.0
 10
749.6664074431889
 20
1922.116189266141
 10
749.4464661051624
 20
1922.120588679505
 10
749.2268766263586
 20
1922.133779881476
 10
749.0079903030999
 20
1922.155741768944
 10
748.7901573068106
 20
1922.186439207575
 10
748.5737261238161
 20
1922.225823088014
 10
748.3590429978398
 20
1922.273830404455
 10
748.1464513760862
 20
1922.330384355431
 10
747.9362913598001
 20
1922.395394466687
 10
747.7288991601758
 20
1922.468756735912
 10
747.5246065604912
 20
1922.550353799125
 10
747.3237403853259
 20
1922.640055118431
 10
747.1266219777107
 20
1922.737717190855
 10
746.9335666850483
 20
1922.843183777914
 10
746.7448833546241
 20
1922.956286155567
 10
746.5608738395161
 20
1923.076843384137
 10
746.3818325156957
 20
1923.204662597777
 10
746.2080458110872
 20
1923.339539313011
 10
746.0397917473458
 20
1923.481257755866
 10
745.8773394950808
 20
1923.629591207065
 10
745.7209489432416
 20
1923.784302364731
 10
745.5708702833491
 20
1923.945143724013
 10
745.4273436092445
 20
1924.111857973048
 10
745.290598532989
 20
1924.284178404602
 10
745.1608538175335
 20
1924.461829342742
 10
745.0383170267453
 20
1924.644526583866
 10
744.9231841933506
 20
1924.83197785136
 10
744.8156395053216
 20
1925.023883263185
 10
744.7158550112182
 20
1925.219935811619
 10
744.6239903449442
 20
1925.419821854406
 10
744.5401924703692
 20
1925.623221616519
 10
744.4645954462165
 20
1925.829809701727
 10
744.397320211598
 20
1926.039255613165
 10
744.3384743925385
 20
1926.251224282053
 10
744.2881521297946
 20
1926.465376603738
 10
744.2464339282524
 20
1926.68136998019
 10
744.2133865281347
 20
1926.898858868081
 10
744.1890627982319
 20
1927.117495331587
 10
744.1735016513233
 20
1927.336929599006
 10
744.1667279819243
 20
1927.55681062232
 10
744.1664074431888
 20
1927.61618926614
1001
REVIT
1002
{
1070
     3
1000
939838
1002
}
  0
LWPOLYLINE
  5
91
330
87
100
AcDbEntity
  8
M-PIPE
100
AcDbPolyline
 90
        4
 70
   128
 43
0.0
 10
744.1664074431888
 20
1927.61618926614
 10
744.1664074431891
 20
1927.650778403887
 10
744.1664074431888
 20
1927.754490481883
 10
744.1664074431888
 20
1927.895787468485
1001
REVIT
1002
{
1070
     3
1000
939838
1002
}
  0
LWPOLYLINE
  5
92
330
87
100
AcDbEntity
  8
M-PIPE
100
AcDbPolyline
 90
        5
 70
   128
 43
0.0
 10
744.1664074431892
 20
2013.819915411664
 10
744.1664074431892
 20
2013.877603368443
 10
744.1664074431892
 20
2014.018567223537
 10
744.1664074431892
 20
2014.090483980915
 10
744.1664074431892
 20
2014.100564266141
1001
REVIT
1002
{
1070
     3
1000
939838
1002
}
  0
LWPOLYLINE
  5
93
330
87
100
AcDbEntity
  8
M-PIPE
100
AcDbPolyline
 90
       80
 70
   128
 43
0.0
 10
880.5726574431893
 20
1922.716436462803
 10
880.571457603181
 20
1922.776420464083
 10
880.5678600026434
 20
1922.836308503757
 10
880.5618703969702
 20
1922.896004773736
 10
880.5534983682528
 20
1922.955413772724
 10
880.5427573099512
 20
1923.014440458995
 10
880.5296644054676
 20
1923.072990402444
 10
880.5142406006558
 20
1923.130969935649
 10
880.496510570313
 20
1923.188286303727
 10
880.4765026787064
 20
1923.244847812716
 10
880.4542489341939
 20
1923.300563976266
 10
880.4297849380194
 20
1923.355345660402
 10
880.4031498273584
 20
1923.409105226116
 10
880.3743862127058
 20
1923.461756669568
 10
880.3435401097095
 20
1923.513215759684
 10
880.3106608655539
 20
1923.563400172896
 10
880.2758010800159
 20
1923.612229624847
 10
880.2390165213159
 20
1923.659625998831
 10
880.2003660369008
 20
1923.70551347076
 10
880.1599114593006
 20
1923.749818630469
 10
880.1177175072103
 20
1923.792470599152
 10
880.0738516819514
 20
1923.83340114276
 10
880.0283841594874
 20
1923.872544781152
 10
879.9813876781547
 20
1923.909838892857
 10
879.9329374222981
 20
1923.945223815255
 10
879.8831109019916
 20
1923.978642940015
 10
879.8319878290385
 20
1924.010042803668
 10
879.77964998945
 20
1924.039373173131
 10
879.7261811126046
 20
1924.066587126068
 10
879.671666737299
 20
1924.091641125961
 10
879.6161940749044
 20
1924.114495091754
 10
879.5598518698476
 20
1924.135112461977
 10
879.5027302576372
 20
1924.153460253237
 10
879.444920620668
 20
1924.16950911298
 10
879.3865154420265
 20
1924.183233366456
 10
879.3276081575397
 20
1924.194611057786
 10
879.2682930062968
 20
1924.203623985091
 10
879.2086648798857
 20
1924.210257729609
 10
879.1488191705896
 20
1924.214501678767
 10
879.0888516187768
 20
1924.216349043148
 10
879.0288581597375
 20
1924.215796867365
 10
878.9689347702084
 20
1924.212846034782
 10
878.9091773148296
 20
1924.2075012661
 10
878.8496813927823
 20
1924.19977111181
 10
878.7905421848503
 20
1924.189667938509
 10
878.7318543011497
 20
1924.17720790912
 10
878.6737116297761
 20
1924.162410957032
 10
878.6162071865996
 20
1924.14530075421
 10
878.5594329664631
 20
1924.125904673331
 10
878.503479796007
 20
1924.104253743985
 10
878.4484371883687
 20
1924.080382603042
 10
878.3943931999781
 20
1924.054329439233
 10
878.3414342896879
 20
1924.026135932064
 10
878.2896451804573
 20
1923.995847185133
 10
878.2391087238135
 20
1923.963511653971
 10
878.1899057673063
 20
1923.929181068533
 10
878.1421150251704
 20
1923.89291035043
 10
878.0958129523982
 20
1923.854757525074
 10
878.0510736224286
 20
1923.814783628849
 10
878.0079686086464
 20
1923.773052611458
 10
877.9665668698775
 20
1923.72963123363
 10
877.9269346400729
 20
1923.684588960304
 10
877.889135322345
 20
1923.637997849512
 10
877.8532293875395
 20
1923.589932437089
 10
877.8192742774923
 20
1923.540469617444
 10
877.7873243131361
 20
1923.489688520535
 10
877.757430607598
 20
1923.437670385286
 10
877.7296409844302
 20
1923.384498429616
 10
877.7039999011016
 20
1923.330257717311
 10
877.6805483778755
 20
1923.275035021941
 10
877.6593239321863
 20
1923.218918688037
 10
877.6403605186199
 20
1923.161998489763
 10
877.6236884745925
 20
1923.104365487295
 10
877.6093344718177
 20
1923.046111881141
 10
877.5973214736383
 20
1922.987330864645
 10
877.5876686982888
 20
1922.928116474893
 10
877.5803915881503
 20
1922.868563442278
 10
877.5755017850467
 20
1922.808767038948
 10
877.57300711162
 20
1922.748822926392
 10
877.5726574431894
 20
1922.716436462803
1001
REVIT
1002
{
1070
     3
1000
939838
1002
}
  0
LWPOLYLINE
  5
94
330
87
100
AcDbEntity
  8
M-PIPE
100
AcDbPolyline
 90
       80
 70
   128
 43
0.0
 10
877.5726574431894
 20
2019.000317069479
 10
877.5738572831979
 20
2018.940333068199
 10
877.5774548837356
 20
2018.880445028525
 10
877.5834444894085
 20
2018.820748758546
 10
877.5918165181259
 20
2018.761339759558
 10
877.6025575764275
 20
2018.702313073286
 10
877.6156504809115
 20
2018.643763129838
 10
877.6310742857232
 20
2018.585783596633
 10
877.6488043160657
 20
2018.528467228554
 10
877.6688122076725
 20
2018.471905719566
 10
877.6910659521849
 20
2018.416189556015
 10
877.7155299483593
 20
2018.36140787188
 10
877.7421650590206
 20
2018.307648306167
 10
877.7709286736728
 20
2018.254996862713
 10
877.8017747766694
 20
2018.203537772597
 10
877.8346540208248
 20
2018.153353359386
 10
877.869513806363
 20
2018.104523907435
 10
877.9062983650632
 20
2018.057127533451
 10
877.9449488494782
 20
2018.011240061522
 10
877.985403427078
 20
2017.966934901813
 10
878.0275973791688
 20
2017.92428293313
 10
878.0714632044274
 20
2017.883352389523
 10
878.1169307268914
 20
2017.84420875113
 10
878.1639272082243
 20
2017.806914639424
 10
878.2123774640806
 20
2017.771529717027
 10
878.2622039843872
 20
2017.738110592267
 10
878.3133270573401
 20
2017.706710728614
 10
878.3656648969289
 20
2017.677380359151
 10
878.4191337737745
 20
2017.650166406214
 10
878.4736481490801
 20
2017.625112406321
 10
878.5291208114744
 20
2017.602258440528
 10
878.5854630165314
 20
2017.581641070305
 10
878.6425846287414
 20
2017.563293279045
 10
878.700394265711
 20
2017.547244419301
 10
878.7587994443523
 20
2017.533520165826
 10
878.817706728839
 20
2017.522142474496
 10
878.877021880082
 20
2017.513129547191
 10
878.9366500064929
 20
2017.506495802672
 10
878.996495715789
 20
2017.502251853516
 10
879.0564632676019
 20
2017.500404489134
 10
879.1164567266415
 20
2017.500956664917
 10
879.1763801161707
 20
2017.5039074975
 10
879.2361375715493
 20
2017.509252266182
 10
879.2956334935965
 20
2017.516982420472
 10
879.3547727015289
 20
2017.527085593773
 10
879.413460585229
 20
2017.539545623161
 10
879.4716032566029
 20
2017.55434257525
 10
879.5291076997791
 20
2017.571452778071
 10
879.5858819199157
 20
2017.590848858951
 10
879.6418350903717
 20
2017.612499788297
 10
879.6968776980101
 20
2017.63637092924
 10
879.7509216864007
 20
2017.662424093049
 10
879.8038805966909
 20
2017.690617600218
 10
879.8556697059215
 20
2017.720906347149
 10
879.9062061625654
 20
2017.753241878311
 10
879.9554091190724
 20
2017.787572463749
 10
880.0031998612084
 20
2017.823843181852
 10
880.0495019339807
 20
2017.861996007207
 10
880.0942412639502
 20
2017.901969903433
 10
880.1373462777327
 20
2017.943700920824
 10
880.1787480165014
 20
2017.987122298652
 10
880.218380246306
 20
2018.032164571977
 10
880.2561795640336
 20
2018.07875568277
 10
880.2920854988393
 20
2018.126821095193
 10
880.3260406088865
 20
2018.176283914838
 10
880.357990573243
 20
2018.227065011746
 10
880.3878842787808
 20
2018.279083146996
 10
880.4156739019488
 20
2018.332255102666
 10
880.4413149852775
 20
2018.386495814971
 10
880.4647665085035
 20
2018.441718510342
 10
880.4859909541924
 20
2018.497834844245
 10
880.504954367759
 20
2018.554755042519
 10
880.5216264117865
 20
2018.612388044987
 10
880.5359804145611
 20
2018.670641651141
 10
880.5479934127404
 20
2018.729422667638
 10
880.5576461880901
 20
2018.788637057389
 10
880.5649232982286
 20
2018.848190090004
 10
880.5698131013322
 20
2018.907986493334
 10
880.572307774759
 20
2018.96793060589
 10
880.5726574431893
 20
2019.000317069479
1001
REVIT
1002
{
1070
     3
1000
939838
1002
}
  0
LINE
  5
95
330
87
100
AcDbEntity
  8
M-PIPE
100
AcDbLine
 10
887.166407443188
 20
2014.10056426614
 30
0.0
 11
887.166407443188
 21
1998.85837676614
 31
0.0
1001
REVIT
1002
{
1070
     3
1000
939838
1002
}
  0
LINE
  5
96
330
87
100
AcDbEntity
  8
M-PIPE
100
AcDbLine
 10
887.1664074431878
 20
1998.85837676614
 30
0.0
 11
887.166407443188
 21
1970.85837676614
 31
0.0
1001
REVIT
1002
{
1070
     3
1000
939838
1002
}
  0
LINE
  5
97
330
87
100
AcDbEntity
  8
M-PIPE
100
AcDbLine
 10
887.1664074431878
 20
1970.85837676614
 30
0.0
 11
887.1664074431876
 21
1942.85837676614
 31
0.0
1001
REVIT
1002
{
1070
     3
1000
939838
1002
}
  0
LINE
  5
98
330
87
100
AcDbEntity
  8
M-PIPE
100
AcDbLine
 10
887.1664074431878
 20
1942.85837676614
 30
0.0
 11
887.1664074431876
 21
1927.616189266139
 31
0.0
1001
REVIT
1002
{
1070
     3
1000
939838
1002
}
  0
ARC
  5
99
330
87
100
AcDbEntity
  8
M-PIPE
100
AcDbCircle
 10
881.6664074431876
 20
1927.616189266139
 30
0.0
 40
5.499999999999886
100
AcDbArc
 50
269.9999999999973
 51
0.0
1001
REVIT
1002
{
1070
     3
1000
939838
1002
}
  0
ARC
  5
9A
330
87
100
AcDbEntity
  8
M-PIPE
100
AcDbCircle
 10
881.6664074431878
 20
2014.10056426614
 30
0.0
 40
5.499999999999986
100
AcDbArc
 50
0.00000000000059
 51
90.00000000000058
1001
REVIT
1002
{
1070
     3
1000
939838
1002
}
  0
LINE
  5
9B
330
87
100
AcDbEntity
  8
M-PIPE
100
AcDbLine
 10
881.6664074431873
 20
1922.11618926614
 30
0.0
 11
880.5726574431879
 21
1922.11618926614
 31
0.0
1001
REVIT
1002
{
1070
     3
1000
939838
1002
}
  0
LINE
  5
9C
330
87
100
AcDbEntity
  8
M-PIPE
100
AcDbLine
 10
880.5726574431879
 20
2019.600564266139
 30
0.0
 11
881.6664074431878
 21
2019.600564266139
 31
0.0
1001
REVIT
1002
{
1070
     3
1000
939838
1002
}
  0
LINE
  5
9D
330
87
100
AcDbEntity
  8
M-PIPE
100
AcDbLine
 10
877.572657443188
 20
1922.11618926614
 30
0.0
 11
815.6664074431875
 21
1922.116189266141
 31
0.0
1001
REVIT
1002
{
1070
     3
1000
939838
1002
}
  0
LINE
  5
9E
330
87
100
AcDbEntity
  8
M-PIPE
100
AcDbLine
 10
876.8029528699772
 20
2019.600564266139
 30
0.0
 11
877.572657443188
 21
2019.600564266139
 31
0.0
1001
REVIT
1002
{
1070
     3
1000
939838
1002
}
  0
LINE
  5
9F
330
87
100
AcDbEntity
  8
M-PIPE
100
AcDbLine
 10
753.7601574431877
 20
2019.000317069478
 30
0.0
 11
753.7601574431877
 21
2019.60056426614
 31
0.0
1001
REVIT
1002
{
1070
     3
1000
939838
1002
}
  0
LINE
  5
A0
330
87
100
AcDbEntity
  8
M-PIPE
100
AcDbLine
 10
753.7601574431877
 20
1922.11618926614
 30
0.0
 11
753.7601574431877
 21
1922.716436462802
 31
0.0
1001
REVIT
1002
{
1070
     3
1000
939838
1002
}
  0
ARC
  5
A1
330
87
100
AcDbEntity
  8
M-PIPE
100
AcDbCircle
 10
752.2601574431877
 20
1922.716436462802
 30
0.0
 40
1.5
100
AcDbArc
 50
0.0
 51
180.0
1001
REVIT
1002
{
1070
     3
1000
939838
1002
}
  0
ARC
  5
A2
330
87
100
AcDbEntity
  8
M-PIPE
100
AcDbCircle
 10
752.2601574431877
 20
2019.000317069478
 30
0.0
 40
1.5
100
AcDbArc
 50
180.0
 51
0.0
1001
REVIT
1002
{
1070
     3
1000
939838
1002
}
  0
LINE
  5
A3
330
87
100
AcDbEntity
  8
M-PIPE
100
AcDbLine
 10
750.7601574431877
 20
1922.716436462802
 30
0.0
 11
750.7601574431877
 21
1922.11618926614
 31
0.0
1001
REVIT
1002
{
1070
     3
1000
939838
1002
}
  0
LINE
  5
A4
330
87
100
AcDbEntity
  8
M-PIPE
100
AcDbLine
 10
750.7601574431877
 20
2019.60056426614
 30
0.0
 11
750.7601574431877
 21
2019.000317069478
 31
0.0
1001
REVIT
1002
{
1070
     3
1000
939838
1002
}
  0
LINE
  5
A5
330
87
100
AcDbEntity
  8
M-PIPE
100
AcDbLine
 10
791.4078990491563
 20
2013.17087676614
 30
0.0
 11
790.6664074431878
 21
2013.17087676614
 31
0.0
1001
REVIT
1002
{
1070
     3
1000
939838
1002
}
  0
LINE
  5
A6
330
87
100
AcDbEntity
  8
M-PIPE
100
AcDbLine
 10
790.6664074431878
 20
2013.17087676614
 30
0.0
 11
790.6664074431878
 21
1998.85837676614
 31
0.0
1001
REVIT
1002
{
1070
     3
1000
939838
1002
}
  0
SPLINE
  5
A7
330
87
100
AcDbEntity
  8
M-PIPE
100
AcDbSpline
210
0.0
220
0.0
230
1.0
 70
     8
 71
     3
 72
    10
 73
     6
 74
     0
 42
0.000000001
 43
0.0000000001
 40
0.0
 40
0.0
 40
0.0
 40
0.0
 40
0.0555555555555556
 40
0.0833333333333333
 40
0.1028512580521385
 40
0.1028512580521385
 40
0.1028512580521385
 40
0.1028512580521385
 10
790.6664074431878
 20
1998.85837676614
 30
0.0
 10
790.6664074431878
 20
1998.796220811508
 30
0.0
 10
790.9014602287848
 20
1998.559487606572
 30
0.0
 10
791.5739793416158
 20
1997.995719852159
 30
0.0
 10
791.9753903226665
 20
1997.671778313448
 30
0.0
 10
792.155621938354
 20
1997.524116281145
 30
0.0
1001
REVIT
1002
{
1070
     3
1000
939838
1002
}
  0
SPLINE
  5
A8
330
87
100
AcDbEntity
  8
M-PIPE
100
AcDbSpline
210
0.0
220
0.0
230
1.0
 70
     8
 71
     3
 72
    10
 73
     6
 74
     0
 42
0.000000001
 43
0.0000000001
 40
0.8971274625497844
 40
0.8971274625497844
 40
0.8971274625497844
 40
0.8971274625497844
 40
0.9166666666666666
 40
0.9444444444444444
 40
1.0
 40
1.0
 40
1.0
 40
1.0
 10
839.1771865755639
 20
1997.524177195088
 30
0.0
 10
839.3576014441261
 20
1997.672016077312
 30
0.0
 10
839.7591124016944
 20
1997.996086169504
 30
0.0
 10
840.4315067590905
 20
1998.559826512879
 30
0.0
 10
840.6664074431878
 20
1998.796374252437
 30
0.0
 10
840.6664074431878
 20
1998.85837676614
 30
0.0
1001
REVIT
1002
{
1070
     3
1000
939838
1002
}
  0
LINE
  5
A9
330
87
100
AcDbEntity
  8
M-PIPE
100
AcDbLine
 10
840.6664074431878
 20
1998.85837676614
 30
0.0
 11
840.6664074431878
 21
2013.17087676614
 31
0.0
1001
REVIT
1002
{
1070
     3
1000
939838
1002
}
  0
LINE
  5
AA
330
87
100
AcDbEntity
  8
M-PIPE
100
AcDbLine
 10
840.6664074431878
 20
2013.17087676614
 30
0.0
 11
839.9249158372194
 21
2013.17087676614
 31
0.0
1001
REVIT
1002
{
1070
     3
1000
939838
1002
}
  0
LINE
  5
AB
330
87
100
AcDbEntity
  8
M-PIPE
100
AcDbLine
 10
865.6664074431878
 20
2013.17087676614
 30
0.0
 11
872.0945961332239
 21
2016.882193236734
 31
0.0
1001
REVIT
1002
{
1070
     3
1000
939838
1002
}
  0
LINE
  5
AC
330
87
100
AcDbEntity
  8
M-PIPE
100
AcDbLine
 10
873.170363068314
 20
2017.503287566293
 30
0.0
 11
876.8029528699772
 21
2019.600564266139
 31
0.0
1001
REVIT
1002
{
1070
     3
1000
939838
1002
}
  0
LINE
  5
AD
330
87
100
AcDbEntity
  8
M-PIPE
100
AcDbLine
 10
754.5298620163968
 20
2019.60056426614
 30
0.0
 11
758.1624518180618
 21
2017.503287566293
 31
0.0
1001
REVIT
1002
{
1070
     3
1000
939838
1002
}
  0
LINE
  5
AE
330
87
100
AcDbEntity
  8
M-PIPE
100
AcDbLine
 10
759.2382187531515
 20
2016.882193236734
 30
0.0
 11
765.6664074431878
 21
2013.17087676614
 31
0.0
1001
REVIT
1002
{
1070
     3
1000
939838
1002
}
  0
LINE
  5
AF
330
87
100
AcDbEntity
  8
M-PIPE
100
AcDbLine
 10
765.6664074431878
 20
2013.17087676614
 30
0.0
 11
790.6664074431877
 21
2013.17087676614
 31
0.0
1001
REVIT
1002
{
1070
     3
1000
939838
1002
}
  0
LINE
  5
B0
330
87
100
AcDbEntity
  8
M-PIPE
100
AcDbLine
 10
840.666407443188
 20
2013.17087676614
 30
0.0
 11
865.6664074431878
 21
2013.17087676614
 31
0.0
1001
REVIT
1002
{
1070
     3
1000
939838
1002
}
  0
LINE
  5
B1
330
87
100
AcDbEntity
  8
M-PIPE
100
AcDbLine
 10
749.6664074431878
 20
2019.60056426614
 30
0.0
 11
750.7601574431877
 21
2019.60056426614
 31
0.0
1001
REVIT
1002
{
1070
     3
1000
939838
1002
}
  0
LINE
  5
B2
330
87
100
AcDbEntity
  8
M-PIPE
100
AcDbLine
 10
750.7601574431877
 20
1922.11618926614
 30
0.0
 11
749.6664074431874
 21
1922.11618926614
 31
0.0
1001
REVIT
1002
{
1070
     3
1000
939838
1002
}
  0
LINE
  5
B3
330
87
100
AcDbEntity
  8
M-PIPE
100
AcDbLine
 10
753.7601574431877
 20
2019.60056426614
 30
0.0
 11
754.5298620163968
 21
2019.60056426614
 31
0.0
1001
REVIT
1002
{
1070
     3
1000
939838
1002
}
  0
LINE
  5
B4
330
87
100
AcDbEntity
  8
M-PIPE
100
AcDbLine
 10
815.6664074431875
 20
1922.11618926614
 30
0.0
 11
753.7601574431877
 21
1922.11618926614
 31
0.0
1001
REVIT
1002
{
1070
     3
1000
939838
1002
}
  0
ARC
  5
B5
330
87
100
AcDbEntity
  8
M-PIPE
100
AcDbCircle
 10
749.6664074431874
 20
1927.61618926614
 30
0.0
 40
5.499999999999886
100
AcDbArc
 50
180.0
 51
269.9999999999997
1001
REVIT
1002
{
1070
     3
1000
939838
1002
}
  0
ARC
  5
B6
330
87
100
AcDbEntity
  8
M-PIPE
100
AcDbCircle
 10
749.6664074431878
 20
2014.10056426614
 30
0.0
 40
5.5
100
AcDbArc
 50
90.0
 51
180.0
1001
REVIT
1002
{
1070
     3
1000
939838
1002
}
  0
LINE
  5
B7
330
87
100
AcDbEntity
  8
M-PIPE
100
AcDbLine
 10
744.1664074431876
 20
1927.61618926614
 30
0.0
 11
744.1664074431876
 21
1942.85837676614
 31
0.0
1001
REVIT
1002
{
1070
     3
1000
939838
1002
}
  0
LINE
  5
B8
330
87
100
AcDbEntity
  8
M-PIPE
100
AcDbLine
 10
744.1664074431876
 20
1942.85837676614
 30
0.0
 11
744.1664074431878
 21
1970.85837676614
 31
0.0
1001
REVIT
1002
{
1070
     3
1000
939838
1002
}
  0
LINE
  5
B9
330
87
100
AcDbEntity
  8
M-PIPE
100
AcDbLine
 10
744.1664074431879
 20
1970.85837676614
 30
0.0
 11
744.1664074431878
 21
1998.85837676614
 31
0.0
1001
REVIT
1002
{
1070
     3
1000
939838
1002
}
  0
LINE
  5
BA
330
87
100
AcDbEntity
  8
M-PIPE
100
AcDbLine
 10
744.1664074431878
 20
1998.85837676614
 30
0.0
 11
744.1664074431878
 21
2014.10056426614
 31
0.0
1001
REVIT
1002
{
1070
     3
1000
939838
1002
}
  0
LINE
  5
BB
330
87
100
AcDbEntity
  8
M-PIPE
100
AcDbLine
 10
880.5726574431879
 20
2019.000317069478
 30
0.0
 11
880.5726574431879
 21
2019.60056426614
 31
0.0
1001
REVIT
1002
{
1070
     3
1000
939838
1002
}
  0
LINE
  5
BC
330
87
100
AcDbEntity
  8
M-PIPE
100
AcDbLine
 10
880.5726574431879
 20
1922.116189266141
 30
0.0
 11
880.5726574431879
 21
1922.716436462802
 31
0.0
1001
REVIT
1002
{
1070
     3
1000
939838
1002
}
  0
ARC
  5
BD
330
87
100
AcDbEntity
  8
M-PIPE
100
AcDbCircle
 10
879.0726574431879
 20
1922.716436462802
 30
0.0
 40
1.500000000000113
100
AcDbArc
 50
0.0
 51
180.0
1001
REVIT
1002
{
1070
     3
1000
939838
1002
}
  0
ARC
  5
BE
330
87
100
AcDbEntity
  8
M-PIPE
100
AcDbCircle
 10
879.0726574431879
 20
2019.000317069478
 30
0.0
 40
1.5
100
AcDbArc
 50
180.0
 51
0.0
1001
REVIT
1002
{
1070
     3
1000
939838
1002
}
  0
LINE
  5
BF
330
87
100
AcDbEntity
  8
M-PIPE
100
AcDbLine
 10
877.572657443188
 20
1922.716436462802
 30
0.0
 11
877.572657443188
 21
1922.116189266141
 31
0.0
1001
REVIT
1002
{
1070
     3
1000
939838
1002
}
  0
LINE
  5
C0
330
87
100
AcDbEntity
  8
M-PIPE
100
AcDbLine
 10
877.572657443188
 20
2019.60056426614
 30
0.0
 11
877.572657443188
 21
2019.000317069478
 31
0.0
1001
REVIT
1002
{
1070
     3
1000
939838
1002
}
  0
LINE
  5
C1
330
87
100
AcDbEntity
  8
M-PIPE
100
AcDbLine
 10
744.1664074431876
 20
1942.85837676614
 30
0.0
 11
887.1664074431876
 21
1942.85837676614
 31
0.0
1001
REVIT
1002
{
1070
     3
1000
939838
1002
}
  0
LINE
  5
C2
330
87
100
AcDbEntity
  8
M-PIPE
100
AcDbLine
 10
887.166407443188
 20
1998.85837676614
 30
0.0
 11
840.6664074431878
 21
1998.85837676614
 31
0.0
1001
REVIT
1002
{
1070
     3
1000
939838
1002
}
  0
LINE
  5
C3
330
87
100
AcDbEntity
  8
M-PIPE
100
AcDbLine
 10
790.6664074431878
 20
1998.85837676614
 30
0.0
 11
744.1664074431878
 21
1998.85837676614
 31
0.0
1001
REVIT
1002
{
1070
     3
1000
939838
1002
}
  0
LINE
  5
C4
330
87
100
AcDbEntity
  8
M-PIPE
100
AcDbLine
 10
846.1664074432194
 20
2087.857499999933
 30
0.0
 11
846.1664074432198
 21
2140.357499999948
 31
0.0
1001
REVIT
1002
{
1070
     3
1000
938184
1002
}
  0
LINE
  5
C5
330
87
100
AcDbEntity
  8
M-PIPE
100
AcDbLine
 10
785.1664074431596
 20
2140.357499999949
 30
0.0
 11
785.1664074431595
 21
2087.857499999933
 31
0.0
1001
REVIT
1002
{
1070
     3
1000
938184
1002
}
  0
LINE
  5
C6
330
87
100
AcDbEntity
  8
M-PIPE
100
AcDbLine
 10
794.537031138334
 20
2143.857499999949
 30
0.0
 11
789.2273773336112
 21
2143.857499999949
 31
0.0
1001
REVIT
1002
{
1070
     3
1000
938184
1002
}
  0
LWPOLYLINE
  5
C7
330
87
100
AcDbEntity
  8
M-PIPE
100
AcDbPolyline
 90
       41
 70
   128
 43
0.0
 10
785.1664074431595
 20
2140.357499999949
 10
785.1692070698462
 20
2140.497462669602
 10
785.1776014711004
 20
2140.637201428841
 10
785.191577217671
 20
2140.77649272546
 10
785.2111119513449
 20
2140.915113723099
 10
785.2361744207152
 20
2141.052842657731
 10
785.2667245311774
 20
2141.189459192444
 10
785.3027134090718
 20
2141.324744769923
 10
785.3440834798711
 20
2141.458482962105
 10
785.3907685602868
 20
2141.590459816411
 10
785.4426939641496
 20
2141.720464198029
 10
785.4997766218899
 20
2141.848288127679
 10
785.5619252134321
 20
2141.973727114343
 10
785.6290403142877
 20
2142.096580482402
 10
785.7010145546126
 20
2142.216651692672
 10
785.7777327909757
 20
2142.333748656831
 10
785.8590722905645
 20
2142.447684044717
 10
785.9449029275314
 20
2142.558275584013
 10
786.0350873911664
 20
2142.665346351849
 10
786.1294814055663
 20
2142.768725057836
 10
786.2279339604445
 20
2142.868246318097
 10
786.330287552715
 20
2142.963750919847
 10
786.4363784384647
 20
2143.055086076095
 10
786.5460368949076
 20
2143.142105670076
 10
786.6590874919061
 20
2143.224670489003
 10
786.7753493726211
 20
2143.302648446776
 10
786.8946365428447
 20
2143.3759147953
 10
787.0167581685516
 20
2143.444352324046
 10
787.1415188811911
 20
2143.507851547567
 10
787.2687190902377
 20
2143.56631088065
 10
787.3981553024912
 20
2143.619636800834
 10
787.529620447624
 20
2143.667743998022
 10
787.6629042094476
 20
2143.710555510961
 10
787.7977933623762
 20
2143.748002850363
 10
787.9340721125397
 20
2143.780026108472
 10
788.0715224430089
 20
2143.806574054908
 10
788.2099244625763
 20
2143.827604218619
 10
788.3490567575346
 20
2143.843082955831
 10
788.4886967458921
 20
2143.852985503864
 10
788.6286210334556
 20
2143.857296020753
 10
788.6664074431597
 20
2143.857499999949
1001
REVIT
1002
{
1070
     3
1000
938184
1002
}
  0
LWPOLYLINE
  5
C8
330
87
100
AcDbEntity
  8
M-PIPE
100
AcDbPolyline
 90
       41
 70
   128
 43
0.0
 10
842.6664074432196
 20
2143.857499999948
 10
842.8063701128731
 20
2143.854700373262
 10
842.9461088721119
 20
2143.846305972008
 10
843.0854001687308
 20
2143.832330225437
 10
843.2240211663694
 20
2143.812795491763
 10
843.3617501010024
 20
2143.787733022393
 10
843.4983666357148
 20
2143.757182911931
 10
843.633652213194
 20
2143.721194034036
 10
843.7673904053761
 20
2143.679823963237
 10
843.8993672596826
 20
2143.633138882821
 10
844.0293716413
 20
2143.581213478959
 10
844.1571955709509
 20
2143.524130821218
 10
844.2826345576147
 20
2143.461982229676
 10
844.4054879256727
 20
2143.39486712882
 10
844.5255591359428
 20
2143.322892888495
 10
844.6426561001024
 20
2143.246174652133
 10
844.7565914879881
 20
2143.164835152543
 10
844.8671830272845
 20
2143.079004515577
 10
844.9742537951198
 20
2142.988820051942
 10
845.0776325011066
 20
2142.894426037542
 10
845.177153761368
 20
2142.795973482664
 10
845.2726583631177
 20
2142.693619890393
 10
845.363993519366
 20
2142.587529004643
 10
845.4510131133471
 20
2142.477870548201
 10
845.5335779322732
 20
2142.364819951202
 10
845.6115558900473
 20
2142.248558070487
 10
845.6848222385714
 20
2142.129270900263
 10
845.7532597673171
 20
2142.007149274556
 10
845.8167589908374
 20
2141.882388561917
 10
845.8752183239209
 20
2141.75518835287
 10
845.928544244105
 20
2141.625752140617
 10
845.9766514412931
 20
2141.494286995484
 10
846.019462954232
 20
2141.36100323366
 10
846.0569102936336
 20
2141.226114080732
 10
846.0889335517434
 20
2141.089835330568
 10
846.1154814981792
 20
2140.952385000099
 10
846.1365116618907
 20
2140.813982980532
 10
846.1519903991014
 20
2140.674850685574
 10
846.1618929471343
 20
2140.535210697216
 10
846.1662034640244
 20
2140.395286409653
 10
846.1664074432198
 20
2140.357499999948
1001
REVIT
1002
{
1070
     3
1000
938184
1002
}
  0
LINE
  5
C9
330
87
100
AcDbEntity
  8
M-PIPE
100
AcDbLine
 10
842.1054375527681
 20
2143.857499999948
 30
0.0
 11
836.7957837480782
 21
2143.857499999948
 31
0.0
1001
REVIT
1002
{
1070
     3
1000
938184
1002
}
  0
LINE
  5
CA
330
87
100
AcDbEntity
  8
M-PIPE
100
AcDbLine
 10
786.5385023367669
 20
2087.857499999932
 30
0.0
 11
786.1674667842121
 21
2087.857499999932
 31
0.0
1001
REVIT
1002
{
1070
     3
1000
938184
1002
}
  0
LINE
  5
CB
330
87
100
AcDbEntity
  8
M-PIPE
100
AcDbLine
 10
786.1674667842121
 20
2087.857499999932
 30
0.0
 11
785.166407443158
 21
2087.857499999932
 31
0.0
1001
REVIT
1002
{
1070
     3
1000
938184
1002
}
  0
LINE
  5
CC
330
87
100
AcDbEntity
  8
M-PIPE
100
AcDbLine
 10
846.166407443218
 20
2087.857499999932
 30
0.0
 11
845.1653481021638
 21
2087.857499999932
 31
0.0
1001
REVIT
1002
{
1070
     3
1000
938184
1002
}
  0
LINE
  5
CD
330
87
100
AcDbEntity
  8
M-PIPE
100
AcDbLine
 10
845.165348102164
 20
2087.857499999932
 30
0.0
 11
844.7943125496118
 21
2087.857499999932
 31
0.0
1001
REVIT
1002
{
1070
     3
1000
938184
1002
}
  0
LINE
  5
CE
330
87
100
AcDbEntity
  8
M-PIPE
100
AcDbLine
 10
791.7314306836316
 20
2140.357499999948
 30
0.0
 11
791.7314306836312
 21
2095.707581678382
 31
0.0
1001
REVIT
1002
{
1070
     3
1000
938184
1002
}
  0
LINE
  5
CF
330
87
100
AcDbEntity
  8
M-PIPE
100
AcDbLine
 10
839.6013842027791
 20
2095.707581678381
 30
0.0
 11
839.6013842027793
 21
2140.357499999947
 31
0.0
1001
REVIT
1002
{
1070
     3
1000
938184
1002
}
  0
LINE
  5
D0
330
87
100
AcDbEntity
  8
M-PIPE
100
AcDbLine
 10
845.1653481021638
 20
2087.857499999932
 30
0.0
 11
845.165348102164
 21
2140.357499999947
 31
0.0
1001
REVIT
1002
{
1070
     3
1000
938184
1002
}
  0
LINE
  5
D1
330
87
100
AcDbEntity
  8
M-PIPE
100
AcDbLine
 10
786.1674667842121
 20
2087.857499999932
 30
0.0
 11
786.1674667842123
 21
2140.357499999948
 31
0.0
1001
REVIT
1002
{
1070
     3
1000
938184
1002
}
  0
SPLINE
  5
D2
330
87
100
AcDbEntity
  8
M-PIPE
100
AcDbSpline
210
0.0
220
0.0
230
1.0
 70
     8
 71
     3
 72
    14
 73
    10
 74
     0
 42
0.000000001
 43
0.0000000001
 40
0.0
 40
0.0
 40
0.0
 40
0.0
 40
0.1428571428571428
 40
0.2857142857142857
 40
0.4285714285714286
 40
0.5714285714285714
 40
0.6785714285714287
 40
0.7857142857142857
 40
1.0
 40
1.0
 40
1.0
 40
1.0
 10
789.2273773336098
 20
2143.857499999948
 30
0.0
 10
789.0054029981406
 20
2143.857499999948
 30
0.0
 10
788.5651645425855
 20
2143.804406192615
 30
0.0
 10
787.9284287808531
 20
2143.563781422043
 30
0.0
 10
787.3479658048899
 20
2143.166195297554
 30
0.0
 10
786.8924822362227
 20
2142.666815368624
 30
0.0
 10
786.5604582405453
 20
2142.119561857331
 30
0.0
 10
786.2627923749434
 20
2141.383980229199
 30
0.0
 10
786.1681539418277
 20
2140.769690871488
 30
0.0
 10
786.1674667842123
 20
2140.357499999948
 30
0.0
1001
REVIT
1002
{
1070
     3
1000
938184
1002
}
  0
SPLINE
  5
D3
330
87
100
AcDbEntity
  8
M-PIPE
100
AcDbSpline
210
0.0
220
0.0
230
1.0
 70
     8
 71
     3
 72
     8
 73
     4
 74
     0
 42
0.000000001
 43
0.0000000001
 40
0.0
 40
0.0
 40
0.0
 40
0.0
 40
0.0527943524398256
 40
0.0527943524398256
 40
0.0527943524398256
 40
0.0527943524398256
 10
795.4492833782848
 20
2143.857499999948
 30
0.0
 10
795.3769893715966
 20
2143.857499999948
 30
0.0
 10
795.3049190042165
 20
2143.853691682176
 30
0.0
 10
795.2331940413221
 20
2143.846077140727
 30
0.0
1001
REVIT
1002
{
1070
     3
1000
938184
1002
}
  0
SPLINE
  5
D4
330
87
100
AcDbEntity
  8
M-PIPE
100
AcDbSpline
210
0.0
220
0.0
230
1.0
 70
     8
 71
     3
 72
     8
 73
     4
 74
     0
 42
0.000000001
 43
0.0000000001
 40
-1.0
 40
-1.0
 40
-1.0
 40
-1.0
 40
-0.948618624141056
 40
-0.948618624141056
 40
-0.948618624141056
 40
-0.948618624141056
 10
835.8835315081281
 20
2143.857499999947
 30
0.0
 10
835.9568724207916
 20
2143.857499999947
 30
0.0
 10
836.0297936267468
 20
2143.853704345539
 30
0.0
 10
836.1021091895334
 20
2143.846145625992
 30
0.0
1001
REVIT
1002
{
1070
     3
1000
938184
1002
}
  0
SPLINE
  5
D5
330
87
100
AcDbEntity
  8
M-PIPE
100
AcDbSpline
210
0.0
220
0.0
230
1.0
 70
     8
 71
     3
 72
    13
 73
     9
 74
     0
 42
0.000000001
 43
0.0000000001
 40
-1.0
 40
-1.0
 40
-1.0
 40
-1.0
 40
-0.8333333333333332
 40
-0.6666666666666666
 40
-0.5
 40
-0.3333333333333333
 40
-0.1666666666666666
 40
0.0
 40
0.0
 40
0.0
 40
0.0
 10
842.1054375527665
 20
2143.857499999947
 30
0.0
 10
842.3854373076297
 20
2143.857499999947
 30
0.0
 10
842.9299703777761
 20
2143.777080161063
 30
0.0
 10
843.6629128245963
 20
2143.423411788113
 30
0.0
 10
844.3017588814726
 20
2142.860806165644
 30
0.0
 10
844.7932262927553
 20
2142.127605953913
 30
0.0
 10
845.0898409053996
 20
2141.273770018387
 30
0.0
 10
845.1622273587757
 20
2140.662932619047
 30
0.0
 10
845.165348102164
 20
2140.357499999947
 30
0.0
1001
REVIT
1002
{
1070
     3
1000
938184
1002
}
  0
SPLINE
  5
D6
330
87
100
AcDbEntity
  8
M-PIPE
100
AcDbSpline
210
0.0
220
0.0
230
1.0
 70
     8
 71
     3
 72
    10
 73
     6
 74
     0
 42
0.000000001
 43
0.0000000001
 40
0.0
 40
0.0
 40
0.0
 40
0.0
 40
0.1666666666666666
 40
0.25
 40
0.3333333333333333
 40
0.3333333333333333
 40
0.3333333333333333
 40
0.3333333333333333
 10
791.7314306836316
 20
2140.357499999948
 30
0.0
 10
791.7292082558778
 20
2140.655056191022
 30
0.0
 10
791.771330572331
 20
2141.104351717328
 30
0.0
 10
791.9197030536332
 20
2141.679772791099
 30
0.0
 10
792.0226911290567
 20
2141.953988657451
 30
0.0
 10
792.0826241881248
 20
2142.08699671362
 30
0.0
1001
REVIT
1002
{
1070
     3
1000
938184
1002
}
  0
SPLINE
  5
D7
330
87
100
AcDbEntity
  8
M-PIPE
100
AcDbSpline
210
0.0
220
0.0
230
1.0
 70
     8
 71
     3
 72
    11
 73
     7
 74
     0
 42
0.000000001
 43
0.0000000001
 40
0.3340264336878351
 40
0.3340264336878351
 40
0.3340264336878351
 40
0.3340264336878351
 40
0.5
 40
0.6666666666666666
 40
0.8333333333333332
 40
1.0
 40
1.0
 40
1.0
 40
1.0
 10
792.0841213651945
 20
2142.090314627367
 30
0.0
 10
792.2037684188372
 20
2142.355088431725
 30
0.0
 10
792.5105685034885
 20
2142.853040491334
 30
0.0
 10
793.1112277742506
 20
2143.425364165093
 30
0.0
 10
793.786609862581
 20
2143.777830784213
 30
0.0
 10
794.2835523532148
 20
2143.857499999948
 30
0.0
 10
794.5370311383326
 20
2143.857499999948
 30
0.0
1001
REVIT
1002
{
1070
     3
1000
938184
1002
}
  0
SPLINE
  5
D8
330
87
100
AcDbEntity
  8
M-PIPE
100
AcDbSpline
210
0.0
220
0.0
230
1.0
 70
     8
 71
     3
 72
    13
 73
     9
 74
     0
 42
0.000000001
 43
0.0000000001
 40
0.0
 40
0.0
 40
0.0
 40
0.0
 40
0.1428571428571428
 40
0.2857142857142857
 40
0.4285714285714286
 40
0.5714285714285714
 40
0.7857142857142857
 40
1.0
 40
1.0
 40
1.0
 40
1.0
 10
836.7957837480767
 20
2143.857499999947
 30
0.0
 10
837.0022783499971
 20
2143.857499999947
 30
0.0
 10
837.4116929806252
 20
2143.802778583608
 30
0.0
 10
838.0014901068129
 20
2143.555853018581
 30
0.0
 10
838.5352117244199
 20
2143.150700622221
 30
0.0
 10
839.0634265629422
 20
2142.50946187671
 30
0.0
 10
839.4889835603072
 20
2141.5711540093
 30
0.0
 10
839.600950735827
 20
2140.763071109844
 30
0.0
 10
839.6013842027793
 20
2140.357499999947
 30
0.0
1001
REVIT
1002
{
1070
     3
1000
938184
1002
}
  0
LINE
  5
D9
330
87
100
AcDbEntity
  8
M-PIPE
100
AcDbLine
 10
786.5328763612905
 20
2087.857499999995
 30
0.0
 11
844.7999385250883
 21
2087.857499999995
 31
0.0
1001
REVIT
1002
{
1070
     3
1000
938184
1002
}
  0
LINE
  5
DA
330
87
100
AcDbEntity
  8
M-PIPE
100
AcDbLine
 10
844.7999385250886
 20
2095.707581678381
 30
0.0
 11
786.5328763612905
 21
2095.707581678382
 31
0.0
1001
REVIT
1002
{
1070
     3
1000
938184
1002
}
  0
LINE
  5
DB
330
87
100
AcDbEntity
  8
M-PIPE
100
AcDbLine
 10
746.3624518180601
 20
2036.757499999996
 30
0.0
 11
746.3624518180601
 21
2019.757499999996
 31
0.0
1001
REVIT
1002
{
1070
     3
1000
790271
1002
}
  0
LINE
  5
DC
330
87
100
AcDbEntity
  8
M-PIPE
100
AcDbLine
 10
764.8158831790737
 20
2036.757499999995
 30
0.0
 11
764.8158831790736
 21
2019.757499999996
 31
0.0
1001
REVIT
1002
{
1070
     3
1000
790271
1002
}
  0
LINE
  5
DD
330
87
100
AcDbEntity
  8
M-PIPE
100
AcDbLine
 10
866.4916175594395
 20
2019.757499999996
 30
0.0
 11
866.4916175594395
 21
2036.757499999994
 31
0.0
1001
REVIT
1002
{
1070
     3
1000
790271
1002
}
  0
LINE
  5
DE
330
87
100
AcDbEntity
  8
M-PIPE
100
AcDbLine
 10
884.9724246024861
 20
2019.757499999996
 30
0.0
 11
884.9724246024861
 21
2036.757499999994
 31
0.0
1001
REVIT
1002
{
1070
     3
1000
790271
1002
}
  0
LINE
  5
DF
330
87
100
AcDbEntity
  8
M-PIPE
100
AcDbLine
 10
758.1624518180603
 20
2039.257499999996
 30
0.0
 11
758.1624518180603
 21
2036.757499999996
 31
0.0
1001
REVIT
1002
{
1070
     3
1000
790271
1002
}
  0
LINE
  5
E0
330
87
100
AcDbEntity
  8
M-PIPE
100
AcDbLine
 10
873.1703630683185
 20
2036.757499999995
 30
0.0
 11
873.1703630683185
 21
2039.257499999995
 31
0.0
1001
REVIT
1002
{
1070
     3
1000
790271
1002
}
  0
LINE
  5
E1
330
87
100
AcDbEntity
  8
M-PIPE
100
AcDbLine
 10
766.7615529299254
 20
2042.257499999996
 30
0.0
 11
758.1624518180603
 21
2039.257499999996
 31
0.0
1001
REVIT
1002
{
1070
     3
1000
790271
1002
}
  0
LINE
  5
E2
330
87
100
AcDbEntity
  8
M-PIPE
100
AcDbLine
 10
873.1703630683185
 20
2039.257499999995
 30
0.0
 11
864.5712619564534
 21
2042.257499999994
 31
0.0
1001
REVIT
1002
{
1070
     3
1000
790271
1002
}
  0
LINE
  5
E3
330
87
100
AcDbEntity
  8
M-PIPE
100
AcDbLine
 10
852.1664074431898
 20
2059.607499999996
 30
0.0
 11
843.328243191982
 21
2059.607499999996
 31
0.0
1001
REVIT
1002
{
1070
     3
1000
790271
1002
}
  0
LINE
  5
E4
330
87
100
AcDbEntity
  8
M-PIPE
100
AcDbLine
 10
843.3282431919771
 20
2045.607499999996
 30
0.0
 11
852.1664074431896
 21
2045.607499999996
 31
0.0
1001
REVIT
1002
{
1070
     3
1000
790271
1002
}
  0
LINE
  5
E5
330
87
100
AcDbEntity
  8
M-PIPE
100
AcDbLine
 10
843.1664074431823
 20
2042.257499999995
 30
0.0
 11
843.3282431919771
 21
2045.607499999996
 31
0.0
1001
REVIT
1002
{
1070
     3
1000
790271
1002
}
  0
LINE
  5
E6
330
87
100
AcDbEntity
  8
M-PIPE
100
AcDbLine
 10
787.6664074431895
 20
2052.607499999997
 30
0.0
 11
788.1664074431966
 21
2042.257499999996
 31
0.0
1001
REVIT
1002
{
1070
     3
1000
790271
1002
}
  0
LINE
  5
E7
330
87
100
AcDbEntity
  8
M-PIPE
100
AcDbLine
 10
788.1664074431898
 20
2062.957499999996
 30
0.0
 11
787.6664074431895
 21
2052.607499999997
 31
0.0
1001
REVIT
1002
{
1070
     3
1000
790271
1002
}
  0
LINE
  5
E8
330
87
100
AcDbEntity
  8
M-PIPE
100
AcDbLine
 10
843.328243191982
 20
2059.607499999996
 30
0.0
 11
843.1664074431896
 21
2062.957499999996
 31
0.0
1001
REVIT
1002
{
1070
     3
1000
790271
1002
}
  0
LINE
  5
E9
330
87
100
AcDbEntity
  8
M-PIPE
100
AcDbLine
 10
843.1664074431898
 20
2062.957499999996
 30
0.0
 11
843.1664074431898
 21
2066.957499999933
 31
0.0
1001
REVIT
1002
{
1070
     3
1000
790271
1002
}
  0
LINE
  5
EA
330
87
100
AcDbEntity
  8
M-PIPE
100
AcDbLine
 10
788.1664074431898
 20
2066.957499999934
 30
0.0
 11
788.1664074431896
 21
2062.957499999996
 31
0.0
1001
REVIT
1002
{
1070
     3
1000
790271
1002
}
  0
LINE
  5
EB
330
87
100
AcDbEntity
  8
M-PIPE
100
AcDbLine
 10
839.66640744319
 20
2070.457499999933
 30
0.0
 11
839.6664074431901
 21
2082.857499999933
 31
0.0
1001
REVIT
1002
{
1070
     3
1000
790271
1002
}
  0
LINE
  5
EC
330
87
100
AcDbEntity
  8
M-PIPE
100
AcDbLine
 10
791.6664074431901
 20
2082.857499999933
 30
0.0
 11
791.66640744319
 21
2070.457499999933
 31
0.0
1001
REVIT
1002
{
1070
     3
1000
790271
1002
}
  0
LINE
  5
ED
330
87
100
AcDbEntity
  8
M-PIPE
100
AcDbLine
 10
843.1664074431898
 20
2066.957499999933
 30
0.0
 11
839.6664074431901
 21
2070.457499999933
 31
0.0
1001
REVIT
1002
{
1070
     3
1000
790271
1002
}
  0
LINE
  5
EE
330
87
100
AcDbEntity
  8
M-PIPE
100
AcDbLine
 10
791.6664074431898
 20
2070.457499999933
 30
0.0
 11
788.1664074431898
 21
2066.957499999934
 31
0.0
1001
REVIT
1002
{
1070
     3
1000
790271
1002
}
  0
LINE
  5
EF
330
87
100
AcDbEntity
  8
M-PIPE
100
AcDbLine
 10
839.6664074431901
 20
2082.857499999933
 30
0.0
 11
844.66640744319
 21
2087.857499999933
 31
0.0
1001
REVIT
1002
{
1070
     3
1000
790271
1002
}
  0
LINE
  5
F0
330
87
100
AcDbEntity
  8
M-PIPE
100
AcDbLine
 10
786.6664074431904
 20
2087.857499999933
 30
0.0
 11
791.66640744319
 21
2082.857499999933
 31
0.0
1001
REVIT
1002
{
1070
     3
1000
790271
1002
}
  0
LINE
  5
F1
330
87
100
AcDbEntity
  8
M-PIPE
100
AcDbLine
 10
749.5124518180589
 20
2036.757499999995
 30
0.0
 11
746.3624518180588
 21
2036.757499999995
 31
0.0
1001
REVIT
1002
{
1070
     3
1000
790271
1002
}
  0
LINE
  5
F2
330
87
100
AcDbEntity
  8
M-PIPE
100
AcDbLine
 10
755.304498924665
 20
2036.757499999995
 30
0.0
 11
749.5124518180588
 21
2036.757499999995
 31
0.0
1001
REVIT
1002
{
1070
     3
1000
790271
1002
}
  0
LINE
  5
F3
330
87
100
AcDbEntity
  8
M-PIPE
100
AcDbLine
 10
779.2066322788006
 20
2036.757499999994
 30
0.0
 11
772.7464431632182
 21
2036.757499999994
 31
0.0
1001
REVIT
1002
{
1070
     3
1000
790271
1002
}
  0
LINE
  5
F4
330
87
100
AcDbEntity
  8
M-PIPE
100
AcDbLine
 10
806.8664074431984
 20
2036.757499999994
 30
0.0
 11
779.2066322788
 21
2036.757499999994
 31
0.0
1001
REVIT
1002
{
1070
     3
1000
790271
1002
}
  0
LINE
  5
F5
330
87
100
AcDbEntity
  8
M-PIPE
100
AcDbLine
 10
779.2066322788002
 20
2019.757499999995
 30
0.0
 11
779.2066322788005
 21
2036.757499999994
 31
0.0
1001
REVIT
1002
{
1070
     3
1000
790271
1002
}
  0
LINE
  5
F6
330
87
100
AcDbEntity
  8
M-PIPE
100
AcDbLine
 10
766.761552929924
 20
2042.257499999995
 30
0.0
 11
864.571261956452
 21
2042.257499999994
 31
0.0
1001
REVIT
1002
{
1070
     3
1000
790271
1002
}
  0
LINE
  5
F7
330
87
100
AcDbEntity
  8
M-PIPE
100
AcDbLine
 10
884.9724246024846
 20
2019.757499999995
 30
0.0
 11
881.8224246024845
 21
2019.757499999995
 31
0.0
1001
REVIT
1002
{
1070
     3
1000
790271
1002
}
  0
LINE
  5
F8
330
87
100
AcDbEntity
  8
M-PIPE
100
AcDbLine
 10
881.8224246024845
 20
2019.757499999995
 30
0.0
 11
876.0258710495479
 21
2019.757499999995
 31
0.0
1001
REVIT
1002
{
1070
     3
1000
790271
1002
}
  0
LINE
  5
F9
330
87
100
AcDbEntity
  8
M-PIPE
100
AcDbLine
 10
876.0258710495479
 20
2019.757499999995
 30
0.0
 11
866.5290171339973
 21
2019.757499999995
 31
0.0
1001
REVIT
1002
{
1070
     3
1000
790271
1002
}
  0
LINE
  5
FA
330
87
100
AcDbEntity
  8
M-PIPE
100
AcDbLine
 10
866.4916175594381
 20
2019.757499999995
 30
0.0
 11
858.5610575752923
 21
2019.757499999995
 31
0.0
1001
REVIT
1002
{
1070
     3
1000
790271
1002
}
  0
LINE
  5
FB
330
87
100
AcDbEntity
  8
M-PIPE
100
AcDbLine
 10
858.5610575752923
 20
2019.757499999995
 30
0.0
 11
852.085985393813
 21
2019.757499999995
 31
0.0
1001
REVIT
1002
{
1070
     3
1000
790271
1002
}
  0
LINE
  5
FC
330
87
100
AcDbEntity
  8
M-PIPE
100
AcDbLine
 10
852.085985393813
 20
2019.757499999995
 30
0.0
 11
824.4664074431996
 21
2019.757499999995
 31
0.0
1001
REVIT
1002
{
1070
     3
1000
790271
1002
}
  0
LINE
  5
FD
330
87
100
AcDbEntity
  8
M-PIPE
100
AcDbLine
 10
824.4664074432
 20
2019.757499999995
 30
0.0
 11
821.1223674870421
 21
2019.757499999995
 31
0.0
1001
REVIT
1002
{
1070
     3
1000
790271
1002
}
  0
LINE
  5
FE
330
87
100
AcDbEntity
  8
M-PIPE
100
AcDbLine
 10
821.1223674870421
 20
2019.757499999995
 30
0.0
 11
810.2104473993581
 21
2019.757499999995
 31
0.0
1001
REVIT
1002
{
1070
     3
1000
790271
1002
}
  0
LINE
  5
FF
330
87
100
AcDbEntity
  8
M-PIPE
100
AcDbLine
 10
810.2104473993581
 20
2019.757499999995
 30
0.0
 11
806.8664074431991
 21
2019.757499999995
 31
0.0
1001
REVIT
1002
{
1070
     3
1000
790271
1002
}
  0
LINE
  5
100
330
87
100
AcDbEntity
  8
M-PIPE
100
AcDbLine
 10
779.2066322788002
 20
2019.757499999995
 30
0.0
 11
806.8664074431987
 21
2019.757499999995
 31
0.0
1001
REVIT
1002
{
1070
     3
1000
790271
1002
}
  0
LINE
  5
101
330
87
100
AcDbEntity
  8
M-PIPE
100
AcDbLine
 10
772.7464431632181
 20
2019.757499999995
 30
0.0
 11
779.2066322788007
 21
2019.757499999995
 31
0.0
1001
REVIT
1002
{
1070
     3
1000
790271
1002
}
  0
LINE
  5
102
330
87
100
AcDbEntity
  8
M-PIPE
100
AcDbLine
 10
772.7464431632182
 20
2019.757499999995
 30
0.0
 11
764.8158831790722
 21
2019.757499999995
 31
0.0
1001
REVIT
1002
{
1070
     3
1000
790271
1002
}
  0
LINE
  5
103
330
87
100
AcDbEntity
  8
M-PIPE
100
AcDbLine
 10
764.7786071627034
 20
2019.757499999995
 30
0.0
 11
755.3044989246652
 21
2019.757499999995
 31
0.0
1001
REVIT
1002
{
1070
     3
1000
790271
1002
}
  0
LINE
  5
104
330
87
100
AcDbEntity
  8
M-PIPE
100
AcDbLine
 10
749.5124518180588
 20
2019.757499999995
 30
0.0
 11
755.3044989246651
 21
2019.757499999995
 31
0.0
1001
REVIT
1002
{
1070
     3
1000
790271
1002
}
  0
LINE
  5
105
330
87
100
AcDbEntity
  8
M-PIPE
100
AcDbLine
 10
746.3624518180588
 20
2019.757499999995
 30
0.0
 11
749.5124518180588
 21
2019.757499999995
 31
0.0
1001
REVIT
1002
{
1070
     3
1000
790271
1002
}
  0
LINE
  5
106
330
87
100
AcDbEntity
  8
M-PIPE
100
AcDbLine
 10
764.7786071627035
 20
2036.757499999995
 30
0.0
 11
755.3044989246652
 21
2036.757499999995
 31
0.0
1001
REVIT
1002
{
1070
     3
1000
790271
1002
}
  0
LINE
  5
107
330
87
100
AcDbEntity
  8
M-PIPE
100
AcDbLine
 10
755.3044989246652
 20
2019.757499999995
 30
0.0
 11
755.3044989246652
 21
2036.757499999995
 31
0.0
1001
REVIT
1002
{
1070
     3
1000
790271
1002
}
  0
LINE
  5
108
330
87
100
AcDbEntity
  8
M-PIPE
100
AcDbLine
 10
772.7464431632182
 20
2036.757499999994
 30
0.0
 11
764.8158831790724
 21
2036.757499999994
 31
0.0
1001
REVIT
1002
{
1070
     3
1000
790271
1002
}
  0
LINE
  5
109
330
87
100
AcDbEntity
  8
M-PIPE
100
AcDbLine
 10
810.2104473993581
 20
2036.757499999994
 30
0.0
 11
806.8664074431993
 21
2036.757499999994
 31
0.0
1001
REVIT
1002
{
1070
     3
1000
790271
1002
}
  0
LINE
  5
10A
330
87
100
AcDbEntity
  8
M-PIPE
100
AcDbLine
 10
806.8664074431991
 20
2019.757499999995
 30
0.0
 11
806.8664074431993
 21
2036.757499999994
 31
0.0
1001
REVIT
1002
{
1070
     3
1000
790271
1002
}
  0
LINE
  5
10B
330
87
100
AcDbEntity
  8
M-PIPE
100
AcDbLine
 10
821.1223674870421
 20
2036.757499999994
 30
0.0
 11
810.2104473993581
 21
2036.757499999994
 31
0.0
1001
REVIT
1002
{
1070
     3
1000
790271
1002
}
  0
LINE
  5
10C
330
87
100
AcDbEntity
  8
M-PIPE
100
AcDbLine
 10
824.4664074431998
 20
2036.757499999994
 30
0.0
 11
821.1223674870421
 21
2036.757499999994
 31
0.0
1001
REVIT
1002
{
1070
     3
1000
790271
1002
}
  0
LINE
  5
10D
330
87
100
AcDbEntity
  8
M-PIPE
100
AcDbLine
 10
852.0859853938125
 20
2036.757499999994
 30
0.0
 11
824.4664074431989
 21
2036.757499999994
 31
0.0
1001
REVIT
1002
{
1070
     3
1000
790271
1002
}
  0
LINE
  5
10E
330
87
100
AcDbEntity
  8
M-PIPE
100
AcDbLine
 10
824.4664074431993
 20
2019.757499999995
 30
0.0
 11
824.4664074431993
 21
2036.757499999994
 31
0.0
1001
REVIT
1002
{
1070
     3
1000
790271
1002
}
  0
LINE
  5
10F
330
87
100
AcDbEntity
  8
M-PIPE
100
AcDbLine
 10
858.5610575752923
 20
2036.757499999994
 30
0.0
 11
852.0859853938132
 21
2036.757499999994
 31
0.0
1001
REVIT
1002
{
1070
     3
1000
790271
1002
}
  0
LINE
  5
110
330
87
100
AcDbEntity
  8
M-PIPE
100
AcDbLine
 10
852.085985393813
 20
2019.757499999995
 30
0.0
 11
852.0859853938132
 21
2036.757499999994
 31
0.0
1001
REVIT
1002
{
1070
     3
1000
790271
1002
}
  0
LINE
  5
111
330
87
100
AcDbEntity
  8
M-PIPE
100
AcDbLine
 10
866.4916175594381
 20
2036.757499999994
 30
0.0
 11
858.5610575752923
 21
2036.757499999994
 31
0.0
1001
REVIT
1002
{
1070
     3
1000
790271
1002
}
  0
LINE
  5
112
330
87
100
AcDbEntity
  8
M-PIPE
100
AcDbLine
 10
876.0258710495479
 20
2036.757499999994
 30
0.0
 11
866.5290171339973
 21
2036.757499999994
 31
0.0
1001
REVIT
1002
{
1070
     3
1000
790271
1002
}
  0
LINE
  5
113
330
87
100
AcDbEntity
  8
M-PIPE
100
AcDbLine
 10
881.8224246024845
 20
2036.757499999994
 30
0.0
 11
876.0258710495481
 21
2036.757499999994
 31
0.0
1001
REVIT
1002
{
1070
     3
1000
790271
1002
}
  0
LINE
  5
114
330
87
100
AcDbEntity
  8
M-PIPE
100
AcDbLine
 10
876.0258710495479
 20
2019.757499999995
 30
0.0
 11
876.0258710495481
 21
2036.757499999994
 31
0.0
1001
REVIT
1002
{
1070
     3
1000
790271
1002
}
  0
LINE
  5
115
330
87
100
AcDbEntity
  8
M-PIPE
100
AcDbLine
 10
884.9724246024846
 20
2036.757499999994
 30
0.0
 11
881.8224246024847
 21
2036.757499999994
 31
0.0
1001
REVIT
1002
{
1070
     3
1000
790271
1002
}
  0
LINE
  5
116
330
87
100
AcDbEntity
  8
M-PIPE
100
AcDbLine
 10
873.1703630683169
 20
2039.257499999994
 30
0.0
 11
758.1624518180589
 21
2039.257499999996
 31
0.0
1001
REVIT
1002
{
1070
     3
1000
790271
1002
}
  0
LINE
  5
117
330
87
100
AcDbEntity
  8
M-PIPE
100
AcDbLine
 10
852.1664074431882
 20
2059.607499999995
 30
0.0
 11
852.1664074431882
 21
2045.607499999995
 31
0.0
1001
REVIT
1002
{
1070
     3
1000
790271
1002
}
  0
SPLINE
  5
118
330
87
100
AcDbEntity
  8
M-PIPE
100
AcDbSpline
210
0.0
220
0.0
230
1.0
 70
     8
 71
     3
 72
    17
 73
    13
 74
     0
 42
0.000000001
 43
0.0000000001
 40
0.0
 40
0.0
 40
0.0
 40
0.0
 40
0.1428571428571428
 40
0.2857142857142857
 40
0.3571428571428571
 40
0.4285714285714286
 40
0.5
 40
0.5714285714285714
 40
0.6428571428571428
 40
0.7142857142857144
 40
0.8571428571428571
 40
1.0
 40
1.0
 40
1.0
 40
1.0
 10
842.7772908666401
 20
2052.607499999995
 30
0.0
 10
842.7521770481227
 20
2052.083329510673
 30
0.0
 10
842.7293145635836
 20
2051.035165343435
 30
0.0
 10
842.7762622659338
 20
2049.789486792297
 30
0.0
 10
842.8463326444164
 20
2048.872334212015
 30
0.0
 10
842.9102338432683
 20
2048.231745215822
 30
0.0
 10
842.9820552697396
 20
2047.646745179318
 30
0.0
 10
843.0567544783082
 20
2047.123894076413
 30
0.0
 10
843.1292269917967
 20
2046.66952028763
 30
0.0
 10
843.2183887342677
 20
2046.162481934763
 30
0.0
 10
843.3041801270983
 20
2045.726208944919
 30
0.0
 10
843.3268498526649
 20
2045.607499999995
 30
0.0
 10
843.3282431919757
 20
2045.607499999995
 30
0.0
1001
REVIT
1002
{
1070
     3
1000
790271
1002
}
  0
LINE
  5
119
330
87
100
AcDbEntity
  8
M-PIPE
100
AcDbLine
 10
842.7772908666401
 20
2052.607499999994
 30
0.0
 11
787.6664074431881
 21
2052.607499999996
 31
0.0
1001
REVIT
1002
{
1070
     3
1000
790271
1002
}
  0
SPLINE
  5
11A
330
87
100
AcDbEntity
  8
M-PIPE
100
AcDbSpline
210
0.0
220
0.0
230
1.0
 70
     8
 71
     3
 72
    17
 73
    13
 74
     0
 42
0.000000001
 43
0.0000000001
 40
0.0
 40
0.0
 40
0.0
 40
0.0
 40
0.1428571428571428
 40
0.2857142857142857
 40
0.3571428571428571
 40
0.4285714285714286
 40
0.5
 40
0.5714285714285714
 40
0.6428571428571428
 40
0.7142857142857144
 40
0.8571428571428572
 40
1.0
 40
1.0
 40
1.0
 40
1.0
 10
843.3282431919804
 20
2059.607499999995
 30
0.0
 10
843.3268498526699
 20
2059.607499999995
 30
0.0
 10
843.3041801271032
 20
2059.488791055071
 30
0.0
 10
843.2183887342723
 20
2059.052518065226
 30
0.0
 10
843.129226991801
 20
2058.545479712359
 30
0.0
 10
843.0567544783121
 20
2058.091105923576
 30
0.0
 10
842.9820552697432
 20
2057.568254820672
 30
0.0
 10
842.9102338432715
 20
2056.983254784167
 30
0.0
 10
842.8463326444191
 20
2056.342665787974
 30
0.0
 10
842.7762622659358
 20
2055.425513207693
 30
0.0
 10
842.7293145635848
 20
2054.179834656554
 30
0.0
 10
842.7521770481231
 20
2053.131670489316
 30
0.0
 10
842.7772908666401
 20
2052.607499999995
 30
0.0
1001
REVIT
1002
{
1070
     3
1000
790271
1002
}
  0
LINE
  5
11B
330
87
100
AcDbEntity
  8
M-PIPE
100
AcDbLine
 10
843.1664074431882
 20
2062.957499999995
 30
0.0
 11
788.1664074431884
 21
2062.957499999996
 31
0.0
1001
REVIT
1002
{
1070
     3
1000
790271
1002
}
  0
LINE
  5
11C
330
87
100
AcDbEntity
  8
M-PIPE
100
AcDbLine
 10
791.6664074431885
 20
2070.457499999932
 30
0.0
 11
839.6664074431882
 21
2070.457499999932
 31
0.0
1001
REVIT
1002
{
1070
     3
1000
790271
1002
}
  0
LINE
  5
11D
330
87
100
AcDbEntity
  8
M-PIPE
100
AcDbLine
 10
843.1664074431882
 20
2066.957499999932
 30
0.0
 11
788.1664074431884
 21
2066.957499999933
 31
0.0
1001
REVIT
1002
{
1070
     3
1000
790271
1002
}
  0
LINE
  5
11E
330
87
100
AcDbEntity
  8
M-PIPE
100
AcDbLine
 10
839.6664074431885
 20
2082.857499999932
 30
0.0
 11
791.6664074431886
 21
2082.857499999932
 31
0.0
1001
REVIT
1002
{
1070
     3
1000
790271
1002
}
  0
LINE
  5
11F
330
87
100
AcDbEntity
  8
P-SANR-FIXT
100
AcDbLine
 10
839.1664074431893
 20
1993.358376766141
 30
0.0
 11
839.1664074431893
 21
2008.637499999998
 31
0.0
  0
LINE
  5
120
330
87
100
AcDbEntity
  8
P-SANR-FIXT
100
AcDbLine
 10
792.1664074431892
 20
2008.637499999998
 30
0.0
 11
792.1664074431892
 21
1994.358376766141
 31
0.0
  0
LINE
  5
121
330
87
100
AcDbEntity
  8
P-SANR-FIXT
100
AcDbLine
 10
839.1664074431893
 20
2008.637499999998
 30
0.0
 11
839.9104222634425
 21
2009.926171470261
 31
0.0
  0
LINE
  5
122
330
87
100
AcDbEntity
  8
P-SANR-FIXT
100
AcDbLine
 10
791.422392622936
 20
2009.926171470261
 30
0.0
 11
792.1664074431892
 21
2008.637499999998
 31
0.0
  0
LINE
  5
123
330
87
100
AcDbEntity
  8
P-SANR-FIXT
100
AcDbLine
 10
839.9104222634424
 20
2009.926171470261
 30
0.0
 11
839.9104222634424
 21
2014.257499999998
 31
0.0
  0
LINE
  5
124
330
87
100
AcDbEntity
  8
P-SANR-FIXT
100
AcDbLine
 10
791.4223926229362
 20
2014.257499999998
 30
0.0
 11
791.4223926229362
 21
2009.926171470261
 31
0.0
  0
LINE
  5
125
330
87
100
AcDbEntity
  8
P-SANR-FIXT
100
AcDbLine
 10
848.1664074431892
 20
1943.508376766141
 30
0.0
 11
863.1664074431894
 21
1943.508376766141
 31
0.0
  0
LINE
  5
126
330
87
100
AcDbEntity
  8
P-SANR-FIXT
100
AcDbLine
 10
814.4051849123247
 20
1948.358376766141
 30
0.0
 11
848.1664074431892
 21
1948.358376766141
 31
0.0
  0
LINE
  5
127
330
87
100
AcDbEntity
  8
P-SANR-FIXT
100
AcDbLine
 10
848.1664074431892
 20
1993.358376766141
 30
0.0
 11
839.1664074431893
 21
1993.358376766141
 31
0.0
  0
LWPOLYLINE
  5
128
330
87
100
AcDbEntity
  8
P-SANR-FIXT
100
AcDbPolyline
 90
       25
 70
   128
 43
0.0
 10
814.4051849123247
 20
1948.358376766141
 10
813.5054248931254
 20
1948.376374366269
 10
812.6071042980182
 20
1948.430338374332
 10
811.7116602483241
 20
1948.520182459429
 10
810.8205252635041
 20
1948.645762890189
 10
809.9351249694358
 20
1948.806878764713
 10
809.0568758177141
 20
1949.00327233197
 10
808.1871828196319
 20
1949.234629404149
 10
807.3274372984618
 20
1949.500579859286
 10
806.4790146636351
 20
1949.800698233387
 10
805.6432722103799
 20
1950.134504401076
 10
804.8215469483395
 20
1950.501464343691
 10
804.0151534626412
 20
1950.900991003607
 10
803.2253818108406
 20
1951.332445223394
 10
802.4534954591045
 20
1951.795136768339
 10
801.7007292609362
 20
1952.288325430673
 10
800.9682874816707
 20
1952.811222213744
 10
800.2573418719091
 20
1953.362990594245
 10
799.5690297929663
 20
1953.942747860471
 10
798.9044523973372
 20
1954.54956652447
 10
798.2646728670853
 20
1955.18247580583
 10
797.6507147129803
 20
1955.840463184711
 10
797.0635601370977
 20
1956.522476021673
 10
796.5041484615063
 20
1957.227423241663
 10
796.2190576252281
 20
1957.610177858458
  0
LWPOLYLINE
  5
129
330
87
100
AcDbEntity
  8
P-SANR-FIXT
100
AcDbPolyline
 90
       41
 70
   128
 43
0.0
 10
796.2190576252279
 20
1949.358376766141
 10
796.2174578385498
 20
1949.278398097767
 10
796.2126610378332
 20
1949.198547378202
 10
796.2046748969356
 20
1949.118952351563
 10
796.1935121919793
 20
1949.039740352912
 10
796.1791907809104
 20
1948.961038104551
 10
796.1617335749321
 20
1948.882971513286
 10
796.1411685018495
 20
1948.805665469012
 10
796.1175284613929
 20
1948.729243644908
 10
796.0908512725837
 20
1948.653828299591
 10
796.0611796132337
 20
1948.579540081524
 10
796.0285609516676
 20
1948.506497836009
 10
795.9930474707865
 20
1948.434818415057
 10
795.9546959845832
 20
1948.364616490453
 10
795.9135678472547
 20
1948.296004370299
 10
795.8697288550472
 20
1948.22909181935
 10
795.8232491409966
 20
1948.163985883416
 10
795.7742030627298
 20
1948.100790718104
 10
795.7226690835097
 20
1948.039607422198
 10
795.6687296467097
 20
1947.98053387592
 10
795.6124710439222
 20
1947.923664584342
 10
795.5539832769106
 20
1947.869090526199
 10
795.4933599136251
 20
1947.816899008343
 10
795.4306979385148
 20
1947.767173526068
 10
795.3660975973729
 20
1947.719993629539
 10
795.2996622369643
 20
1947.675434796525
 10
795.2314981396936
 20
1947.633568311654
 10
795.1617143535754
 20
1947.594461152371
 10
795.0904225177813
 20
1947.558175881788
 10
795.0177366840405
 20
1947.524770548597
 10
794.9437731341813
 20
1947.494298594206
 10
794.8686501941056
 20
1947.466808767242
 10
794.7924880444918
 20
1947.442345045562
 10
794.7154085285327
 20
1947.420946565904
 10
794.6375349570107
 20
1947.40264756127
 10
794.5589919110283
 20
1947.387477306164
 10
794.4799050427043
 20
1947.375460069757
 10
794.4004008741567
 20
1947.366615077065
 10
794.3206065950952
 20
1947.360956478189
 10
794.2406498593445
 20
1947.358493325681
 10
794.219057625228
 20
1947.35837676614
  0
LWPOLYLINE
  5
12A
330
87
100
AcDbEntity
  8
P-SANR-FIXT
100
AcDbPolyline
 90
        4
 70
   128
 43
0.0
 10
796.2190576252279
 20
1949.448097336756
 10
796.2190576252279
 20
1949.400685541303
 10
796.2190576252281
 20
1949.363938097981
 10
796.2190576252279
 20
1949.358376766141
  0
LWPOLYLINE
  5
12B
330
87
100
AcDbEntity
  8
P-SANR-FIXT
100
AcDbPolyline
 90
       36
 70
   128
 43
0.0
 10
796.2190576252279
 20
1949.358376766141
 10
796.2190576252279
 20
1949.37557447293
 10
796.2190576252279
 20
1949.427140080634
 10
796.2190576252279
 20
1949.512991095283
 10
796.2190576252279
 20
1949.632990173565
 10
796.2190576252279
 20
1949.786945342554
 10
796.2190576252279
 20
1949.974610306822
 10
796.2190576252279
 20
1950.195684842459
 10
796.2190576252279
 20
1950.449815277368
 10
796.2190576252279
 20
1950.736595057065
 10
796.2190576252279
 20
1951.055565395079
 10
796.2190576252279
 20
1951.406216006911
 10
796.2190576252279
 20
1951.787985926386
 10
796.2190576252279
 20
1952.200264403071
 10
796.2190576252281
 20
1952.642391879352
 10
796.2190576252281
 20
1953.113661045582
 10
796.2190576252281
 20
1953.613317971628
 10
796.2190576252281
 20
1954.140563312996
 10
796.2190576252281
 20
1954.694553589612
 10
796.2190576252281
 20
1955.274402535211
 10
796.2190576252281
 20
1955.879182515177
 10
796.2190576252281
 20
1956.507926010553
 10
796.2190576252281
 20
1957.159627165871
 10
796.2190576252281
 20
1957.833243398306
 10
796.2190576252281
 20
1958.527697065583
 10
796.2190576252281
 20
1959.241877189975
 10
796.2190576252281
 20
1959.974641235636
 10
796.2190576252281
 20
1960.724816936405
 10
796.2190576252281
 20
1961.491204171191
 10
796.2190576252281
 20
1962.272576883906
 10
796.2190576252281
 20
1963.067685044892
 10
796.2190576252281
 20
1963.875256650707
 10
796.2190576252281
 20
1964.693999759053
 10
796.2190576252279
 20
1965.522604555615
 10
796.2190576252279
 20
1966.359745449475
 10
796.2190576252279
 20
1966.839070228228
  0
LWPOLYLINE
  5
12C
330
87
100
AcDbEntity
  8
P-SANR-FIXT
100
AcDbPolyline
 90
       20
 70
   128
 43
0.0
 10
796.2190576252279
 20
1974.877683304054
 10
796.2190576252279
 20
1975.719081627016
 10
796.2190576252279
 20
1976.552703859097
 10
796.2190576252281
 20
1977.377216382554
 10
796.2190576252281
 20
1978.191300153235
 10
796.2190576252281
 20
1978.993652810771
 10
796.2190576252281
 20
1979.782990762069
 10
796.2190576252281
 20
1980.55805123479
 10
796.2190576252281
 20
1981.317594297514
 10
796.2190576252281
 20
1982.060404843368
 10
796.2190576252281
 20
1982.785294533938
 10
796.2190576252281
 20
1983.491103700352
 10
796.2190576252281
 20
1984.17670319851
 10
796.2190576252281
 20
1984.840996215467
 10
796.2190576252282
 20
1985.482920024105
 10
796.2190576252282
 20
1986.101447683267
 10
796.2190576252282
 20
1986.695589680643
 10
796.2190576252282
 20
1987.264395515781
 10
796.2190576252282
 20
1987.806955220684
 10
796.2190576252282
 20
1987.834813817011
  0
LINE
  5
12D
330
87
100
AcDbEntity
  8
P-SANR-FIXT
100
AcDbLine
 10
783.166407443189
 20
1947.35837676614
 30
0.0
 11
794.219057625228
 21
1947.35837676614
 31
0.0
  0
LINE
  5
12E
330
87
100
AcDbEntity
  8
P-SANR-FIXT
100
AcDbLine
 10
792.1664074431892
 20
1994.358376766141
 30
0.0
 11
783.1664074431892
 21
1994.358376766141
 31
0.0
  0
LINE
  5
12F
330
87
100
AcDbEntity
  8
P-SANR-FIXT
100
AcDbLine
 10
768.1664074431889
 20
1943.508376766141
 30
0.0
 11
783.166407443189
 21
1943.508376766141
 31
0.0
  0
LINE
  5
130
330
87
100
AcDbEntity
  8
P-SANR-FIXT
100
AcDbLine
 10
864.5712619564504
 20
2014.257499999998
 30
0.0
 11
873.1703630683155
 21
2017.257499999999
 31
0.0
  0
LINE
  5
131
330
87
100
AcDbEntity
  8
P-SANR-FIXT
100
AcDbLine
 10
758.1624518180631
 20
2017.257499999999
 30
0.0
 11
766.7615529299283
 21
2014.257499999998
 31
0.0
  0
LINE
  5
132
330
87
100
AcDbEntity
  8
P-SANR-FIXT
100
AcDbLine
 10
873.1703630683155
 20
2017.257499999999
 30
0.0
 11
873.1703630683155
 21
2019.757499999996
 31
0.0
  0
LINE
  5
133
330
87
100
AcDbEntity
  8
P-SANR-FIXT
100
AcDbLine
 10
758.1624518180631
 20
2019.757499999996
 30
0.0
 11
758.1624518180631
 21
2017.257499999999
 31
0.0
  0
LINE
  5
134
330
87
100
AcDbEntity
  8
P-SANR-FIXT
100
AcDbLine
 10
848.1664074431877
 20
1978.341691539688
 30
0.0
 11
848.1664074431877
 21
1983.014548038379
 31
0.0
  0
LINE
  5
135
330
87
100
AcDbEntity
  8
P-SANR-FIXT
100
AcDbLine
 10
848.1664074431877
 20
1983.014548038379
 30
0.0
 11
848.1664074431877
 21
1985.870002797536
 31
0.0
  0
LINE
  5
136
330
87
100
AcDbEntity
  8
P-SANR-FIXT
100
AcDbLine
 10
848.1664074431877
 20
1985.870002797536
 30
0.0
 11
848.1664074431877
 21
1998.163310669396
 31
0.0
  0
LINE
  5
137
330
87
100
AcDbEntity
  8
P-SANR-FIXT
100
AcDbLine
 10
848.1664074431877
 20
1998.163310669396
 30
0.0
 11
848.1664074431877
 21
1998.20837676614
 31
0.0
  0
LINE
  5
138
330
87
100
AcDbEntity
  8
P-SANR-FIXT
100
AcDbLine
 10
848.1664074431877
 20
1943.50837676614
 30
0.0
 11
848.1664074431877
 21
1943.572872382575
 31
0.0
  0
LINE
  5
139
330
87
100
AcDbEntity
  8
P-SANR-FIXT
100
AcDbLine
 10
848.1664074431877
 20
1943.572872382575
 30
0.0
 11
848.1664074431877
 21
1955.589951513482
 31
0.0
  0
LINE
  5
13A
330
87
100
AcDbEntity
  8
P-SANR-FIXT
100
AcDbLine
 10
848.1664074431877
 20
1955.589951513482
 30
0.0
 11
848.1664074431877
 21
1958.702205493901
 31
0.0
  0
LINE
  5
13B
330
87
100
AcDbEntity
  8
P-SANR-FIXT
100
AcDbLine
 10
848.1664074431877
 20
1958.702205493901
 30
0.0
 11
848.1664074431877
 21
1963.375061992592
 31
0.0
  0
ARC
  5
13C
330
87
100
AcDbEntity
  8
P-SANR-FIXT
100
AcDbCircle
 10
788.1664074431877
 20
1970.85837676614
 30
0.0
 40
9.0
100
AcDbArc
 50
180.0
 51
0.0
  0
ARC
  5
13D
330
87
100
AcDbEntity
  8
P-SANR-FIXT
100
AcDbCircle
 10
788.1664074431877
 20
1970.85837676614
 30
0.0
 40
9.0
100
AcDbArc
 50
0.0
 51
180.0
  0
ARC
  5
13E
330
87
100
AcDbEntity
  8
P-SANR-FIXT
100
AcDbCircle
 10
843.1664074431875
 20
1970.85837676614
 30
0.0
 40
8.999999999999886
100
AcDbArc
 50
180.0
 51
0.0
  0
ARC
  5
13F
330
87
100
AcDbEntity
  8
P-SANR-FIXT
100
AcDbCircle
 10
843.1664074431875
 20
1970.85837676614
 30
0.0
 40
9.0
100
AcDbArc
 50
0.0
 51
180.0
  0
SPLINE
  5
140
330
87
100
AcDbEntity
  8
P-SANR-FIXT
100
AcDbSpline
210
0.0
220
0.0
230
1.0
 70
     8
 71
     3
 72
     9
 73
     5
 74
     0
 42
0.000000001
 43
0.0000000001
 40
0.0
 40
0.0
 40
0.0
 40
0.0
 40
0.5
 40
1.0
 40
1.0
 40
1.0
 40
1.0
 10
792.1664074431878
 20
1994.35837676614
 30
0.0
 10
792.1664074431877
 20
1994.339177496634
 30
0.0
 10
792.5461652048078
 20
1993.977869863455
 30
0.0
 10
793.5747377190219
 20
1992.970744041942
 30
0.0
 10
794.2190576252264
 20
1992.305726584101
 30
0.0
  0
SPLINE
  5
141
330
87
100
AcDbEntity
  8
P-SANR-FIXT
100
AcDbSpline
210
0.0
220
0.0
230
1.0
 70
     8
 71
     3
 72
    21
 73
    17
 74
     0
 42
0.000000001
 43
0.0000000001
 40
0.0
 40
0.0
 40
0.0
 40
0.0
 40
0.2857142857142857
 40
0.4285714285714286
 40
0.5
 40
0.5714285714285714
 40
0.625
 40
0.6785714285714287
 40
0.7053571428571429
 40
0.7321428571428572
 40
0.7857142857142857
 40
0.8392857142857142
 40
0.8660714285714284
 40
0.8928571428571427
 40
0.9464285714285713
 40
1.0
 40
1.0
 40
1.0
 40
1.0
 10
794.2190576252264
 20
1992.305726584101
 30
0.0
 10
794.4496084568613
 20
1992.076966744643
 30
0.0
 10
794.8082600546606
 20
1991.651721883485
 30
0.0
 10
795.2195428621498
 20
1991.007856999506
 30
0.0
 10
795.4449923297138
 20
1990.596561728945
 30
0.0
 10
795.5932404058497
 20
1990.293968361969
 30
0.0
 10
795.7210589221797
 20
1990.002848185093
 30
0.0
 10
795.8124899447291
 20
1989.774296166135
 30
0.0
 10
795.8804378525544
 20
1989.585355745379
 30
0.0
 10
795.9446820270767
 20
1989.392294490311
 30
0.0
 10
796.0223659620639
 20
1989.142629809381
 30
0.0
 10
796.0888164563811
 20
1988.883391924372
 30
0.0
 10
796.1306559374654
 20
1988.671181197645
 30
0.0
 10
796.1663488266192
 20
1988.455442824916
 30
0.0
 10
796.1999181416127
 20
1988.179034216188
 30
0.0
 10
796.2146983477753
 20
1987.950748522267
 30
0.0
 10
796.2190576252265
 20
1987.83481381701
 30
0.0
  0
SPLINE
  5
142
330
87
100
AcDbEntity
  8
P-SANR-FIXT
100
AcDbSpline
210
0.0
220
0.0
230
1.0
 70
     8
 71
     3
 72
     8
 73
     4
 74
     0
 42
0.000000001
 43
0.0000000001
 40
-0.75
 40
-0.75
 40
-0.75
 40
-0.75
 40
-0.7348911038789402
 40
-0.7348911038789402
 40
-0.7348911038789402
 40
-0.7348911038789402
 10
797.0925983881145
 20
1971.968821791009
 30
0.0
 10
797.0899589539789
 20
1971.99048268803
 30
0.0
 10
797.0873113432137
 20
1972.012142721568
 30
0.0
 10
797.0846447065634
 20
1972.033794276828
 30
0.0
  0
SPLINE
  5
143
330
87
100
AcDbEntity
  8
P-SANR-FIXT
100
AcDbSpline
210
0.0
220
0.0
230
1.0
 70
     8
 71
     3
 72
     8
 73
     4
 74
     0
 42
0.000000001
 43
0.0000000001
 40
-0.5
 40
-0.5
 40
-0.5
 40
-0.5
 40
-0.4537660558929739
 40
-0.4537660558929739
 40
-0.4537660558929739
 40
-0.4537660558929739
 10
796.9057120652366
 20
1973.008854555618
 30
0.0
 10
796.8907890258906
 20
1973.070797353559
 30
0.0
 10
796.8742483915895
 20
1973.13161028479
 30
0.0
 10
796.8563787899443
 20
1973.191495438509
 30
0.0
  0
SPLINE
  5
144
330
87
100
AcDbEntity
  8
P-SANR-FIXT
100
AcDbSpline
210
0.0
220
0.0
230
1.0
 70
     8
 71
     3
 72
     8
 73
     4
 74
     0
 42
0.000000001
 43
0.0000000001
 40
-0.25
 40
-0.25
 40
-0.25
 40
-0.25
 40
-0.1594995513026073
 40
-0.1594995513026073
 40
-0.1594995513026073
 40
-0.1594995513026073
 10
796.6110607535719
 20
1973.978475059966
 30
0.0
 10
796.5693973291743
 20
1974.091228286814
 30
0.0
 10
796.5231163991754
 20
1974.200481336269
 30
0.0
 10
796.4750158945244
 20
1974.308365289118
 30
0.0
  0
LINE
  5
145
330
87
100
AcDbEntity
  8
P-SANR-FIXT
100
AcDbLine
 10
797.1664074431877
 20
1970.85837676614
 30
0.0
 11
822.4487374263123
 21
1970.85837676614
 31
0.0
  0
SPLINE
  5
146
330
87
100
AcDbEntity
  8
P-SANR-FIXT
100
AcDbSpline
210
0.0
220
0.0
230
1.0
 70
     8
 71
     3
 72
    33
 73
    29
 74
     0
 42
0.000000001
 43
0.0000000001
 40
0.0
 40
0.0
 40
0.0
 40
0.0
 40
0.0714285714285714
 40
0.1071428571428571
 40
0.125
 40
0.1428571428571428
 40
0.1607142857142857
 40
0.1785714285714286
 40
0.2142857142857143
 40
0.25
 40
0.2678571428571428
 40
0.2857142857142857
 40
0.3035714285714286
 40
0.3214285714285714
 40
0.3571428571428571
 40
0.4285714285714286
 40
0.5
 40
0.5714285714285714
 40
0.6071428571428572
 40
0.6428571428571428
 40
0.6785714285714287
 40
0.7142857142857144
 40
0.75
 40
0.7857142857142857
 40
0.8214285714285713
 40
0.8571428571428571
 40
0.9285714285714286
 40
1.0
 40
1.0
 40
1.0
 40
1.0
 10
822.4487374263123
 20
1970.85837676614
 30
0.0
 10
822.6221066710952
 20
1971.811938423391
 30
0.0
 10
822.9814147028994
 20
1973.187259073614
 30
0.0
 10
823.5677334639033
 20
1974.695801778382
 30
0.0
 10
823.9500841856131
 20
1975.530066555936
 30
0.0
 10
824.2575562734305
 20
1976.142797253444
 30
0.0
 10
824.5956980623891
 20
1976.738829455131
 30
0.0
 10
825.0920469489575
 20
1977.509262672372
 30
0.0
 10
825.7741560306397
 20
1978.434572598215
 30
0.0
 10
826.4944583825242
 20
1979.323944541525
 30
0.0
 10
827.0687500032025
 20
1980.022451529707
 30
0.0
 10
827.4898590387754
 20
1980.543051666068
 30
0.0
 10
827.9064421666952
 20
1981.058460792776
 30
0.0
 10
828.4687132748139
 20
1981.733496859246
 30
0.0
 10
829.457593706204
 20
1982.887815675892
 30
0.0
 10
830.86162892164
 20
1984.457871790923
 30
0.0
 10
832.478242757312
 20
1986.254323726902
 30
0.0
 10
833.7583205704996
 20
1987.634853185804
 30
0.0
 10
834.7222444712976
 20
1988.661873558701
 30
0.0
 10
835.4099164884106
 20
1989.403043392359
 30
0.0
 10
836.0576532589433
 20
1990.097303930616
 30
0.0
 10
836.6597564951598
 20
1990.726343431437
 30
0.0
 10
837.2128418489708
 20
1991.301261723874
 30
0.0
 10
837.7101439871124
 20
1991.830624101624
 30
0.0
 10
838.1436361337236
 20
1992.293056821986
 30
0.0
 10
838.6276390515448
 20
1992.795021277357
 30
0.0
 10
839.0476077432118
 20
1993.211411474267
 30
0.0
 10
839.1664074431878
 20
1993.344158684999
 30
0.0
 10
839.1664074431878
 20
1993.35837676614
 30
0.0
  0
LINE
  5
147
330
87
100
AcDbEntity
  8
P-SANR-FIXT
100
AcDbLine
 10
839.1664074431878
 20
2008.637499999997
 30
0.0
 11
792.1664074431878
 21
2008.637499999997
 31
0.0
  0
LINE
  5
148
330
87
100
AcDbEntity
  8
P-SANR-FIXT
100
AcDbLine
 10
839.9104222634409
 20
2009.92617147026
 30
0.0
 11
791.4223926229347
 21
2009.92617147026
 31
0.0
  0
LINE
  5
149
330
87
100
AcDbEntity
  8
P-SANR-FIXT
100
AcDbLine
 10
863.1664074431878
 20
1998.163310669396
 30
0.0
 11
863.1664074431878
 21
1985.870002797536
 31
0.0
  0
LINE
  5
14A
330
87
100
AcDbEntity
  8
P-SANR-FIXT
100
AcDbLine
 10
863.1664074431878
 20
1983.014548038379
 30
0.0
 11
863.1664074431878
 21
1958.702205493901
 31
0.0
  0
LINE
  5
14B
330
87
100
AcDbEntity
  8
P-SANR-FIXT
100
AcDbLine
 10
863.1664074431878
 20
1955.589951513482
 30
0.0
 11
863.1664074431878
 21
1943.572872382575
 31
0.0
  0
LINE
  5
14C
330
87
100
AcDbEntity
  8
P-SANR-FIXT
100
AcDbLine
 10
848.1664074431877
 20
1955.589951513482
 30
0.0
 11
863.1664074431878
 21
1955.589951513482
 31
0.0
  0
LINE
  5
14D
330
87
100
AcDbEntity
  8
P-SANR-FIXT
100
AcDbLine
 10
863.1664074431878
 20
1958.702205493901
 30
0.0
 11
863.1664074431878
 21
1955.589951513482
 31
0.0
  0
LINE
  5
14E
330
87
100
AcDbEntity
  8
P-SANR-FIXT
100
AcDbLine
 10
863.1664074431878
 20
1958.702205493901
 30
0.0
 11
848.1664074431877
 21
1958.702205493901
 31
0.0
  0
LINE
  5
14F
330
87
100
AcDbEntity
  8
P-SANR-FIXT
100
AcDbLine
 10
848.1664074431877
 20
1983.014548038379
 30
0.0
 11
863.1664074431878
 21
1983.014548038379
 31
0.0
  0
LINE
  5
150
330
87
100
AcDbEntity
  8
P-SANR-FIXT
100
AcDbLine
 10
863.1664074431878
 20
1985.870002797536
 30
0.0
 11
863.1664074431878
 21
1983.014548038379
 31
0.0
  0
LINE
  5
151
330
87
100
AcDbEntity
  8
P-SANR-FIXT
100
AcDbLine
 10
863.1664074431878
 20
1985.870002797536
 30
0.0
 11
848.1664074431877
 21
1985.870002797536
 31
0.0
  0
LINE
  5
152
330
87
100
AcDbEntity
  8
P-SANR-FIXT
100
AcDbLine
 10
848.1664074431877
 20
1998.163310669396
 30
0.0
 11
863.1664074431878
 21
1998.163310669396
 31
0.0
  0
LINE
  5
153
330
87
100
AcDbEntity
  8
P-SANR-FIXT
100
AcDbLine
 10
863.1664074431878
 20
1998.20837676614
 30
0.0
 11
863.1664074431878
 21
1998.163310669396
 31
0.0
  0
LINE
  5
154
330
87
100
AcDbEntity
  8
P-SANR-FIXT
100
AcDbLine
 10
863.1664074431878
 20
1943.572872382575
 30
0.0
 11
863.1664074431878
 21
1943.50837676614
 31
0.0
  0
LINE
  5
155
330
87
100
AcDbEntity
  8
P-SANR-FIXT
100
AcDbLine
 10
863.1664074431878
 20
1943.572872382575
 30
0.0
 11
848.1664074431877
 21
1943.572872382575
 31
0.0
  0
SPLINE
  5
156
330
87
100
AcDbEntity
  8
P-SANR-FIXT
100
AcDbSpline
210
0.0
220
0.0
230
1.0
 70
     8
 71
     3
 72
     8
 73
     4
 74
     0
 42
0.000000001
 43
0.0000000001
 40
0.0
 40
0.0
 40
0.0
 40
0.0
 40
0.0555555555555556
 40
0.0555555555555556
 40
0.0555555555555556
 40
0.0555555555555556
 10
848.1664074431876
 20
1963.375061992592
 30
0.0
 10
847.8639367841786
 20
1963.172283592435
 30
0.0
 10
847.5540795884182
 20
1962.990744590561
 30
0.0
 10
847.2356216184117
 20
1962.829323661035
 30
0.0
  0
SPLINE
  5
157
330
87
100
AcDbEntity
  8
P-SANR-FIXT
100
AcDbSpline
210
0.0
220
0.0
230
1.0
 70
     8
 71
     3
 72
     8
 73
     4
 74
     0
 42
0.000000001
 43
0.0000000001
 40
0.0908646213258324
 40
0.0908646213258324
 40
0.0908646213258324
 40
0.0908646213258324
 40
0.1111111111111111
 40
0.1111111111111111
 40
0.1111111111111111
 40
0.1111111111111111
 10
846.6176867987766
 20
1962.545635699844
 30
0.0
 10
846.4974659734423
 20
1962.49596250031
 30
0.0
 10
846.3760098157038
 20
1962.44888051034
 30
0.0
 10
846.2532311481574
 20
1962.404293763565
 30
0.0
  0
SPLINE
  5
158
330
87
100
AcDbEntity
  8
P-SANR-FIXT
100
AcDbSpline
210
0.0
220
0.0
230
1.0
 70
     8
 71
     3
 72
     8
 73
     4
 74
     0
 42
0.000000001
 43
0.0000000001
 40
0.1516438169375045
 40
0.1516438169375045
 40
0.1516438169375045
 40
0.1516438169375045
 40
0.1666666666666666
 40
0.1666666666666666
 40
0.1666666666666666
 40
0.1666666666666666
 10
845.5016343865644
 20
1962.16756801126
 30
0.0
 10
845.4071914611592
 20
1962.142227159888
 30
0.0
 10
845.3122099585138
 20
1962.118343413473
 30
0.0
 10
845.2167716232969
 20
1962.095961762368
 30
0.0
  0
SPLINE
  5
159
330
87
100
AcDbEntity
  8
P-SANR-FIXT
100
AcDbSpline
210
0.0
220
0.0
230
1.0
 70
     8
 71
     3
 72
     8
 73
     4
 74
     0
 42
0.000000001
 43
0.0000000001
 40
0.2119687920819541
 40
0.2119687920819541
 40
0.2119687920819541
 40
0.2119687920819541
 40
0.2222222222222222
 40
0.2222222222222222
 40
0.2222222222222222
 40
0.2222222222222222
 10
844.343260840116
 20
1961.935832438149
 30
0.0
 10
844.2767253830515
 20
1961.92698855247
 30
0.0
 10
844.210070444944
 20
1961.918881469523
 30
0.0
 10
844.1433501711761
 20
1961.911557057091
 30
0.0
  0
SPLINE
  5
15A
330
87
100
AcDbEntity
  8
P-SANR-FIXT
100
AcDbSpline
210
0.0
220
0.0
230
1.0
 70
     8
 71
     3
 72
     8
 73
     4
 74
     0
 42
0.000000001
 43
0.0000000001
 40
0.2720630357616834
 40
0.2720630357616834
 40
0.2720630357616834
 40
0.2720630357616834
 40
0.2777777777777778
 40
0.2777777777777778
 40
0.2777777777777778
 40
0.2777777777777778
 10
843.1662751203454
 20
1961.858209190792
 30
0.0
 10
843.1288618506014
 20
1961.858213821778
 30
0.0
 10
843.0914588116433
 20
1961.858460920419
 30
0.0
 10
843.054066773929
 20
1961.858947753965
 30
0.0
  0
SPLINE
  5
15B
330
87
100
AcDbEntity
  8
P-SANR-FIXT
100
AcDbSpline
210
0.0
220
0.0
230
1.0
 70
     8
 71
     3
 72
     8
 73
     4
 74
     0
 42
0.000000001
 43
0.0000000001
 40
0.332091803127433
 40
0.332091803127433
 40
0.332091803127433
 40
0.332091803127433
 40
0.3333333333333333
 40
0.3333333333333333
 40
0.3333333333333333
 40
0.3333333333333333
 10
841.991506700686
 20
1961.935388578777
 30
0.0
 10
841.9834626768542
 20
1961.936449742989
 30
0.0
 10
841.9754209139846
 20
1961.937522338294
 30
0.0
 10
841.9673796733485
 20
1961.938604773137
 30
0.0
  0
SPLINE
  5
15C
330
87
100
AcDbEntity
  8
P-SANR-FIXT
100
AcDbSpline
210
0.0
220
0.0
230
1.0
 70
     8
 71
     3
 72
     8
 73
     4
 74
     0
 42
0.000000001
 43
0.0000000001
 40
0.3888888888888889
 40
0.3888888888888889
 40
0.3888888888888889
 40
0.3888888888888889
 40
0.3923760438289073
 40
0.3923760438289073
 40
0.3923760438289073
 40
0.3923760438289073
 10
840.9011105857391
 20
1962.148390582861
 30
0.0
 10
840.8791365052159
 20
1962.15410519212
 30
0.0
 10
840.8571767515788
 20
1962.159893227621
 30
0.0
 10
840.8352340248582
 20
1962.165756000593
 30
0.0
  0
SPLINE
  5
15D
330
87
100
AcDbEntity
  8
P-SANR-FIXT
100
AcDbSpline
210
0.0
220
0.0
230
1.0
 70
     8
 71
     3
 72
     8
 73
     4
 74
     0
 42
0.000000001
 43
0.0000000001
 40
0.4444444444444445
 40
0.4444444444444445
 40
0.4444444444444445
 40
0.4444444444444445
 40
0.4530134305777379
 40
0.4530134305777379
 40
0.4530134305777379
 40
0.4530134305777379
 10
839.8726982772947
 20
1962.482728735659
 30
0.0
 10
839.8210947999704
 20
1962.503010756026
 30
0.0
 10
839.7698530902696
 20
1962.523861660178
 30
0.0
 10
839.7189658159579
 20
1962.545267321447
 30
0.0
  0
SPLINE
  5
15E
330
87
100
AcDbEntity
  8
P-SANR-FIXT
100
AcDbSpline
210
0.0
220
0.0
230
1.0
 70
     8
 71
     3
 72
     8
 73
     4
 74
     0
 42
0.000000001
 43
0.0000000001
 40
0.5000000000000001
 40
0.5000000000000001
 40
0.5000000000000001
 40
0.5000000000000001
 40
0.5140789151139462
 40
0.5140789151139462
 40
0.5140789151139462
 40
0.5140789151139462
 10
838.8982360684016
 20
1962.934977105554
 30
0.0
 10
838.8185237933429
 20
1962.977948164542
 30
0.0
 10
838.7399166960427
 20
1963.022354520278
 30
0.0
 10
838.6623627120602
 20
1963.068126201855
 30
0.0
  0
SPLINE
  5
15F
330
87
100
AcDbEntity
  8
P-SANR-FIXT
100
AcDbSpline
210
0.0
220
0.0
230
1.0
 70
     8
 71
     3
 72
     8
 73
     4
 74
     0
 42
0.000000001
 43
0.0000000001
 40
0.5555555555555558
 40
0.5555555555555558
 40
0.5555555555555558
 40
0.5555555555555558
 40
0.5754179159806139
 40
0.5754179159806139
 40
0.5754179159806139
 40
0.5754179159806139
 10
837.9886269309283
 20
1963.497476628198
 30
0.0
 10
837.8844710001867
 20
1963.570767228551
 30
0.0
 10
837.782775737233
 20
1963.646713483162
 30
0.0
 10
837.6833016752456
 20
1963.725085126155
 30
0.0
  0
SPLINE
  5
160
330
87
100
AcDbEntity
  8
P-SANR-FIXT
100
AcDbSpline
210
0.0
220
0.0
230
1.0
 70
     8
 71
     3
 72
     8
 73
     4
 74
     0
 42
0.000000001
 43
0.0000000001
 40
0.6111111111111113
 40
0.6111111111111113
 40
0.6111111111111113
 40
0.6111111111111113
 40
0.7222222222222223
 40
0.7222222222222223
 40
0.7222222222222223
 40
0.7222222222222223
 10
837.1534762496134
 20
1964.162314004643
 30
0.0
 10
836.6236631440651
 20
1964.63789302933
 30
0.0
 10
836.1735032322791
 20
1965.185136169047
 30
0.0
 10
835.7449717944156
 20
1965.767349123155
 30
0.0
  0
SPLINE
  5
161
330
87
100
AcDbEntity
  8
P-SANR-FIXT
100
AcDbSpline
210
0.0
220
0.0
230
1.0
 70
     8
 71
     3
 72
     8
 73
     4
 74
     0
 42
0.000000001
 43
0.0000000001
 40
0.7579511694842643
 40
0.7579511694842643
 40
0.7579511694842643
 40
0.7579511694842643
 40
0.7777777777777781
 40
0.7777777777777781
 40
0.7777777777777781
 40
0.7777777777777781
 10
835.3761181328504
 20
1966.352889386817
 30
0.0
 10
835.3119920580668
 20
1966.463919641818
 30
0.0
 10
835.2477762772712
 20
1966.575638895658
 30
0.0
 10
835.1849288485748
 20
1966.688343315516
 30
0.0
  0
SPLINE
  5
162
330
87
100
AcDbEntity
  8
P-SANR-FIXT
100
AcDbSpline
210
0.0
220
0.0
230
1.0
 70
     8
 71
     3
 72
     8
 73
     4
 74
     0
 42
0.000000001
 43
0.0000000001
 40
0.8188781162086813
 40
0.8188781162086813
 40
0.8188781162086813
 40
0.8188781162086813
 40
0.8333333333333335
 40
0.8333333333333335
 40
0.8333333333333335
 40
0.8333333333333335
 10
834.8526370049578
 20
1967.413193904502
 30
0.0
 10
834.8167513894523
 20
1967.499649834064
 30
0.0
 10
834.7809068731839
 20
1967.586305963754
 30
0.0
 10
834.7464706197078
 20
1967.673465892126
 30
0.0
  0
SPLINE
  5
163
330
87
100
AcDbEntity
  8
P-SANR-FIXT
100
AcDbSpline
210
0.0
220
0.0
230
1.0
 70
     8
 71
     3
 72
     8
 73
     4
 74
     0
 42
0.000000001
 43
0.0000000001
 40
0.8794842911656834
 40
0.8794842911656834
 40
0.8794842911656834
 40
0.8794842911656834
 40
0.8888888888888891
 40
0.8888888888888891
 40
0.8888888888888891
 40
0.8888888888888891
 10
834.4741961233106
 20
1968.525740846792
 30
0.0
 10
834.4584734377269
 20
1968.584427913881
 30
0.0
 10
834.4444631558115
 20
1968.643555362717
 30
0.0
 10
834.4319053605593
 20
1968.703056445415
 30
0.0
  0
SPLINE
  5
164
330
87
100
AcDbEntity
  8
P-SANR-FIXT
100
AcDbSpline
210
0.0
220
0.0
230
1.0
 70
     8
 71
     3
 72
     8
 73
     4
 74
     0
 42
0.000000001
 43
0.0000000001
 40
0.9401883649752202
 40
0.9401883649752202
 40
0.9401883649752202
 40
0.9401883649752202
 40
0.9444444444444448
 40
0.9444444444444448
 40
0.9444444444444448
 40
0.9444444444444448
 10
834.2450517724966
 20
1969.682108035134
 30
0.0
 10
834.2414554883955
 20
1969.709586443236
 30
0.0
 10
834.2382111663573
 20
1969.737150536894
 30
0.0
 10
834.235269964523
 20
1969.764788433633
 30
0.0
  0
SPLINE
  5
165
330
87
100
AcDbEntity
  8
P-SANR-FIXT
100
AcDbSpline
210
0.0
220
0.0
230
1.0
 70
     8
 71
     3
 72
     8
 73
     4
 74
     0
 42
0.000000001
 43
0.0000000001
 40
0.0555555555555556
 40
0.0555555555555556
 40
0.0555555555555556
 40
0.0555555555555556
 40
0.0598116350248
 40
0.0598116350248
 40
0.0598116350248
 40
0.0598116350248
 10
834.2339803094374
 20
1971.950587441831
 30
0.0
 10
834.2373085056118
 20
1971.978077401496
 30
0.0
 10
834.2407604648565
 20
1972.005537922212
 30
0.0
 10
834.2443364058041
 20
1972.032969320942
 30
0.0
  0
SPLINE
  5
166
330
87
100
AcDbEntity
  8
P-SANR-FIXT
100
AcDbSpline
210
0.0
220
0.0
230
1.0
 70
     8
 71
     3
 72
     8
 73
     4
 74
     0
 42
0.000000001
 43
0.0000000001
 40
0.1111111111111111
 40
0.1111111111111111
 40
0.1111111111111111
 40
0.1111111111111111
 40
0.1205157088343298
 40
0.1205157088343298
 40
0.1205157088343298
 40
0.1205157088343298
 10
834.4280603538571
 20
1973.012742135892
 30
0.0
 10
834.4426369772412
 20
1973.071906267541
 30
0.0
 10
834.4578318073478
 20
1973.130947007641
 30
0.0
 10
834.4736376858117
 20
1973.189847545745
 30
0.0
  0
SPLINE
  5
167
330
87
100
AcDbEntity
  8
P-SANR-FIXT
100
AcDbSpline
210
0.0
220
0.0
230
1.0
 70
     8
 71
     3
 72
     8
 73
     4
 74
     0
 42
0.000000001
 43
0.0000000001
 40
0.1666666666666666
 40
0.1666666666666666
 40
0.1666666666666666
 40
0.1666666666666666
 40
0.1811218837913338
 40
0.1811218837913338
 40
0.1811218837913338
 40
0.1811218837913338
 10
834.7496383606536
 20
1974.044828046411
 30
0.0
 10
834.7828864082957
 20
1974.132620743014
 30
0.0
 10
834.8174943770489
 20
1974.219889396852
 30
0.0
 10
834.853436433141
 20
1974.30657232743
 30
0.0
  0
SPLINE
  5
168
330
87
100
AcDbEntity
  8
P-SANR-FIXT
100
AcDbSpline
210
0.0
220
0.0
230
1.0
 70
     8
 71
     3
 72
     8
 73
     4
 74
     0
 42
0.000000001
 43
0.0000000001
 40
0.2222222222222222
 40
0.2222222222222222
 40
0.2222222222222222
 40
0.2222222222222222
 40
0.2420488305157495
 40
0.2420488305157495
 40
0.2420488305157495
 40
0.2420488305157495
 10
835.1917788403804
 20
1975.030342567448
 30
0.0
 10
835.251193161744
 20
1975.143991121765
 30
0.0
 10
835.312978917406
 20
1975.2562069194
 30
0.0
 10
835.3770670594103
 20
1975.366923367278
 30
0.0
  0
SPLINE
  5
169
330
87
100
AcDbEntity
  8
P-SANR-FIXT
100
AcDbSpline
210
0.0
220
0.0
230
1.0
 70
     8
 71
     3
 72
     8
 73
     4
 74
     0
 42
0.000000001
 43
0.0000000001
 40
0.2777777777777778
 40
0.2777777777777778
 40
0.2777777777777778
 40
0.2777777777777778
 40
0.3888888888888889
 40
0.3888888888888889
 40
0.3888888888888889
 40
0.3888888888888889
 10
835.7455407929759
 20
1975.950595536974
 30
0.0
 10
836.1499170750485
 20
1976.539695215079
 30
0.0
 10
836.62270052648
 20
1977.07778512843
 30
0.0
 10
837.151775465808
 20
1977.553247711387
 30
0.0
  0
SPLINE
  5
16A
330
87
100
AcDbEntity
  8
P-SANR-FIXT
100
AcDbSpline
210
0.0
220
0.0
230
1.0
 70
     8
 71
     3
 72
     8
 73
     4
 74
     0
 42
0.000000001
 43
0.0000000001
 40
0.4245820840193904
 40
0.4245820840193904
 40
0.4245820840193904
 40
0.4245820840193904
 40
0.4444444444444445
 40
0.4444444444444445
 40
0.4444444444444445
 40
0.4444444444444445
 10
837.6786680067326
 20
1977.991811126414
 30
0.0
 10
837.7794903183339
 20
1978.0693677412
 30
0.0
 10
837.8819883022663
 20
1978.144782188518
 30
0.0
 10
837.9860920305398
 20
1978.218018892323
 30
0.0
  0
SPLINE
  5
16B
330
87
100
AcDbEntity
  8
P-SANR-FIXT
100
AcDbSpline
210
0.0
220
0.0
230
1.0
 70
     8
 71
     3
 72
     8
 73
     4
 74
     0
 42
0.000000001
 43
0.0000000001
 40
0.4859210848860618
 40
0.4859210848860618
 40
0.4859210848860618
 40
0.4859210848860618
 40
0.5000000000000001
 40
0.5000000000000001
 40
0.5000000000000001
 40
0.5000000000000001
 10
838.658591153049
 20
1978.647533072206
 30
0.0
 10
838.7369050982433
 20
1978.692776110392
 30
0.0
 10
838.8159475564519
 20
1978.736877458494
 30
0.0
 10
838.8956915002733
 20
1978.779813843985
 30
0.0
  0
SPLINE
  5
16C
330
87
100
AcDbEntity
  8
P-SANR-FIXT
100
AcDbSpline
210
0.0
220
0.0
230
1.0
 70
     8
 71
     3
 72
     8
 73
     4
 74
     0
 42
0.000000001
 43
0.0000000001
 40
0.5469865694222817
 40
0.5469865694222817
 40
0.5469865694222817
 40
0.5469865694222817
 40
0.5555555555555558
 40
0.5555555555555558
 40
0.5555555555555558
 40
0.5555555555555558
 10
839.7165221345513
 20
1979.169609506693
 30
0.0
 10
839.7677238901504
 20
1979.190847407197
 30
0.0
 10
839.8191529354393
 20
1979.21163674461
 30
0.0
 10
839.8708027316942
 20
1979.231968587448
 30
0.0
  0
SPLINE
  5
16D
330
87
100
AcDbEntity
  8
P-SANR-FIXT
100
AcDbSpline
210
0.0
220
0.0
230
1.0
 70
     8
 71
     3
 72
     8
 73
     4
 74
     0
 42
0.000000001
 43
0.0000000001
 40
0.6076239561710935
 40
0.6076239561710935
 40
0.6076239561710935
 40
0.6076239561710935
 40
0.6111111111111113
 40
0.6111111111111113
 40
0.6111111111111113
 40
0.6111111111111113
 10
840.8351784411619
 20
1979.550539555354
 30
0.0
 10
840.8571667156481
 20
1979.556464362804
 30
0.0
 10
840.8791805037239
 20
1979.562303472772
 30
0.0
 10
840.9012189152781
 20
1979.568057166404
 30
0.0
  0
SPLINE
  5
16E
330
87
100
AcDbEntity
  8
P-SANR-FIXT
100
AcDbSpline
210
0.0
220
0.0
230
1.0
 70
     8
 71
     3
 72
     8
 73
     4
 74
     0
 42
0.000000001
 43
0.0000000001
 40
0.6666666666666669
 40
0.6666666666666669
 40
0.6666666666666669
 40
0.6666666666666669
 40
0.6679081968725759
 40
0.6679081968725759
 40
0.6679081968725759
 40
0.6679081968725759
 10
841.9695512413476
 20
1979.778248652042
 30
0.0
 10
841.977591924367
 20
1979.77931670252
 30
0.0
 10
841.9856342318512
 20
1979.780374949345
 30
0.0
 10
841.9936781158153
 20
1979.781423318364
 30
0.0
  0
SPLINE
  5
16F
330
87
100
AcDbEntity
  8
P-SANR-FIXT
100
AcDbSpline
210
0.0
220
0.0
230
1.0
 70
     8
 71
     3
 72
     8
 73
     4
 74
     0
 42
0.000000001
 43
0.0000000001
 40
0.7222222222222223
 40
0.7222222222222223
 40
0.7222222222222223
 40
0.7222222222222223
 40
0.7279369642383255
 40
0.7279369642383255
 40
0.7279369642383255
 40
0.7279369642383255
 10
843.0544149484543
 20
1979.856091622239
 30
0.0
 10
843.0917165372939
 20
1979.85656186491
 30
0.0
 10
843.1289969693018
 20
1979.856732760398
 30
0.0
 10
843.1662599809522
 20
1979.85662169173
 30
0.0
  0
SPLINE
  5
170
330
87
100
AcDbEntity
  8
P-SANR-FIXT
100
AcDbSpline
210
0.0
220
0.0
230
1.0
 70
     8
 71
     3
 72
     8
 73
     4
 74
     0
 42
0.000000001
 43
0.0000000001
 40
0.7777777777777781
 40
0.7777777777777781
 40
0.7777777777777781
 40
0.7777777777777781
 40
0.788031207918055
 40
0.788031207918055
 40
0.788031207918055
 40
0.788031207918055
 10
844.1410384530232
 20
1979.805335393103
 30
0.0
 10
844.2076992103148
 20
1979.798139005992
 30
0.0
 10
844.2741914523825
 20
1979.789868481549
 30
0.0
 10
844.3407539922365
 20
1979.781182587694
 30
0.0
  0
SPLINE
  5
171
330
87
100
AcDbEntity
  8
P-SANR-FIXT
100
AcDbSpline
210
0.0
220
0.0
230
1.0
 70
     8
 71
     3
 72
     8
 73
     4
 74
     0
 42
0.000000001
 43
0.0000000001
 40
0.8333333333333335
 40
0.8333333333333335
 40
0.8333333333333335
 40
0.8333333333333335
 40
0.8483561830624932
 40
0.8483561830624932
 40
0.8483561830624932
 40
0.8483561830624932
 10
845.216135402717
 20
1979.620805298477
 30
0.0
 10
845.3118006334129
 20
1979.598315107452
 30
0.0
 10
845.4075634283935
 20
1979.575646516295
 30
0.0
 10
845.5023701893013
 20
1979.550716234066
 30
0.0
  0
SPLINE
  5
172
330
87
100
AcDbEntity
  8
P-SANR-FIXT
100
AcDbSpline
210
0.0
220
0.0
230
1.0
 70
     8
 71
     3
 72
     8
 73
     4
 74
     0
 42
0.000000001
 43
0.0000000001
 40
0.8888888888888891
 40
0.8888888888888891
 40
0.8888888888888891
 40
0.8888888888888891
 40
0.9091353786741713
 40
0.9091353786741713
 40
0.9091353786741713
 40
0.9091353786741713
 10
846.2526798601448
 20
1979.312450274163
 30
0.0
 10
846.3752680819418
 20
1979.267994680626
 30
0.0
 10
846.4948235117912
 20
1979.21655106373
 30
0.0
 10
846.6123715710457
 20
1979.160494333945
 30
0.0
  0
SPLINE
  5
173
330
87
100
AcDbEntity
  8
P-SANR-FIXT
100
AcDbSpline
210
0.0
220
0.0
230
1.0
 70
     8
 71
     3
 72
     8
 73
     4
 74
     0
 42
0.000000001
 43
0.0000000001
 40
0.9444444444444448
 40
0.9444444444444448
 40
0.9444444444444448
 40
0.9444444444444448
 40
1.0
 40
1.0
 40
1.0
 40
1.0
 10
847.2349735286153
 20
1978.88766643342
 30
0.0
 10
847.5536934692216
 20
1978.726167441048
 30
0.0
 10
847.8639367841786
 20
1978.544469939844
 30
0.0
 10
848.1664074431876
 20
1978.341691539688
 30
0.0
  0
LINE
  5
174
330
87
100
AcDbEntity
  8
P-SANR-FIXT
100
AcDbLine
 10
796.4800883132199
 20
1967.369272724996
 30
0.0
 11
796.4923819778173
 21
1967.398162688201
 31
0.0
  0
LINE
  5
175
330
87
100
AcDbEntity
  8
P-SANR-FIXT
100
AcDbLine
 10
796.8605917187202
 20
1968.52408277927
 30
0.0
 11
796.8851527155223
 21
1968.626005632984
 31
0.0
  0
LINE
  5
176
330
87
100
AcDbEntity
  8
P-SANR-FIXT
100
AcDbLine
 10
797.0240856086761
 20
1969.33384875918
 30
0.0
 11
797.1182053387873
 21
1970.081476178228
 31
0.0
  0
SPLINE
  5
177
330
87
100
AcDbEntity
  8
P-SANR-FIXT
100
AcDbSpline
210
0.0
220
0.0
230
1.0
 70
     8
 71
     3
 72
    10
 73
     6
 74
     0
 42
0.000000001
 43
0.0000000001
 40
0.1428571428571428
 40
0.1428571428571428
 40
0.1428571428571428
 40
0.1428571428571428
 40
0.1785714285714286
 40
0.25
 40
0.2857142857142857
 40
0.2857142857142857
 40
0.2857142857142857
 40
0.2857142857142857
 10
796.1393779605144
 20
1975.033534384525
 30
0.0
 10
796.1278685079681
 20
1975.055527805676
 30
0.0
 10
796.0891004176111
 20
1975.128903769945
 30
0.0
 10
796.0173064423959
 20
1975.25992518624
 30
0.0
 10
795.9607693241904
 20
1975.358337339845
 30
0.0
 10
795.941263718688
 20
1975.39177526782
 30
0.0
  0
SPLINE
  5
178
330
87
100
AcDbEntity
  8
P-SANR-FIXT
100
AcDbSpline
210
0.0
220
0.0
230
1.0
 70
     8
 71
     3
 72
     8
 73
     4
 74
     0
 42
0.000000001
 43
0.0000000001
 40
0.5714285714285714
 40
0.5714285714285714
 40
0.5714285714285714
 40
0.5714285714285714
 40
0.7142857142857143
 40
0.7142857142857143
 40
0.7142857142857143
 40
0.7142857142857143
 10
795.3625137815747
 20
1976.26356441937
 30
0.0
 10
795.2509421886656
 20
1976.412039060505
 30
0.0
 10
795.1354154014469
 20
1976.562404110155
 30
0.0
 10
795.0134584569922
 20
1976.708201221197
 30
0.0
  0
SPLINE
  5
179
330
87
100
AcDbEntity
  8
P-SANR-FIXT
100
AcDbSpline
210
0.0
220
0.0
230
1.0
 70
     8
 71
     3
 72
     8
 73
     4
 74
     0
 42
0.000000001
 43
0.0000000001
 40
0.8571428571428571
 40
0.8571428571428571
 40
0.8571428571428571
 40
0.8571428571428571
 40
1.0
 40
1.0
 40
1.0
 40
1.0
 10
794.6258221889928
 20
1977.125430391383
 30
0.0
 10
794.4938021889022
 20
1977.261603654552
 30
0.0
 10
794.3581492904126
 20
1977.392721008454
 30
0.0
 10
794.2190576252264
 20
1977.519114396002
 30
0.0
  0
SPLINE
  5
17A
330
87
100
AcDbEntity
  8
P-SANR-FIXT
100
AcDbSpline
210
0.0
220
0.0
230
1.0
 70
     8
 71
     3
 72
     8
 73
     4
 74
     0
 42
0.000000001
 43
0.0000000001
 40
0.0
 40
0.0
 40
0.0
 40
0.0
 40
0.1428571428571428
 40
0.1428571428571428
 40
0.1428571428571428
 40
0.1428571428571428
 10
794.2190576252263
 20
1964.197639136278
 30
0.0
 10
794.3581492904123
 20
1964.324032523826
 30
0.0
 10
794.4936559357841
 20
1964.455065404269
 30
0.0
 10
794.6258221889924
 20
1964.591323140896
 30
0.0
  0
SPLINE
  5
17B
330
87
100
AcDbEntity
  8
P-SANR-FIXT
100
AcDbSpline
210
0.0
220
0.0
230
1.0
 70
     8
 71
     3
 72
     8
 73
     4
 74
     0
 42
0.000000001
 43
0.0000000001
 40
0.2857142857142857
 40
0.2857142857142857
 40
0.2857142857142857
 40
0.2857142857142857
 40
0.4285714285714286
 40
0.4285714285714286
 40
0.4285714285714286
 40
0.4285714285714286
 10
795.010084459344
 20
1965.01337164223
 30
0.0
 10
795.133354615442
 20
1965.157679814124
 30
0.0
 10
795.2510687942873
 20
1965.304813217576
 30
0.0
 10
795.3625137815747
 20
1965.45318911291
 30
0.0
  0
SPLINE
  5
17C
330
87
100
AcDbEntity
  8
P-SANR-FIXT
100
AcDbSpline
210
0.0
220
0.0
230
1.0
 70
     8
 71
     3
 72
    11
 73
     7
 74
     0
 42
0.000000001
 43
0.0000000001
 40
0.7142857142857143
 40
0.7142857142857143
 40
0.7142857142857143
 40
0.7142857142857143
 40
0.71875
 40
0.7857142857142857
 40
0.8392857142857142
 40
0.8571428571428569
 40
0.8571428571428569
 40
0.8571428571428569
 40
0.8571428571428569
 10
795.9409562920831
 20
1966.324454660312
 30
0.0
 10
795.9433926831484
 20
1966.328634508382
 30
0.0
 10
795.9822919927987
 20
1966.395497165083
 30
0.0
 10
796.0483390195586
 20
1966.512487937935
 30
0.0
 10
796.1097793969656
 20
1966.626938571423
 30
0.0
 10
796.1336672538479
 20
1966.672326261093
 30
0.0
 10
796.1392863414009
 20
1966.683057284054
 30
0.0
  0
SPLINE
  5
17D
330
87
100
AcDbEntity
  8
P-SANR-FIXT
100
AcDbSpline
210
0.0
220
0.0
230
1.0
 70
     8
 71
     3
 72
     8
 73
     4
 74
     0
 42
0.000000001
 43
0.0000000001
 40
-1.0
 40
-1.0
 40
-1.0
 40
-1.0
 40
-0.9166666666666666
 40
-0.9166666666666666
 40
-0.9166666666666666
 40
-0.9166666666666666
 10
783.1664074431876
 20
1963.375061992592
 30
0.0
 10
783.4439248673709
 20
1963.189104350119
 30
0.0
 10
783.7302649347706
 20
1963.019572665421
 30
0.0
 10
784.02424240599
 20
1962.866842050841
 30
0.0
  0
SPLINE
  5
17E
330
87
100
AcDbEntity
  8
P-SANR-FIXT
100
AcDbSpline
210
0.0
220
0.0
230
1.0
 70
     8
 71
     3
 72
     8
 73
     4
 74
     0
 42
0.000000001
 43
0.0000000001
 40
-0.8515529464455749
 40
-0.8515529464455749
 40
-0.8515529464455749
 40
-0.8515529464455749
 40
-0.8333333333333333
 40
-0.8333333333333333
 40
-0.8333333333333333
 40
-0.8333333333333333
 10
784.7267764048181
 20
1962.53977879839
 30
0.0
 10
784.793501519809
 20
1962.512176943176
 30
0.0
 10
784.8605644881017
 20
1962.485297014672
 30
0.0
 10
784.9279478839653
 20
1962.459171077316
 30
0.0
  0
SPLINE
  5
17F
330
87
100
AcDbEntity
  8
P-SANR-FIXT
100
AcDbSpline
210
0.0
220
0.0
230
1.0
 70
     8
 71
     3
 72
     8
 73
     4
 74
     0
 42
0.000000001
 43
0.0000000001
 40
-0.7525094590905152
 40
-0.7525094590905152
 40
-0.7525094590905152
 40
-0.7525094590905152
 40
-0.75
 40
-0.75
 40
-0.75
 40
-0.75
 10
785.8413988773502
 20
1962.162710783788
 30
0.0
 10
785.8510191751407
 20
1962.160148647937
 30
0.0
 10
785.8606448032324
 20
1962.157600217954
 30
0.0
 10
785.8702756835009
 20
1962.155065697004
 30
0.0
  0
SPLINE
  5
180
330
87
100
AcDbEntity
  8
P-SANR-FIXT
100
AcDbSpline
210
0.0
220
0.0
230
1.0
 70
     8
 71
     3
 72
     8
 73
     4
 74
     0
 42
0.000000001
 43
0.0000000001
 40
-0.6666666666666666
 40
-0.6666666666666666
 40
-0.6666666666666666
 40
-0.6666666666666666
 40
-0.6543566875456432
 40
-0.6543566875456432
 40
-0.6543566875456432
 40
-0.6543566875456432
 10
786.8442480863802
 20
1961.956023446079
 30
0.0
 10
786.8928677876449
 20
1961.948851920682
 30
0.0
 10
786.9415350723553
 20
1961.942204305292
 30
0.0
 10
786.9902498113626
 20
1961.936052855441
 30
0.0
  0
SPLINE
  5
181
330
87
100
AcDbEntity
  8
P-SANR-FIXT
100
AcDbSpline
210
0.0
220
0.0
230
1.0
 70
     8
 71
     3
 72
     8
 73
     4
 74
     0
 42
0.000000001
 43
0.0000000001
 40
-0.5833333333333334
 40
-0.5833333333333334
 40
-0.5833333333333334
 40
-0.5833333333333334
 40
-0.5563913312822745
 40
-0.5563913312822745
 40
-0.5563913312822745
 40
-0.5563913312822745
 10
787.8410056884023
 20
1961.864675287481
 30
0.0
 10
787.949120635425
 20
1961.860738026349
 30
0.0
 10
788.0570886845575
 20
1961.85941908783
 30
0.0
 10
788.1650752380927
 20
1961.860066225726
 30
0.0
  0
SPLINE
  5
182
330
87
100
AcDbEntity
  8
P-SANR-FIXT
100
AcDbSpline
210
0.0
220
0.0
230
1.0
 70
     8
 71
     3
 72
     8
 73
     4
 74
     0
 42
0.000000001
 43
0.0000000001
 40
-0.5
 40
-0.5
 40
-0.5
 40
-0.5
 40
-0.4166666666666668
 40
-0.4166666666666668
 40
-0.4166666666666668
 40
-0.4166666666666668
 10
788.8449033628188
 20
1961.883988581587
 30
0.0
 10
789.1787981506475
 20
1961.909214700608
 30
0.0
 10
789.5177658187626
 20
1961.939876744522
 30
0.0
 10
789.84907796329
 20
1961.995223238091
 30
0.0
  0
SPLINE
  5
183
330
87
100
AcDbEntity
  8
P-SANR-FIXT
100
AcDbSpline
210
0.0
220
0.0
230
1.0
 70
     8
 71
     3
 72
     8
 73
     4
 74
     0
 42
0.000000001
 43
0.0000000001
 40
-0.3601076344889942
 40
-0.3601076344889942
 40
-0.3601076344889942
 40
-0.3601076344889942
 40
-0.3333333333333333
 40
-0.3333333333333333
 40
-0.3333333333333333
 40
-0.3333333333333333
 10
790.4999113586557
 20
1962.166414320853
 30
0.0
 10
790.6030295128005
 20
1962.194031939882
 30
0.0
 10
790.7063656187723
 20
1962.221904058317
 30
0.0
 10
790.8073194222358
 20
1962.254564592521
 30
0.0
  0
SPLINE
  5
184
330
87
100
AcDbEntity
  8
P-SANR-FIXT
100
AcDbSpline
210
0.0
220
0.0
230
1.0
 70
     8
 71
     3
 72
     8
 73
     4
 74
     0
 42
0.000000001
 43
0.0000000001
 40
-0.2615722436502814
 40
-0.2615722436502814
 40
-0.2615722436502814
 40
-0.2615722436502814
 40
-0.25
 40
-0.25
 40
-0.25
 40
-0.25
 10
791.6099722946206
 20
1962.54219009792
 30
0.0
 10
791.6522338590615
 20
1962.559637454405
 30
0.0
 10
791.6940062281569
 20
1962.577981252755
 30
0.0
 10
791.735332102929
 20
1962.597143415061
 30
0.0
  0
SPLINE
  5
185
330
87
100
AcDbEntity
  8
P-SANR-FIXT
100
AcDbSpline
210
0.0
220
0.0
230
1.0
 70
     8
 71
     3
 72
     8
 73
     4
 74
     0
 42
0.000000001
 43
0.0000000001
 40
-0.1666666666666666
 40
-0.1666666666666666
 40
-0.1666666666666666
 40
-0.1666666666666666
 40
-0.162604483882649
 40
-0.162604483882649
 40
-0.162604483882649
 40
-0.162604483882649
 10
792.6184756309591
 20
1963.034863190296
 30
0.0
 10
792.6323977503855
 20
1963.04278708222
 30
0.0
 10
792.6462537356273
 20
1963.050820484734
 30
0.0
 10
792.6600467856372
 20
1963.058958104574
 30
0.0
  0
SPLINE
  5
186
330
87
100
AcDbEntity
  8
P-SANR-FIXT
100
AcDbSpline
210
0.0
220
0.0
230
1.0
 70
     8
 71
     3
 72
     8
 73
     4
 74
     0
 42
0.000000001
 43
0.0000000001
 40
-0.0833333333333333
 40
-0.0833333333333333
 40
-0.0833333333333333
 40
-0.0833333333333333
 40
-0.0622084415365615
 40
-0.0622084415365615
 40
-0.0622084415365615
 40
-0.0622084415365615
 10
793.4479970274633
 20
1963.569861665541
 30
0.0
 10
793.5157031961273
 20
1963.619028698898
 30
0.0
 10
793.5817901189533
 20
1963.670644532237
 30
0.0
 10
793.6469972621196
 20
1963.723594846664
 30
0.0
  0
SPLINE
  5
187
330
87
100
AcDbEntity
  8
P-SANR-FIXT
100
AcDbSpline
210
0.0
220
0.0
230
1.0
 70
     8
 71
     3
 72
     8
 73
     4
 74
     0
 42
0.000000001
 43
0.0000000001
 40
-0.9377915584634248
 40
-0.9377915584634248
 40
-0.9377915584634248
 40
-0.9377915584634248
 40
-0.9166666666666666
 40
-0.9166666666666666
 40
-0.9166666666666666
 40
-0.9166666666666666
 10
793.6492213474225
 20
1977.99641741534
 30
0.0
 10
793.5827832341283
 20
1978.04756411237
 30
0.0
 10
793.5157063633353
 20
1978.097840192134
 30
0.0
 10
793.4480057887611
 20
1978.147210978215
 30
0.0
  0
SPLINE
  5
188
330
87
100
AcDbEntity
  8
P-SANR-FIXT
100
AcDbSpline
210
0.0
220
0.0
230
1.0
 70
     8
 71
     3
 72
     8
 73
     4
 74
     0
 42
0.000000001
 43
0.0000000001
 40
-0.8373955161173338
 40
-0.8373955161173338
 40
-0.8373955161173338
 40
-0.8373955161173338
 40
-0.8333333333333333
 40
-0.8333333333333333
 40
-0.8333333333333333
 40
-0.8333333333333333
 10
792.6601793313573
 20
1978.658005116123
 30
0.0
 10
792.6462990212857
 20
1978.666004689829
 30
0.0
 10
792.6323976345246
 20
1978.67397144324
 30
0.0
 10
792.6184752916464
 20
1978.68190496511
 30
0.0
  0
SPLINE
  5
189
330
87
100
AcDbEntity
  8
P-SANR-FIXT
100
AcDbSpline
210
0.0
220
0.0
230
1.0
 70
     8
 71
     3
 72
     8
 73
     4
 74
     0
 42
0.000000001
 43
0.0000000001
 40
-0.75
 40
-0.75
 40
-0.75
 40
-0.75
 40
-0.7384277563497055
 40
-0.7384277563497055
 40
-0.7384277563497055
 40
-0.7384277563497055
 10
791.736310680841
 20
1979.121269480178
 30
0.0
 10
791.6943475199169
 20
1979.139351003914
 30
0.0
 10
791.6522297552424
 20
1979.157163767336
 30
0.0
 10
791.609961692818
 20
1979.174686635276
 30
0.0
  0
SPLINE
  5
18A
330
87
100
AcDbEntity
  8
P-SANR-FIXT
100
AcDbSpline
210
0.0
220
0.0
230
1.0
 70
     8
 71
     3
 72
     8
 73
     4
 74
     0
 42
0.000000001
 43
0.0000000001
 40
-0.6666666666666666
 40
-0.6666666666666666
 40
-0.6666666666666666
 40
-0.6666666666666666
 40
-0.6398923655110059
 40
-0.6398923655110059
 40
-0.6398923655110059
 40
-0.6398923655110059
 10
790.8073194222359
 20
1979.462188939759
 30
0.0
 10
790.7055272421802
 20
1979.493326685161
 30
0.0
 10
790.6031314070263
 20
1979.522083651469
 30
0.0
 10
790.5001679346923
 20
1979.548732836244
 30
0.0
  0
SPLINE
  5
18B
330
87
100
AcDbEntity
  8
P-SANR-FIXT
100
AcDbSpline
210
0.0
220
0.0
230
1.0
 70
     8
 71
     3
 72
     8
 73
     4
 74
     0
 42
0.000000001
 43
0.0000000001
 40
-0.5833333333333334
 40
-0.5833333333333334
 40
-0.5833333333333334
 40
-0.5833333333333334
 40
-0.5
 40
-0.5
 40
-0.5
 40
-0.5
 10
789.8389161506141
 20
1979.701243065899
 30
0.0
 10
789.5109912769787
 20
1979.763351968898
 30
0.0
 10
789.180456308402
 20
1979.801327544569
 30
0.0
 10
788.8449033628188
 20
1979.832764950693
 30
0.0
  0
SPLINE
  5
18C
330
87
100
AcDbEntity
  8
P-SANR-FIXT
100
AcDbSpline
210
0.0
220
0.0
230
1.0
 70
     8
 71
     3
 72
     8
 73
     4
 74
     0
 42
0.000000001
 43
0.0000000001
 40
-0.4436086687177211
 40
-0.4436086687177211
 40
-0.4436086687177211
 40
-0.4436086687177211
 40
-0.4166666666666668
 40
-0.4166666666666668
 40
-0.4166666666666668
 40
-0.4166666666666668
 10
788.1656259694557
 20
1979.858089079848
 30
0.0
 10
788.0573599690451
 20
1979.858024943258
 30
0.0
 10
787.94856211462
 20
1979.85772162507
 30
0.0
 10
787.8397394922869
 20
1979.85594610685
 30
0.0
  0
SPLINE
  5
18D
330
87
100
AcDbEntity
  8
P-SANR-FIXT
100
AcDbSpline
210
0.0
220
0.0
230
1.0
 70
     8
 71
     3
 72
     8
 73
     4
 74
     0
 42
0.000000001
 43
0.0000000001
 40
-0.3456433124543569
 40
-0.3456433124543569
 40
-0.3456433124543569
 40
-0.3456433124543569
 40
-0.3333333333333333
 40
-0.3333333333333333
 40
-0.3333333333333333
 40
-0.3333333333333333
 10
786.9903650700313
 20
1979.781069472266
 30
0.0
 10
786.9415765558793
 20
1979.774681962635
 30
0.0
 10
786.8927320084787
 20
1979.768263066698
 30
0.0
 10
786.8442480863802
 20
1979.760730086201
 30
0.0
  0
SPLINE
  5
18E
330
87
100
AcDbEntity
  8
P-SANR-FIXT
100
AcDbSpline
210
0.0
220
0.0
230
1.0
 70
     8
 71
     3
 72
     8
 73
     4
 74
     0
 42
0.000000001
 43
0.0000000001
 40
-0.25
 40
-0.25
 40
-0.25
 40
-0.25
 40
-0.2474905409094998
 40
-0.2474905409094998
 40
-0.2474905409094998
 40
-0.2474905409094998
 10
785.8702741639668
 20
1979.561681428755
 30
0.0
 10
785.8606442814683
 20
1979.559151114512
 30
0.0
 10
785.8510318556816
 20
1979.556574392395
 30
0.0
 10
785.8414365371174
 20
1979.553952190866
 30
0.0
  0
SPLINE
  5
18F
330
87
100
AcDbEntity
  8
P-SANR-FIXT
100
AcDbSpline
210
0.0
220
0.0
230
1.0
 70
     8
 71
     3
 72
     8
 73
     4
 74
     0
 42
0.000000001
 43
0.0000000001
 40
-0.1666666666666666
 40
-0.1666666666666666
 40
-0.1666666666666666
 40
-0.1666666666666666
 40
-0.1484470535544409
 40
-0.1484470535544409
 40
-0.1484470535544409
 40
-0.1484470535544409
 10
784.9279017917099
 20
1979.257325002481
 30
0.0
 10
784.8605474444505
 20
1979.231361318744
 30
0.0
 10
784.7941628910858
 20
1979.203149440206
 30
0.0
 10
784.7285436199297
 20
1979.173161325011
 30
0.0
  0
SPLINE
  5
190
330
87
100
AcDbEntity
  8
P-SANR-FIXT
100
AcDbSpline
210
0.0
220
0.0
230
1.0
 70
     8
 71
     3
 72
     8
 73
     4
 74
     0
 42
0.000000001
 43
0.0000000001
 40
-0.0833333333333333
 40
-0.0833333333333333
 40
-0.0833333333333333
 40
-0.0833333333333333
 40
0.0
 40
0.0
 40
0.0
 40
0.0
 10
784.02424240599
 20
1978.849911481438
 30
0.0
 10
783.7302649347706
 20
1978.697180866858
 30
0.0
 10
783.4439248673709
 20
1978.52764918216
 30
0.0
 10
783.1664074431876
 20
1978.341691539688
 30
0.0
  0
LINE
  5
191
330
87
100
AcDbEntity
  8
P-SANR-FIXT
100
AcDbLine
 10
783.1664074431879
 20
1998.163310669396
 30
0.0
 11
783.1664074431877
 21
1985.870002797536
 31
0.0
  0
LINE
  5
192
330
87
100
AcDbEntity
  8
P-SANR-FIXT
100
AcDbLine
 10
783.1664074431877
 20
1983.014548038379
 30
0.0
 11
783.1664074431877
 21
1978.341691539688
 31
0.0
  0
LINE
  5
193
330
87
100
AcDbEntity
  8
P-SANR-FIXT
100
AcDbLine
 10
783.1664074431876
 20
1963.375061992592
 30
0.0
 11
783.1664074431876
 21
1958.702205493902
 31
0.0
  0
LINE
  5
194
330
87
100
AcDbEntity
  8
P-SANR-FIXT
100
AcDbLine
 10
783.1664074431876
 20
1955.589951513481
 30
0.0
 11
783.1664074431877
 21
1943.572872382576
 31
0.0
  0
LINE
  5
195
330
87
100
AcDbEntity
  8
P-SANR-FIXT
100
AcDbLine
 10
783.1664074431877
 20
1985.870002797536
 30
0.0
 11
783.1664074431877
 21
1983.014548038379
 31
0.0
  0
LINE
  5
196
330
87
100
AcDbEntity
  8
P-SANR-FIXT
100
AcDbLine
 10
783.1664074431877
 20
1985.870002797536
 30
0.0
 11
768.1664074431876
 21
1985.870002797536
 31
0.0
  0
LINE
  5
197
330
87
100
AcDbEntity
  8
P-SANR-FIXT
100
AcDbLine
 10
768.1664074431876
 20
1983.014548038378
 30
0.0
 11
783.1664074431877
 21
1983.014548038378
 31
0.0
  0
LINE
  5
198
330
87
100
AcDbEntity
  8
P-SANR-FIXT
100
AcDbLine
 10
783.1664074431876
 20
1958.702205493903
 30
0.0
 11
783.1664074431876
 21
1955.589951513481
 31
0.0
  0
LINE
  5
199
330
87
100
AcDbEntity
  8
P-SANR-FIXT
100
AcDbLine
 10
783.1664074431876
 20
1958.702205493902
 30
0.0
 11
768.1664074431876
 21
1958.702205493902
 31
0.0
  0
LINE
  5
19A
330
87
100
AcDbEntity
  8
P-SANR-FIXT
100
AcDbLine
 10
768.1664074431876
 20
1955.589951513481
 30
0.0
 11
783.1664074431876
 21
1955.589951513481
 31
0.0
  0
LINE
  5
19B
330
87
100
AcDbEntity
  8
P-SANR-FIXT
100
AcDbLine
 10
768.1664074431879
 20
1998.163310669396
 30
0.0
 11
783.1664074431879
 21
1998.163310669396
 31
0.0
  0
LINE
  5
19C
330
87
100
AcDbEntity
  8
P-SANR-FIXT
100
AcDbLine
 10
783.1664074431879
 20
1998.20837676614
 30
0.0
 11
783.1664074431879
 21
1998.163310669396
 31
0.0
  0
LINE
  5
19D
330
87
100
AcDbEntity
  8
P-SANR-FIXT
100
AcDbLine
 10
783.1664074431877
 20
1943.572872382576
 30
0.0
 11
783.1664074431877
 21
1943.50837676614
 31
0.0
  0
LINE
  5
19E
330
87
100
AcDbEntity
  8
P-SANR-FIXT
100
AcDbLine
 10
783.1664074431877
 20
1943.572872382576
 30
0.0
 11
768.1664074431878
 21
1943.572872382576
 31
0.0
  0
LINE
  5
19F
330
87
100
AcDbEntity
  8
P-SANR-FIXT
100
AcDbLine
 10
768.1664074431878
 20
1943.572872382576
 30
0.0
 11
768.1664074431878
 21
1943.50837676614
 31
0.0
  0
LINE
  5
1A0
330
87
100
AcDbEntity
  8
P-SANR-FIXT
100
AcDbLine
 10
768.1664074431878
 20
1943.572872382576
 30
0.0
 11
768.1664074431876
 21
1955.589951513481
 31
0.0
  0
LINE
  5
1A1
330
87
100
AcDbEntity
  8
P-SANR-FIXT
100
AcDbLine
 10
768.1664074431876
 20
1958.702205493903
 30
0.0
 11
768.1664074431876
 21
1955.589951513481
 31
0.0
  0
LINE
  5
1A2
330
87
100
AcDbEntity
  8
P-SANR-FIXT
100
AcDbLine
 10
768.1664074431876
 20
1958.702205493902
 30
0.0
 11
768.1664074431876
 21
1983.014548038379
 31
0.0
  0
LINE
  5
1A3
330
87
100
AcDbEntity
  8
P-SANR-FIXT
100
AcDbLine
 10
768.1664074431878
 20
1985.870002797536
 30
0.0
 11
768.1664074431876
 21
1983.014548038379
 31
0.0
  0
LINE
  5
1A4
330
87
100
AcDbEntity
  8
P-SANR-FIXT
100
AcDbLine
 10
768.1664074431876
 20
1985.870002797536
 30
0.0
 11
768.1664074431879
 21
1998.163310669396
 31
0.0
  0
LINE
  5
1A5
330
87
100
AcDbEntity
  8
P-SANR-FIXT
100
AcDbLine
 10
768.1664074431879
 20
1998.20837676614
 30
0.0
 11
768.1664074431879
 21
1998.163310669396
 31
0.0
  0
ARC
  5
1A6
330
87
100
AcDbEntity
  8
P-SANR-FIXT
100
AcDbCircle
 10
788.1664074431877
 20
1970.85837676614
 30
0.0
 40
9.000000000000012
100
AcDbArc
 50
187.0313764255129
 51
187.504521501215
  0
ARC
  5
1A7
330
87
100
AcDbEntity
  8
P-SANR-FIXT
100
AcDbCircle
 10
788.1664074431877
 20
1970.85837676614
 30
0.0
 40
8.999999999999978
100
AcDbArc
 50
194.0627528510269
 51
195.0150451572952
  0
ARC
  5
1A8
330
87
100
AcDbEntity
  8
P-SANR-FIXT
100
AcDbCircle
 10
788.1664074431877
 20
1970.85837676614
 30
0.0
 40
9.000000000000062
100
AcDbArc
 50
201.0941292765408
 51
202.5307715218462
  0
ARC
  5
1A9
330
87
100
AcDbEntity
  8
P-SANR-FIXT
100
AcDbCircle
 10
788.1664074431877
 20
1970.85837676614
 30
0.0
 40
8.999999999999936
100
AcDbArc
 50
208.1255057020549
 51
210.0511871198159
  0
ARC
  5
1AA
330
87
100
AcDbEntity
  8
P-SANR-FIXT
100
AcDbCircle
 10
788.1664074431877
 20
1970.85837676614
 30
0.0
 40
9.000000000000026
100
AcDbArc
 50
215.1568821275683
 51
217.5760929603013
  0
ARC
  5
1AB
330
87
100
AcDbEntity
  8
P-SANR-FIXT
100
AcDbCircle
 10
788.1664074431877
 20
1970.85837676614
 30
0.0
 40
9.000000000000024
100
AcDbArc
 50
222.1882585530832
 51
224.8985212694091
  0
ARC
  5
1AC
330
87
100
AcDbEntity
  8
P-SANR-FIXT
100
AcDbCircle
 10
788.1664074431877
 20
1970.85837676614
 30
0.0
 40
8.999999999999907
100
AcDbArc
 50
229.2196349785963
 51
236.2510114041104
  0
ARC
  5
1AD
330
87
100
AcDbEntity
  8
P-SANR-FIXT
100
AcDbCircle
 10
788.1664074431877
 20
1970.85837676614
 30
0.0
 40
9.000000000000104
100
AcDbArc
 50
123.7489885958889
 51
130.7803650214015
  0
ARC
  5
1AE
330
87
100
AcDbEntity
  8
P-SANR-FIXT
100
AcDbCircle
 10
788.1664074431877
 20
1970.85837676614
 30
0.0
 40
9.000000000000071
100
AcDbArc
 50
135.1014787305918
 51
137.8117414469161
  0
ARC
  5
1AF
330
87
100
AcDbEntity
  8
P-SANR-FIXT
100
AcDbCircle
 10
788.1664074431877
 20
1970.85837676614
 30
0.0
 40
9.000000000000101
100
AcDbArc
 50
142.4239070396995
 51
144.8431178724293
  0
ARC
  5
1B0
330
87
100
AcDbEntity
  8
P-SANR-FIXT
100
AcDbCircle
 10
788.1664074431877
 20
1970.85837676614
 30
0.0
 40
8.999999999999914
100
AcDbArc
 50
149.9488128801815
 51
151.8744942979438
  0
ARC
  5
1B1
330
87
100
AcDbEntity
  8
P-SANR-FIXT
100
AcDbCircle
 10
788.1664074431877
 20
1970.85837676614
 30
0.0
 40
9.000000000000046
100
AcDbArc
 50
157.4692284781534
 51
158.905870723457
  0
ARC
  5
1B2
330
87
100
AcDbEntity
  8
P-SANR-FIXT
100
AcDbCircle
 10
788.1664074431877
 20
1970.85837676614
 30
0.0
 40
8.99999999999996
100
AcDbArc
 50
164.9849548427041
 51
165.9372471489724
  0
ARC
  5
1B3
330
87
100
AcDbEntity
  8
P-SANR-FIXT
100
AcDbCircle
 10
788.1664074431877
 20
1970.85837676614
 30
0.0
 40
9.000000000000005
100
AcDbArc
 50
172.4954784987832
 51
172.9686235744852
  0
ARC
  5
1B4
330
87
100
AcDbEntity
  8
P-SANR-FIXT
100
AcDbCircle
 10
843.1664074431875
 20
1970.85837676614
 30
0.0
 40
9.00000000000004
100
AcDbArc
 50
49.21963497859771
 51
56.25101140411171
  0
ARC
  5
1B5
330
87
100
AcDbEntity
  8
P-SANR-FIXT
100
AcDbCircle
 10
843.1664074431875
 20
1970.85837676614
 30
0.0
 40
9.000000000000069
100
AcDbArc
 50
42.18825855308592
 51
44.89852126940919
  0
ARC
  5
1B6
330
87
100
AcDbEntity
  8
P-SANR-FIXT
100
AcDbCircle
 10
843.1664074431875
 20
1970.85837676614
 30
0.0
 40
9.000000000000079
100
AcDbArc
 50
35.15688212757072
 51
37.57609296030206
  0
ARC
  5
1B7
330
87
100
AcDbEntity
  8
P-SANR-FIXT
100
AcDbCircle
 10
843.1664074431875
 20
1970.85837676614
 30
0.0
 40
9.000000000000126
100
AcDbArc
 50
28.12550570205772
 51
30.05118711981966
  0
ARC
  5
1B8
330
87
100
AcDbEntity
  8
P-SANR-FIXT
100
AcDbCircle
 10
843.1664074431875
 20
1970.85837676614
 30
0.0
 40
8.999999999999984
100
AcDbArc
 50
21.0941292765427
 51
22.53077152184786
  0
ARC
  5
1B9
330
87
100
AcDbEntity
  8
P-SANR-FIXT
100
AcDbCircle
 10
843.1664074431875
 20
1970.85837676614
 30
0.0
 40
8.999999999999989
100
AcDbArc
 50
14.06275285103027
 51
15.01504515729593
  0
ARC
  5
1BA
330
87
100
AcDbEntity
  8
P-SANR-FIXT
100
AcDbCircle
 10
843.1664074431875
 20
1970.85837676614
 30
0.0
 40
9.000000000000119
100
AcDbArc
 50
7.031376425514872
 51
7.504521501216792
  0
ARC
  5
1BB
330
87
100
AcDbEntity
  8
P-SANR-FIXT
100
AcDbCircle
 10
843.1664074431875
 20
1970.85837676614
 30
0.0
 40
9.000000000000026
100
AcDbArc
 50
352.495478498783
 51
352.9686235744849
  0
ARC
  5
1BC
330
87
100
AcDbEntity
  8
P-SANR-FIXT
100
AcDbCircle
 10
843.1664074431875
 20
1970.85837676614
 30
0.0
 40
9.000000000000088
100
AcDbArc
 50
344.9849548427039
 51
345.9372471489723
  0
ARC
  5
1BD
330
87
100
AcDbEntity
  8
P-SANR-FIXT
100
AcDbCircle
 10
843.1664074431875
 20
1970.85837676614
 30
0.0
 40
8.999999999999914
100
AcDbArc
 50
337.4692284781533
 51
338.9058707234585
  0
ARC
  5
1BE
330
87
100
AcDbEntity
  8
P-SANR-FIXT
100
AcDbCircle
 10
843.1664074431875
 20
1970.85837676614
 30
0.0
 40
8.999999999999989
100
AcDbArc
 50
329.948812880183
 51
331.8744942979437
  0
ARC
  5
1BF
330
87
100
AcDbEntity
  8
P-SANR-FIXT
100
AcDbCircle
 10
843.1664074431875
 20
1970.85837676614
 30
0.0
 40
9.0
100
AcDbArc
 50
322.4239070396989
 51
324.8431178724291
  0
ARC
  5
1C0
330
87
100
AcDbEntity
  8
P-SANR-FIXT
100
AcDbCircle
 10
843.1664074431875
 20
1970.85837676614
 30
0.0
 40
8.999999999999941
100
AcDbArc
 50
315.1014787305899
 51
317.8117414469158
  0
ARC
  5
1C1
330
87
100
AcDbEntity
  8
P-SANR-FIXT
100
AcDbCircle
 10
843.1664074431875
 20
1970.85837676614
 30
0.0
 40
8.999999999999921
100
AcDbArc
 50
303.7489885958883
 51
310.7803650214024
  0
LINE
  5
1C2
330
87
100
AcDbEntity
  8
P-SANR-FIXT
100
AcDbLine
 10
864.5712619564489
 20
2014.257499999997
 30
0.0
 11
766.7615529299268
 21
2014.257499999997
 31
0.0
  0
LINE
  5
1C3
330
87
100
AcDbEntity
  8
P-SANR-FIXT
100
AcDbLine
 10
873.170363068314
 20
2017.257499999997
 30
0.0
 11
758.1624518180616
 21
2017.257499999997
 31
0.0
  0
ENDBLK
  5
1C5
330
87
100
AcDbEntity
  8
0
100
AcDbBlockEnd
  0
BLOCK
  5
219
330
1C7
100
AcDbEntity
  8
0
100
AcDbBlockBegin
  2
Automatic flow rate regulator valve_Caleffi_121 DN15 - 1_2__-V1-Est - Idraulica
 70
     0
 10
0.0
 20
0.0
 30
0.0
  3
Automatic flow rate regulator valve_Caleffi_121 DN15 - 1_2__-V1-Est - Idraulica
  1

  0
LWPOLYLINE
  5
1C8
330
1C7
100
AcDbEntity
  8
M-PIPE
100
AcDbPolyline
 90
       41
 70
   128
 43
0.0
 10
881.6664074431892
 20
1800.489263344249
 10
881.8863487812155
 20
1800.484863930885
 10
882.1059382600195
 20
1800.471672728914
 10
882.3248245832781
 20
1800.449710841446
 10
882.5426575795674
 20
1800.419013402816
 10
882.7590887625619
 20
1800.379629522377
 10
882.9737718885382
 20
1800.331622205936
 10
883.1863635102918
 20
1800.275068254959
 10
883.3965235265779
 20
1800.210058143703
 10
883.6039157262019
 20
1800.136695874478
 10
883.8082083258866
 20
1800.055098811266
 10
884.0090745010519
 20
1799.965397491959
 10
884.2061929086673
 20
1799.867735419535
 10
884.3992482013296
 20
1799.762268832477
 10
884.5879315317539
 20
1799.649166454823
 10
884.7719410468618
 20
1799.528609226253
 10
884.9509823706823
 20
1799.400790012613
 10
885.1247690752904
 20
1799.26591329738
 10
885.293023139032
 20
1799.124194854525
 10
885.4554753912971
 20
1798.975861403325
 10
885.6118659431365
 20
1798.821150245659
 10
885.7619446030287
 20
1798.660308886377
 10
885.9054712771333
 20
1798.493594637342
 10
886.0422163533892
 20
1798.321274205789
 10
886.1719610688446
 20
1798.143623267648
 10
886.2944978596328
 20
1797.960926026524
 10
886.4096306930274
 20
1797.77347475903
 10
886.5171753810564
 20
1797.581569347205
 10
886.6169598751598
 20
1797.385516798772
 10
886.708824541434
 20
1797.185630755984
 10
886.792622416009
 20
1796.982230993872
 10
886.8682194401618
 20
1796.775642908663
 10
886.9354946747799
 20
1796.566196997225
 10
886.9943404938396
 20
1796.354228328338
 10
887.0446627565835
 20
1796.140076006652
 10
887.0863809581257
 20
1795.924082630201
 10
887.1194283582434
 20
1795.706593742309
 10
887.1437520881462
 20
1795.487957278803
 10
887.1593132350549
 20
1795.268523011384
 10
887.1660869044539
 20
1795.04864198807
 10
887.1664074431892
 20
1794.989263344249
1001
REVIT
1002
{
1070
     3
1000
939838
1002
}
  0
LWPOLYLINE
  5
1C9
330
1C7
100
AcDbEntity
  8
M-PIPE
100
AcDbPolyline
 90
       41
 70
   128
 43
0.0
 10
887.1664074431889
 20
1751.747075844249
 10
887.1664074431889
 20
1753.476302131148
 10
887.1664074431889
 20
1755.20276202487
 10
887.1664074431889
 20
1756.923693557876
 10
887.1664074431889
 20
1758.636343606826
 10
887.1664074431889
 20
1760.337972296989
 10
887.1664074431889
 20
1762.025857385454
 10
887.1664074431889
 20
1763.697298616143
 10
887.1664074431892
 20
1765.349622039642
 10
887.1664074431892
 20
1766.98018429095
 10
887.1664074431892
 20
1768.586376818299
 10
887.1664074431892
 20
1770.165630056283
 10
887.1664074431889
 20
1771.71541753661
 10
887.1664074431889
 20
1773.233259929914
 10
887.1664074431889
 20
1774.716729012157
 10
887.1664074431889
 20
1776.163451549261
 10
887.1664074431889
 20
1777.571113093787
 10
887.1664074431889
 20
1778.937461687548
 10
887.1664074431889
 20
1780.260311464266
 10
887.1664074431889
 20
1781.537546146491
 10
887.1664074431889
 20
1782.767122431194
 10
887.1664074431889
 20
1783.947073258614
 10
887.1664074431889
 20
1785.075510959138
 10
887.1664074431889
 20
1786.150630273166
 10
887.1664074431889
 20
1787.170711239141
 10
887.1664074431889
 20
1788.134121945122
 10
887.1664074431889
 20
1789.039321139498
 10
887.1664074431889
 20
1789.884860696657
 10
887.1664074431889
 20
1790.669387933679
 10
887.1664074431889
 20
1791.391647774341
 10
887.1664074431889
 20
1792.050484756973
 10
887.1664074431892
 20
1792.644844882947
 10
887.1664074431892
 20
1793.17377730285
 10
887.1664074431892
 20
1793.636435837645
 10
887.1664074431892
 20
1794.03208033237
 10
887.1664074431892
 20
1794.360077840235
 10
887.1664074431892
 20
1794.619903635195
 10
887.1664074431892
 20
1794.811142051404
 10
887.1664074431892
 20
1794.933487148194
 10
887.1664074431892
 20
1794.986743199507
 10
887.1664074431892
 20
1794.989263344249
1001
REVIT
1002
{
1070
     3
1000
939838
1002
}
  0
LWPOLYLINE
  5
1CA
330
1C7
100
AcDbEntity
  8
M-PIPE
100
AcDbPolyline
 90
       23
 70
   128
 43
0.0
 10
887.1664074431892
 20
1794.989263344249
 10
887.1664074431892
 20
1794.954674206503
 10
887.1664074431892
 20
1794.850962128507
 10
887.1664074431892
 20
1794.678293027462
 10
887.1664074431892
 20
1794.436943137094
 10
887.1664074431892
 20
1794.127298565744
 10
887.1664074431892
 20
1793.749854678671
 10
887.1664074431892
 20
1793.305215305579
 10
887.1664074431892
 20
1792.794091774611
 10
887.1664074431889
 20
1792.217301774385
 10
887.1664074431889
 20
1791.575768045859
 10
887.1664074431889
 20
1790.870516906144
 10
887.1664074431889
 20
1790.102676606619
 10
887.1664074431889
 20
1789.273475527966
 10
887.1664074431889
 20
1788.384240215025
 10
887.1664074431889
 20
1787.436393254601
 10
887.1664074431889
 20
1786.431450999636
 10
887.1664074431889
 20
1785.371021143362
 10
887.1664074431889
 20
1784.256800147334
 10
887.1664074431889
 20
1783.09057052746
 10
887.1664074431889
 20
1781.874198002347
 10
887.1664074431889
 20
1780.609628508559
 10
887.1664074431889
 20
1779.747075844249
1001
REVIT
1002
{
1070
     3
1000
939838
1002
}
  0
LINE
  5
1CB
330
1C7
100
AcDbEntity
  8
M-PIPE
100
AcDbLine
 10
881.6664074431892
 20
1800.489263344249
 30
0.0
 11
880.5726574431893
 21
1800.489263344249
 31
0.0
1001
REVIT
1002
{
1070
     3
1000
939838
1002
}
  0
LINE
  5
1CC
330
1C7
100
AcDbEntity
  8
M-PIPE
100
AcDbLine
 10
877.5726574431892
 20
1800.489263344249
 30
0.0
 11
864.9024452548246
 21
1800.489263344249
 31
0.0
1001
REVIT
1002
{
1070
     3
1000
939838
1002
}
  0
LWPOLYLINE
  5
1CD
330
1C7
100
AcDbEntity
  8
M-PIPE
100
AcDbPolyline
 90
       80
 70
   128
 43
0.0
 10
750.760701544311
 20
1799.86181471892
 10
750.7613572831973
 20
1799.829032146307
 10
750.764954883735
 20
1799.769144106633
 10
750.770944489408
 20
1799.709447836654
 10
750.7793165181254
 20
1799.650038837666
 10
750.7900575764271
 20
1799.591012151395
 10
750.8031504809109
 20
1799.532462207947
 10
750.8185742857229
 20
1799.474482674741
 10
750.8363043160651
 20
1799.417166306663
 10
750.856312207672
 20
1799.360604797675
 10
750.8785659521845
 20
1799.304888634124
 10
750.903029948359
 20
1799.250106949989
 10
750.9296650590201
 20
1799.196347384275
 10
750.9584286736724
 20
1799.143695940822
 10
750.9892747766687
 20
1799.092236850706
 10
751.0221540208244
 20
1799.042052437495
 10
751.0570138063624
 20
1798.993222985544
 10
751.0937983650625
 20
1798.94582661156
 10
751.1324488494775
 20
1798.89993913963
 10
751.1729034270776
 20
1798.855633979921
 10
751.2150973791681
 20
1798.812982011238
 10
751.258963204427
 20
1798.772051467631
 10
751.3044307268909
 20
1798.732907829239
 10
751.3514272082237
 20
1798.695613717532
 10
751.3998774640801
 20
1798.660228795136
 10
751.4497039843866
 20
1798.626809670375
 10
751.5008270573397
 20
1798.595409806722
 10
751.5531648969282
 20
1798.56607943726
 10
751.606633773774
 20
1798.538865484323
 10
751.6611481490796
 20
1798.513811484429
 10
751.7166208114739
 20
1798.490957518637
 10
751.7729630165307
 20
1798.470340148413
 10
751.8300846287409
 20
1798.451992357153
 10
751.8878942657103
 20
1798.43594349741
 10
751.9462994443519
 20
1798.422219243934
 10
752.0052067288386
 20
1798.410841552604
 10
752.0645218800817
 20
1798.4018286253
 10
752.1241500064925
 20
1798.395194880781
 10
752.1839957157886
 20
1798.390950931624
 10
752.2439632676015
 20
1798.389103567242
 10
752.3039567266408
 20
1798.389655743025
 10
752.3638801161701
 20
1798.392606575609
 10
752.4236375715489
 20
1798.39795134429
 10
752.4831334935959
 20
1798.40568149858
 10
752.5422727015283
 20
1798.415784671881
 10
752.6009605852286
 20
1798.42824470127
 10
752.6591032566025
 20
1798.443041653358
 10
752.7166076997787
 20
1798.46015185618
 10
752.7733819199153
 20
1798.479547937059
 10
752.8293350903711
 20
1798.501198866405
 10
752.8843776980096
 20
1798.525070007349
 10
752.9384216864002
 20
1798.551123171157
 10
752.9913805966905
 20
1798.579316678326
 10
753.0431697059209
 20
1798.609605425258
 10
753.0937061625648
 20
1798.641940956419
 10
753.142909119072
 20
1798.676271541858
 10
753.190699861208
 20
1798.712542259961
 10
753.2370019339804
 20
1798.750695085316
 10
753.2817412639495
 20
1798.790668981542
 10
753.3248462777322
 20
1798.832399998932
 10
753.366248016501
 20
1798.875821376761
 10
753.4058802463056
 20
1798.920863650086
 10
753.4436795640332
 20
1798.967454760879
 10
753.4795854988388
 20
1799.015520173301
 10
753.5135406088861
 20
1799.064982992947
 10
753.5454905732422
 20
1799.115764089855
 10
753.5753842787803
 20
1799.167782225104
 10
753.6031739019482
 20
1799.220954180774
 10
753.628814985277
 20
1799.275194893079
 10
753.652266508503
 20
1799.33041758845
 10
753.673490954192
 20
1799.386533922353
 10
753.6924543677585
 20
1799.443454120627
 10
753.709126411786
 20
1799.501087123095
 10
753.7234804145606
 20
1799.559340729249
 10
753.7354934127399
 20
1799.618121745746
 10
753.7451461880897
 20
1799.677336135497
 10
753.7524232982283
 20
1799.736889168112
 10
753.7573131013317
 20
1799.796685571442
 10
753.7598077747584
 20
1799.856629683998
 10
753.760157443189
 20
1799.889016147587
1001
REVIT
1002
{
1070
     3
1000
939838
1002
}
  0
LINE
  5
1CE
330
1C7
100
AcDbEntity
  8
M-PIPE
100
AcDbLine
 10
766.4303696315746
 20
1800.48926334425
 30
0.0
 11
753.760157443189
 21
1800.48926334425
 31
0.0
1001
REVIT
1002
{
1070
     3
1000
939838
1002
}
  0
LINE
  5
1CF
330
1C7
100
AcDbEntity
  8
M-PIPE
100
AcDbLine
 10
750.7601574431888
 20
1800.48926334425
 30
0.0
 11
749.6664074431889
 21
1800.48926334425
 31
0.0
1001
REVIT
1002
{
1070
     3
1000
939838
1002
}
  0
LWPOLYLINE
  5
1D0
330
1C7
100
AcDbEntity
  8
M-PIPE
100
AcDbPolyline
 90
       41
 70
   128
 43
0.0
 10
744.1664074431891
 20
1794.98926334425
 10
744.1708068565536
 20
1795.209204682276
 10
744.1839980585247
 20
1795.42879416108
 10
744.2059599459927
 20
1795.647680484339
 10
744.2366573846231
 20
1795.865513480628
 10
744.2760412650621
 20
1796.081944663623
 10
744.3240485815029
 20
1796.296627789599
 10
744.3806025324798
 20
1796.509219411352
 10
744.4456126437357
 20
1796.719379427638
 10
744.5189749129603
 20
1796.926771627263
 10
744.6005719761733
 20
1797.131064226947
 10
744.6902732954793
 20
1797.331930402113
 10
744.787935367903
 20
1797.529048809728
 10
744.893401954962
 20
1797.72210410239
 10
745.0065043326152
 20
1797.910787432815
 10
745.1270615611856
 20
1798.094796947922
 10
745.2548807748253
 20
1798.273838271743
 10
745.3897574900587
 20
1798.447624976351
 10
745.5314759329139
 20
1798.615879040093
 10
745.679809384114
 20
1798.778331292358
 10
745.8345205417795
 20
1798.934721844197
 10
745.9953619010619
 20
1799.084800504089
 10
746.1620761500967
 20
1799.228327178194
 10
746.3343965816497
 20
1799.36507225445
 10
746.5120475197904
 20
1799.494816969905
 10
746.6947447609141
 20
1799.617353760693
 10
746.8821960284087
 20
1799.732486594088
 10
747.0741014402334
 20
1799.840031282117
 10
747.2701539886672
 20
1799.939815776221
 10
747.4700400314546
 20
1800.031680442495
 10
747.6734397935673
 20
1800.11547831707
 10
747.8800278787758
 20
1800.191075341222
 10
748.0894737902132
 20
1800.25835057584
 10
748.3014424591009
 20
1800.3171963949
 10
748.5155947807863
 20
1800.367518657644
 10
748.7315881572377
 20
1800.409236859186
 10
748.9490770451292
 20
1800.442284259304
 10
749.1677135086354
 20
1800.466607989207
 10
749.3871477760541
 20
1800.482169136115
 10
749.6070287993684
 20
1800.488942805515
 10
749.6664074431889
 20
1800.48926334425
1001
REVIT
1002
{
1070
     3
1000
939838
1002
}
  0
LWPOLYLINE
  5
1D1
330
1C7
100
AcDbEntity
  8
M-PIPE
100
AcDbPolyline
 90
       24
 70
   128
 43
0.0
 10
744.1664074431887
 20
1779.747075844249
 10
744.1664074431887
 20
1780.260311464266
 10
744.1664074431887
 20
1781.537546146491
 10
744.1664074431887
 20
1782.767122431194
 10
744.1664074431887
 20
1783.947073258614
 10
744.1664074431887
 20
1785.075510959138
 10
744.1664074431887
 20
1786.150630273166
 10
744.1664074431887
 20
1787.17071123914
 10
744.1664074431887
 20
1788.134121945122
 10
744.1664074431887
 20
1789.039321139498
 10
744.1664074431887
 20
1789.884860696657
 10
744.1664074431887
 20
1790.669387933679
 10
744.1664074431887
 20
1791.391647774341
 10
744.1664074431887
 20
1792.050484756973
 10
744.1664074431888
 20
1792.644844882947
 10
744.1664074431888
 20
1793.17377730285
 10
744.1664074431891
 20
1793.636435837645
 10
744.1664074431891
 20
1794.03208033237
 10
744.1664074431891
 20
1794.360077840235
 10
744.1664074431891
 20
1794.619903635195
 10
744.1664074431891
 20
1794.811142051404
 10
744.1664074431891
 20
1794.933487148194
 10
744.1664074431891
 20
1794.986743199507
 10
744.1664074431891
 20
1794.98926334425
1001
REVIT
1002
{
1070
     3
1000
939838
1002
}
  0
LWPOLYLINE
  5
1D2
330
1C7
100
AcDbEntity
  8
M-PIPE
100
AcDbPolyline
 90
       41
 70
   128
 43
0.0
 10
744.1664074431891
 20
1794.98926334425
 10
744.1664074431891
 20
1794.954674206504
 10
744.1664074431891
 20
1794.850962128507
 10
744.1664074431891
 20
1794.678293027462
 10
744.1664074431891
 20
1794.436943137094
 10
744.1664074431891
 20
1794.127298565744
 10
744.1664074431891
 20
1793.749854678672
 10
744.1664074431891
 20
1793.305215305579
 10
744.1664074431891
 20
1792.794091774612
 10
744.1664074431888
 20
1792.217301774385
 10
744.1664074431888
 20
1791.575768045859
 10
744.1664074431888
 20
1790.870516906144
 10
744.1664074431888
 20
1790.10267660662
 10
744.1664074431888
 20
1789.273475527967
 10
744.1664074431888
 20
1788.384240215025
 10
744.1664074431888
 20
1787.436393254602
 10
744.1664074431888
 20
1786.431450999637
 10
744.1664074431888
 20
1785.371021143362
 10
744.1664074431888
 20
1784.256800147334
 10
744.1664074431888
 20
1783.09057052746
 10
744.1664074431888
 20
1781.874198002348
 10
744.1664074431888
 20
1780.60962850856
 10
744.1664074431888
 20
1779.298885087524
 10
744.1664074431888
 20
1777.944064649106
 10
744.1664074431888
 20
1776.547334616992
 10
744.1664074431888
 20
1775.110929461282
 10
744.1664074431888
 20
1773.637147123808
 10
744.1664074431888
 20
1772.128345341919
 10
744.1664074431891
 20
1770.586937876606
 10
744.1664074431891
 20
1769.015390650998
 10
744.1664074431891
 20
1767.416217805409
 10
744.1664074431891
 20
1765.791977675255
 10
744.1664074431888
 20
1764.145268698257
 10
744.1664074431888
 20
1762.478725257499
 10
744.1664074431888
 20
1760.795013466976
 10
744.1664074431887
 20
1759.096826906381
 10
744.1664074431887
 20
1757.38688231195
 10
744.1664074431887
 20
1755.667915230265
 10
744.1664074431887
 20
1753.942675641963
 10
744.1664074431887
 20
1752.213923562355
 10
744.1664074431887
 20
1751.74707584425
1001
REVIT
1002
{
1070
     3
1000
939838
1002
}
  0
LWPOLYLINE
  5
1D3
330
1C7
100
AcDbEntity
  8
M-PIPE
100
AcDbPolyline
 90
       80
 70
   128
 43
0.0
 10
877.5732044811393
 20
1799.861667897104
 10
877.5738572831979
 20
1799.829032146307
 10
877.5774548837354
 20
1799.769144106633
 10
877.5834444894085
 20
1799.709447836653
 10
877.5918165181259
 20
1799.650038837665
 10
877.6025575764275
 20
1799.591012151394
 10
877.6156504809112
 20
1799.532462207946
 10
877.6310742857232
 20
1799.474482674741
 10
877.6488043160657
 20
1799.417166306662
 10
877.6688122076725
 20
1799.360604797674
 10
877.6910659521849
 20
1799.304888634124
 10
877.7155299483593
 20
1799.250106949988
 10
877.7421650590202
 20
1799.196347384275
 10
877.7709286736728
 20
1799.143695940821
 10
877.8017747766691
 20
1799.092236850706
 10
877.8346540208247
 20
1799.042052437494
 10
877.8695138063628
 20
1798.993222985543
 10
877.9062983650629
 20
1798.945826611559
 10
877.9449488494778
 20
1798.89993913963
 10
877.985403427078
 20
1798.855633979921
 10
878.0275973791685
 20
1798.812982011237
 10
878.0714632044274
 20
1798.77205146763
 10
878.1169307268914
 20
1798.732907829238
 10
878.1639272082239
 20
1798.695613717532
 10
878.2123774640806
 20
1798.660228795135
 10
878.2622039843872
 20
1798.626809670375
 10
878.3133270573401
 20
1798.595409806722
 10
878.3656648969287
 20
1798.566079437259
 10
878.4191337737741
 20
1798.538865484322
 10
878.4736481490799
 20
1798.513811484429
 10
878.5291208114742
 20
1798.490957518636
 10
878.585463016531
 20
1798.470340148412
 10
878.6425846287414
 20
1798.451992357153
 10
878.7003942657108
 20
1798.435943497409
 10
878.7587994443523
 20
1798.422219243934
 10
878.8177067288389
 20
1798.410841552604
 10
878.877021880082
 20
1798.401828625299
 10
878.9366500064927
 20
1798.39519488078
 10
878.996495715789
 20
1798.390950931623
 10
879.0564632676019
 20
1798.389103567242
 10
879.1164567266411
 20
1798.389655743024
 10
879.1763801161705
 20
1798.392606575608
 10
879.236137571549
 20
1798.39795134429
 10
879.2956334935965
 20
1798.40568149858
 10
879.3547727015285
 20
1798.41578467188
 10
879.4134605852288
 20
1798.42824470127
 10
879.4716032566027
 20
1798.443041653358
 10
879.5291076997791
 20
1798.460151856179
 10
879.5858819199157
 20
1798.479547937059
 10
879.6418350903715
 20
1798.501198866404
 10
879.6968776980101
 20
1798.525070007348
 10
879.7509216864007
 20
1798.551123171157
 10
879.8038805966909
 20
1798.579316678325
 10
879.8556697059213
 20
1798.609605425258
 10
879.9062061625653
 20
1798.641940956419
 10
879.9554091190724
 20
1798.676271541857
 10
880.0031998612082
 20
1798.71254225996
 10
880.0495019339805
 20
1798.750695085315
 10
880.0942412639502
 20
1798.790668981541
 10
880.1373462777325
 20
1798.832399998931
 10
880.1787480165012
 20
1798.87582137676
 10
880.218380246306
 20
1798.920863650085
 10
880.2561795640336
 20
1798.967454760878
 10
880.2920854988393
 20
1799.0155201733
 10
880.3260406088865
 20
1799.064982992946
 10
880.3579905732428
 20
1799.115764089855
 10
880.3878842787808
 20
1799.167782225104
 10
880.4156739019488
 20
1799.220954180774
 10
880.4413149852774
 20
1799.275194893079
 10
880.4647665085035
 20
1799.330417588449
 10
880.4859909541924
 20
1799.386533922353
 10
880.5049543677586
 20
1799.443454120626
 10
880.5216264117865
 20
1799.501087123095
 10
880.5359804145611
 20
1799.559340729249
 10
880.5479934127403
 20
1799.618121745746
 10
880.5576461880901
 20
1799.677336135497
 10
880.5649232982284
 20
1799.736889168112
 10
880.569813101332
 20
1799.796685571442
 10
880.5723077747586
 20
1799.856629683998
 10
880.5726574431893
 20
1799.889016147587
1001
REVIT
1002
{
1070
     3
1000
939838
1002
}
  0
LINE
  5
1D4
330
1C7
100
AcDbEntity
  8
M-PIPE
100
AcDbLine
 10
884.9811755501837
 20
1751.747075844248
 30
0.0
 11
887.1664074431874
 21
1751.747075844248
 31
0.0
1001
REVIT
1002
{
1070
     3
1000
939838
1002
}
  0
LINE
  5
1D5
330
1C7
100
AcDbEntity
  8
M-PIPE
100
AcDbLine
 10
880.5726574431879
 20
1800.489263344248
 30
0.0
 11
880.5726574431878
 21
1757.916381040979
 31
0.0
1001
REVIT
1002
{
1070
     3
1000
939838
1002
}
  0
LINE
  5
1D6
330
1C7
100
AcDbEntity
  8
M-PIPE
100
AcDbLine
 10
877.5726574431875
 20
1759.645541660197
 30
0.0
 11
877.5726574431876
 21
1800.489263344248
 31
0.0
1001
REVIT
1002
{
1070
     3
1000
939838
1002
}
  0
LINE
  5
1D7
330
1C7
100
AcDbEntity
  8
M-PIPE
100
AcDbLine
 10
750.7601574431873
 20
1800.489263344249
 30
0.0
 11
750.7601574431872
 21
1757.92935373048
 31
0.0
1001
REVIT
1002
{
1070
     3
1000
939838
1002
}
  0
LINE
  5
1D8
330
1C7
100
AcDbEntity
  8
M-PIPE
100
AcDbLine
 10
753.7601574431874
 20
1759.658446615927
 30
0.0
 11
753.7601574431877
 21
1800.489263344249
 31
0.0
1001
REVIT
1002
{
1070
     3
1000
939838
1002
}
  0
LINE
  5
1D9
330
1C7
100
AcDbEntity
  8
M-PIPE
100
AcDbLine
 10
744.1664074431874
 20
1751.747075844249
 30
0.0
 11
746.3551236271912
 21
1751.747075844249
 31
0.0
1001
REVIT
1002
{
1070
     3
1000
939838
1002
}
  0
LINE
  5
1DA
330
1C7
100
AcDbEntity
  8
M-PIPE
100
AcDbLine
 10
786.1674667842134
 20
1743.997075844252
 30
0.0
 11
791.7314306836328
 21
1740.78471978916
 31
0.0
1001
REVIT
1002
{
1070
     3
1000
938184
1002
}
  0
LWPOLYLINE
  5
1DB
330
1C7
100
AcDbEntity
  8
M-PIPE
100
AcDbPolyline
 90
       14
 70
   128
 43
0.0
 10
786.1674667842137
 20
1759.497075844252
 10
785.8811454504084
 20
1758.311233674712
 10
785.6424741819413
 20
1757.114890252922
 10
785.4518348019281
 20
1755.909959473152
 10
785.3095322927091
 20
1754.698368967609
 10
785.2157943079429
 20
1753.482057022645
 10
785.1707708084085
 20
1752.262969477905
 10
785.1745338221008
 20
1751.043056613403
 10
785.2270773290009
 20
1749.824270029487
 10
785.3283172707062
 20
1748.608559524698
 10
785.4780916849064
 20
1747.397869976506
 10
785.6761609644896
 20
1746.194138229921
 10
785.9222082408606
 20
1744.999289998956
 10
786.1674667842134
 20
1743.997075844252
1001
REVIT
1002
{
1070
     3
1000
938184
1002
}
  0
LINE
  5
1DC
330
1C7
100
AcDbEntity
  8
M-PIPE
100
AcDbLine
 10
792.8098807102758
 20
1763.332075312532
 30
0.0
 11
786.1674667842137
 21
1759.497075844252
 31
0.0
1001
REVIT
1002
{
1070
     3
1000
938184
1002
}
  0
LWPOLYLINE
  5
1DD
330
1C7
100
AcDbEntity
  8
M-PIPE
100
AcDbPolyline
 90
       55
 70
   128
 43
0.0
 10
838.522934176141
 20
1763.33207531251
 10
838.0090752926989
 20
1764.236179754632
 10
837.4594729068791
 20
1765.119012135019
 10
836.8750062652571
 20
1765.979160110189
 10
836.256610389779
 20
1766.81524762687
 10
835.6052745819292
 20
1767.625937123391
 10
834.9220408400553
 20
1768.409931669497
 10
834.208002192396
 20
1769.165977041156
 10
833.4643009484674
 20
1769.892863727054
 10
832.6921268716116
 20
1770.589428863556
 10
831.8927152756298
 20
1771.254558095035
 10
831.0673450485444
 20
1771.887187356608
 10
830.2173366066481
 20
1772.48630457641
 10
829.3440497821233
 20
1773.050951294694
 10
828.4488816475976
 20
1773.580224197163
 10
827.5332642811273
 20
1774.073276560077
 10
826.5986624751773
 20
1774.529319604836
 10
825.646571393266
 20
1774.947623759852
 10
824.6785141780229
 20
1775.327519827709
 10
823.6960395144844
 20
1775.668400055741
 10
822.7007191525286
 20
1775.969719108298
 10
821.6941453924112
 20
1776.230994939175
 10
820.6779285374237
 20
1776.451809562778
 10
819.653694317753
 20
1776.631809722815
 10
818.6230812896585
 20
1776.770707457427
 10
817.5877382141337
 20
1776.868280559869
 10
816.5493214192371
 20
1776.924372933991
 10
815.5094921503236
 20
1776.93889484396
 10
814.4699139124057
 20
1776.911823057819
 10
813.4322498088986
 20
1776.84320088465
 10
812.3981598810114
 20
1776.733138105291
 10
811.3692984520346
 20
1776.581810796711
 10
810.3473114807762
 20
1776.389461050323
 10
809.3338339283778
 20
1776.156396584687
 10
808.3304871427257
 20
1775.882990253231
 10
807.338876264642
 20
1775.569679447762
 10
806.3605876599984
 20
1775.216965398733
 10
805.3971863818727
 20
1774.82541237338
 10
804.4502136667944
 20
1774.395646773017
 10
803.521184469098
 20
1773.928356130927
 10
802.6115850373175
 20
1773.424288012452
 10
801.7228705365065
 20
1772.884248819055
 10
800.8564627202831
 20
1772.309102498241
 10
800.0137476563303
 20
1771.699769161434
 10
799.1960735089804
 20
1771.057223611987
 10
798.4047483824415
 20
1770.382493785711
 10
797.6410382281089
 20
1769.676659106394
 10
796.9061648193136
 20
1768.940848758952
 10
796.2013037967446
 20
1768.176239882976
 10
795.527582787676
 20
1767.384055689561
 10
794.8860796020028
 20
1766.565563504424
 10
794.2778205079754
 20
1765.722072740462
 10
793.7037785903888
 20
1764.854932802959
 10
793.1648721938564
 20
1763.965530930837
 10
792.8098807102758
 20
1763.332075312532
1001
REVIT
1002
{
1070
     3
1000
938184
1002
}
  0
LINE
  5
1DE
330
1C7
100
AcDbEntity
  8
M-PIPE
100
AcDbLine
 10
845.1653481021653
 20
1759.497075844251
 30
0.0
 11
838.522934176141
 21
1763.33207531251
 31
0.0
1001
REVIT
1002
{
1070
     3
1000
938184
1002
}
  0
LWPOLYLINE
  5
1DF
330
1C7
100
AcDbEntity
  8
M-PIPE
100
AcDbPolyline
 90
       14
 70
   128
 43
0.0
 10
845.1653481021653
 20
1743.997075844251
 10
845.4516694359702
 20
1745.18291801379
 10
845.6903407044373
 20
1746.37926143558
 10
845.8809800844504
 20
1747.584192215351
 10
846.0232825936696
 20
1748.795782720893
 10
846.1170205784357
 20
1750.012094665857
 10
846.1620440779702
 20
1751.231182210597
 10
846.1582810642777
 20
1752.4510950751
 10
846.1057375573778
 20
1753.669881659015
 10
846.0044976156725
 20
1754.885592163805
 10
845.8547232014719
 20
1756.096281711997
 10
845.656653921889
 20
1757.300013458581
 10
845.410606645518
 20
1758.494861689547
 10
845.1653481021653
 20
1759.497075844251
1001
REVIT
1002
{
1070
     3
1000
938184
1002
}
  0
LINE
  5
1E0
330
1C7
100
AcDbEntity
  8
M-PIPE
100
AcDbLine
 10
839.6013842027803
 20
1740.78471978918
 30
0.0
 11
845.1653481021653
 21
1743.997075844251
 31
0.0
1001
REVIT
1002
{
1070
     3
1000
938184
1002
}
  0
LWPOLYLINE
  5
1E1
330
1C7
100
AcDbEntity
  8
M-PIPE
100
AcDbPolyline
 90
       60
 70
   128
 43
0.0
 10
791.7314306836328
 20
1740.78471978916
 10
792.1566537472052
 20
1739.835698640521
 10
792.6194874015444
 20
1738.904440994771
 10
793.1191912115362
 20
1737.992436665484
 10
793.6549657576827
 20
1737.101144665038
 10
794.2259539150021
 20
1736.231990870501
 10
794.8312422242472
 20
1735.386365742534
 10
795.4698623532443
 20
1734.565622100951
 10
796.1407926460188
 20
1733.771072960498
 10
796.8429597572264
 20
1733.003989430303
 10
797.5752403692771
 20
1732.26559868038
 10
798.3364629894031
 20
1731.557081978413
 10
799.1254098237973
 20
1730.879572799982
 10
799.9408187258244
 20
1730.234155015247
 10
800.7813852151862
 20
1729.621861154981
 10
801.6457645648108
 20
1729.043670758744
 10
802.5325739521298
 20
1728.50050880783
 10
803.4403946712993
 20
1727.993244245492
 10
804.3677744028272
 20
1727.522688586819
 10
805.3132295369728
 20
1727.089594620484
 10
806.2752475472086
 20
1726.694655204446
 10
807.2522894099373
 20
1726.338502157522
 10
808.2427920666029
 20
1726.021705248611
 10
809.2451709242512
 20
1725.744771285186
 10
810.2578223905389
 20
1725.508143302515
 10
811.2791264391409
 20
1725.312199854891
 10
812.3074492014461
 20
1725.157254410031
 10
813.3411455803985
 20
1725.043554847594
 10
814.3785618823022
 20
1724.971283062625
 10
815.4180384623774
 20
1724.940554674563
 10
816.4579123798393
 20
1724.951418842273
 10
817.496520058248
 20
1725.003858185406
 10
818.532199946876
 20
1725.097788812197
 10
819.5632951788347
 20
1725.233060453684
 10
820.5881562217076
 20
1725.409456704094
 10
821.6051435164525
 20
1725.626695367056
 10
822.6126301003427
 20
1725.884428907052
 10
823.6090042097632
 20
1726.182245005399
 10
824.5926718586877
 20
1726.519667219868
 10
825.5620593887156
 20
1726.896155746897
 10
826.5156159865904
 20
1727.311108285156
 10
827.4518161651698
 20
1727.763860999101
 10
828.3691622038812
 20
1728.253689580973
 10
829.2661865447517
 20
1728.779810409532
 10
830.1414541401911
 20
1729.341381803686
 10
830.9935647487606
 20
1729.937505368998
 10
831.8211551752606
 20
1730.567227434932
 10
832.6229014515515
 20
1731.229540580514
 10
833.3975209546217
 20
1731.923385245999
 10
834.1437744585091
 20
1732.647651427933
 10
834.8604681168005
 20
1733.401180454927
 10
835.5464553725282
 20
1734.182766841283
 10
836.20063879242
 20
1734.991160215512
 10
836.8219718225555
 20
1735.825067320662
 10
837.4094604626302
 20
1736.683154083257
 10
837.9621648561446
 20
1737.564047747525
 10
838.4792007939728
 20
1738.466339071518
 10
838.9597411289097
 20
1739.388584581595
 10
839.4030170989287
 20
1740.329308881675
 10
839.6013842027803
 20
1740.78471978918
1001
REVIT
1002
{
1070
     3
1000
938184
1002
}
  0
SPLINE
  5
1E2
330
1C7
100
AcDbEntity
  8
M-PIPE
100
AcDbSpline
210
0.0
220
0.0
230
1.0
 70
     8
 71
     3
 72
    14
 73
    10
 74
     0
 42
0.000000001
 43
0.0000000001
 40
0.0
 40
0.0
 40
0.0
 40
0.0
 40
0.1428571428571428
 40
0.2857142857142857
 40
0.4285714285714286
 40
0.5714285714285714
 40
0.6785714285714287
 40
0.7857142857142857
 40
1.0
 40
1.0
 40
1.0
 40
1.0
 10
789.2273773336095
 20
1746.271887549187
 30
0.0
 10
789.0054029981402
 20
1746.113367249811
 30
0.0
 10
788.5651645425852
 20
1745.790433213368
 30
0.0
 10
787.9284287808529
 20
1745.322616706062
 30
0.0
 10
787.3479658048895
 20
1744.890049691654
 30
0.0
 10
786.8924822362222
 20
1744.547491636624
 30
0.0
 10
786.5604582405447
 20
1744.296535009723
 30
0.0
 10
786.262792374943
 20
1744.069758339435
 30
0.0
 10
786.1681539418273
 20
1743.996679113617
 30
0.0
 10
786.1674667842119
 20
1743.997075844251
 30
0.0
1001
REVIT
1002
{
1070
     3
1000
938184
1002
}
  0
SPLINE
  5
1E3
330
1C7
100
AcDbEntity
  8
M-PIPE
100
AcDbSpline
210
0.0
220
0.0
230
1.0
 70
     8
 71
     3
 72
    13
 73
     9
 74
     0
 42
0.000000001
 43
0.0000000001
 40
-1.0
 40
-1.0
 40
-1.0
 40
-1.0
 40
-0.8333333333333332
 40
-0.6666666666666666
 40
-0.5
 40
-0.3333333333333333
 40
-0.1666666666666666
 40
0.0
 40
0.0
 40
0.0
 40
0.0
 10
789.2273773336096
 20
1757.222264139314
 30
0.0
 10
788.9473775787463
 20
1757.413289415183
 30
0.0
 10
788.4028445085999
 20
1757.804237374432
 30
0.0
 10
787.6699020617796
 20
1758.3669976699
 30
0.0
 10
787.0310560049034
 20
1758.844786406217
 30
0.0
 10
786.5395885936208
 20
1759.210678579174
 30
0.0
 10
786.2429739809764
 20
1759.447809113372
 30
0.0
 10
786.1705875276006
 20
1759.498877606286
 30
0.0
 10
786.1674667842121
 20
1759.497075844251
 30
0.0
1001
REVIT
1002
{
1070
     3
1000
938184
1002
}
  0
SPLINE
  5
1E4
330
1C7
100
AcDbEntity
  8
M-PIPE
100
AcDbSpline
210
0.0
220
0.0
230
1.0
 70
     8
 71
     3
 72
    13
 73
     9
 74
     0
 42
0.000000001
 43
0.0000000001
 40
0.0
 40
0.0
 40
0.0
 40
0.0
 40
0.1428571428571428
 40
0.2857142857142857
 40
0.4285714285714286
 40
0.5714285714285714
 40
0.7857142857142857
 40
1.0
 40
1.0
 40
1.0
 40
1.0
 10
795.4492833782843
 20
1760.814483269079
 30
0.0
 10
795.2536617868852
 20
1760.995472034267
 30
0.0
 10
794.8656935725389
 20
1761.361636386243
 30
0.0
 10
794.3080411318122
 20
1761.888967884953
 30
0.0
 10
793.8052363336423
 20
1762.369686382465
 30
0.0
 10
793.3100339178801
 20
1762.846355150832
 30
0.0
 10
792.9139301095577
 20
1763.230582447399
 30
0.0
 10
792.8102022058233
 20
1763.332260928073
 30
0.0
 10
792.8098807102742
 20
1763.332075312531
 30
0.0
1001
REVIT
1002
{
1070
     3
1000
938184
1002
}
  0
SPLINE
  5
1E5
330
1C7
100
AcDbEntity
  8
M-PIPE
100
AcDbSpline
210
0.0
220
0.0
230
1.0
 70
     8
 71
     3
 72
    11
 73
     7
 74
     0
 42
0.000000001
 43
0.0000000001
 40
-1.0
 40
-1.0
 40
-1.0
 40
-1.0
 40
-0.8333333333333332
 40
-0.6666666666666666
 40
-0.5
 40
-0.3333333333333333
 40
-0.3333333333333333
 40
-0.3333333333333333
 40
-0.3333333333333333
 10
835.8835315081277
 20
1760.814483269059
 30
0.0
 10
836.1214287080295
 20
1761.028144126941
 30
0.0
 10
836.588391049125
 20
1761.462571338366
 30
0.0
 10
837.2242629500767
 20
1762.082747996627
 30
0.0
 10
837.7862905997099
 20
1762.615895987313
 30
0.0
 10
838.0727269026875
 20
1762.885229290426
 30
0.0
 10
838.1862379801122
 20
1762.995005913624
 30
0.0
1001
REVIT
1002
{
1070
     3
1000
938184
1002
}
  0
SPLINE
  5
1E6
330
1C7
100
AcDbEntity
  8
M-PIPE
100
AcDbSpline
210
0.0
220
0.0
230
1.0
 70
     8
 71
     3
 72
     9
 73
     5
 74
     0
 42
0.000000001
 43
0.0000000001
 40
-0.3325048870486646
 40
-0.3325048870486646
 40
-0.3325048870486646
 40
-0.3325048870486646
 40
-0.1666666666666666
 40
0.0
 40
0.0
 40
0.0
 40
0.0
 10
838.1879284593173
 20
1762.99664106094
 30
0.0
 10
838.3005814959137
 20
1763.105625728365
 30
0.0
 10
838.4674972035433
 20
1763.274697520922
 30
0.0
 10
838.5237434542849
 20
1763.331608075554
 30
0.0
 10
838.5229341761395
 20
1763.332075312509
 30
0.0
1001
REVIT
1002
{
1070
     3
1000
938184
1002
}
  0
SPLINE
  5
1E7
330
1C7
100
AcDbEntity
  8
M-PIPE
100
AcDbSpline
210
0.0
220
0.0
230
1.0
 70
     8
 71
     3
 72
    14
 73
    10
 74
     0
 42
0.000000001
 43
0.0000000001
 40
0.0
 40
0.0
 40
0.0
 40
0.0
 40
0.1428571428571428
 40
0.2857142857142857
 40
0.4285714285714286
 40
0.5714285714285714
 40
0.6785714285714287
 40
0.7857142857142857
 40
1.0
 40
1.0
 40
1.0
 40
1.0
 10
842.1054375527662
 20
1757.222264139313
 30
0.0
 10
842.3274118882353
 20
1757.380784438689
 30
0.0
 10
842.7676503437904
 20
1757.703718475133
 30
0.0
 10
843.4043861055227
 20
1758.171534982439
 30
0.0
 10
843.984849081486
 20
1758.604101996846
 30
0.0
 10
844.4403326501532
 20
1758.946660051877
 30
0.0
 10
844.7723566458305
 20
1759.197616678777
 30
0.0
 10
845.0700225114324
 20
1759.424393349066
 30
0.0
 10
845.164660944548
 20
1759.497472574884
 30
0.0
 10
845.1653481021635
 20
1759.49707584425
 30
0.0
1001
REVIT
1002
{
1070
     3
1000
938184
1002
}
  0
SPLINE
  5
1E8
330
1C7
100
AcDbEntity
  8
M-PIPE
100
AcDbSpline
210
0.0
220
0.0
230
1.0
 70
     8
 71
     3
 72
    13
 73
     9
 74
     0
 42
0.000000001
 43
0.0000000001
 40
-1.0
 40
-1.0
 40
-1.0
 40
-1.0
 40
-0.8333333333333332
 40
-0.6666666666666666
 40
-0.5
 40
-0.3333333333333333
 40
-0.1666666666666666
 40
0.0
 40
0.0
 40
0.0
 40
0.0
 10
842.1054375527662
 20
1746.271887549187
 30
0.0
 10
842.3854373076293
 20
1746.080862273318
 30
0.0
 10
842.9299703777756
 20
1745.689914314069
 30
0.0
 10
843.6629128245959
 20
1745.127154018601
 30
0.0
 10
844.3017588814722
 20
1744.649365282284
 30
0.0
 10
844.7932262927549
 20
1744.283473109326
 30
0.0
 10
845.0898409053992
 20
1744.046342575128
 30
0.0
 10
845.1622273587751
 20
1743.995274082215
 30
0.0
 10
845.1653481021635
 20
1743.99707584425
 30
0.0
1001
REVIT
1002
{
1070
     3
1000
938184
1002
}
  0
SPLINE
  5
1E9
330
1C7
100
AcDbEntity
  8
M-PIPE
100
AcDbSpline
210
0.0
220
0.0
230
1.0
 70
     8
 71
     3
 72
    10
 73
     6
 74
     0
 42
0.000000001
 43
0.0000000001
 40
0.0
 40
0.0
 40
0.0
 40
0.0
 40
0.1666666666666666
 40
0.25
 40
0.3304009551247757
 40
0.3304009551247757
 40
0.3304009551247757
 40
0.3304009551247757
 10
791.7314306836312
 20
1740.78471978916
 30
0.0
 10
791.7292082558774
 20
1740.786002908421
 30
0.0
 10
791.7713305723306
 20
1740.827762288422
 30
0.0
 10
791.91839780094
 20
1740.962085869206
 30
0.0
 10
792.0190760450464
 20
1741.05377834546
 30
0.0
 10
792.0763286123186
 20
1741.104297959548
 30
0.0
1001
REVIT
1002
{
1070
     3
1000
938184
1002
}
  0
SPLINE
  5
1EA
330
1C7
100
AcDbEntity
  8
M-PIPE
100
AcDbSpline
210
0.0
220
0.0
230
1.0
 70
     8
 71
     3
 72
    11
 73
     7
 74
     0
 42
0.000000001
 43
0.0000000001
 40
0.3333333333333333
 40
0.3333333333333333
 40
0.3333333333333333
 40
0.3333333333333333
 40
0.5
 40
0.6666666666666666
 40
0.8333333333333332
 40
1.0
 40
1.0
 40
1.0
 40
1.0
 10
792.0826241881243
 20
1741.109847502235
 30
0.0
 10
792.2024903062601
 20
1741.215401078686
 30
0.0
 10
792.5097347133806
 20
1741.473551758688
 30
0.0
 10
793.1112277742502
 20
1741.987763247384
 30
0.0
 10
793.7866098625806
 20
1742.585652459646
 30
0.0
 10
794.2835523532144
 20
1743.002294059756
 30
0.0
 10
794.5370311383323
 20
1743.206357495727
 30
0.0
1001
REVIT
1002
{
1070
     3
1000
938184
1002
}
  0
SPLINE
  5
1EB
330
1C7
100
AcDbEntity
  8
M-PIPE
100
AcDbSpline
210
0.0
220
0.0
230
1.0
 70
     8
 71
     3
 72
    13
 73
     9
 74
     0
 42
0.000000001
 43
0.0000000001
 40
0.0
 40
0.0
 40
0.0
 40
0.0
 40
0.1428571428571428
 40
0.2857142857142857
 40
0.4285714285714286
 40
0.5714285714285714
 40
0.7857142857142857
 40
1.0
 40
1.0
 40
1.0
 40
1.0
 10
836.7957837480762
 20
1743.206357495745
 30
0.0
 10
837.0022783499965
 20
1743.03445807625
 30
0.0
 10
837.4116929806248
 20
1742.685663489807
 30
0.0
 10
838.0014901068125
 20
1742.181861320779
 30
0.0
 10
838.5352117244194
 20
1741.719985198946
 30
0.0
 10
839.0634265629417
 20
1741.259120979513
 30
0.0
 10
839.4889835603066
 20
1740.884388713422
 30
0.0
 10
839.6009507358266
 20
1740.784469526917
 30
0.0
 10
839.6013842027787
 20
1740.784719789179
 30
0.0
1001
REVIT
1002
{
1070
     3
1000
938184
1002
}
  0
ARC
  5
1EC
330
1C7
100
AcDbEntity
  8
M-PIPE
100
AcDbCircle
 10
815.6664074431887
 20
1750.939368356156
 30
0.0
 40
29.99999999999993
100
AcDbArc
 50
17.63401603611198
 51
162.365983963884
1001
REVIT
1002
{
1070
     3
1000
938184
1002
}
  0
ARC
  5
1ED
330
1C7
100
AcDbEntity
  8
M-PIPE
100
AcDbCircle
 10
815.6664074431887
 20
1750.939368356156
 30
0.0
 40
30.0
100
AcDbArc
 50
193.8039812784009
 51
346.1960187216007
1001
REVIT
1002
{
1070
     3
1000
938184
1002
}
  0
LINE
  5
1EE
330
1C7
100
AcDbEntity
  8
M-PIPE
100
AcDbLine
 10
852.1664074431894
 20
1758.74707584425
 30
0.0
 11
845.3284194192322
 21
1758.74707584425
 31
0.0
1001
REVIT
1002
{
1070
     3
1000
790271
1002
}
  0
LINE
  5
1EF
330
1C7
100
AcDbEntity
  8
M-PIPE
100
AcDbLine
 10
845.328419419232
 20
1744.74707584425
 30
0.0
 11
852.1664074431892
 21
1744.74707584425
 31
0.0
1001
REVIT
1002
{
1070
     3
1000
790271
1002
}
  0
ARC
  5
1F0
330
1C7
100
AcDbEntity
  8
M-PIPE
100
AcDbCircle
 10
752.6624518180585
 20
1751.747075844233
 30
0.0
 40
6.299999999999993
100
AcDbArc
 50
179.9999999998469
 51
239.9999999999996
1001
REVIT
1002
{
1070
     3
1000
790271
1002
}
  0
ARC
  5
1F1
330
1C7
100
AcDbEntity
  8
M-PIPE
100
AcDbCircle
 10
752.6624518180585
 20
1751.747075844233
 30
0.0
 40
6.300000000000044
100
AcDbArc
 50
119.9999999999989
 51
179.9999999998474
1001
REVIT
1002
{
1070
     3
1000
790271
1002
}
  0
LINE
  5
1F2
330
1C7
100
AcDbEntity
  8
M-PIPE
100
AcDbLine
 10
755.3044989246646
 20
1742.947075844233
 30
0.0
 11
749.5124518180585
 21
1746.291115800391
 31
0.0
1001
REVIT
1002
{
1070
     3
1000
790271
1002
}
  0
LINE
  5
1F3
330
1C7
100
AcDbEntity
  8
M-PIPE
100
AcDbLine
 10
779.2066322788
 20
1702.84222133099
 30
0.0
 11
772.7464431632177
 21
1701.111218874518
 31
0.0
1001
REVIT
1002
{
1070
     3
1000
790271
1002
}
  0
ARC
  5
1F4
330
1C7
100
AcDbEntity
  8
M-PIPE
100
AcDbCircle
 10
815.6664074431999
 20
1751.747075844233
 30
0.0
 40
61.00000000000005
100
AcDbArc
 50
233.2945626726638
 51
261.7054373273054
1001
REVIT
1002
{
1070
     3
1000
790271
1002
}
  0
ARC
  5
1F5
330
1C7
100
AcDbEntity
  8
M-PIPE
100
AcDbCircle
 10
815.6664074431876
 20
1751.74707584425
 30
0.0
 40
48.90485451326415
100
AcDbArc
 50
359.9999999999992
 51
179.9999999999989
1001
REVIT
1002
{
1070
     3
1000
790271
1002
}
  0
ARC
  5
1F6
330
1C7
100
AcDbEntity
  8
M-PIPE
100
AcDbCircle
 10
815.6664074431876
 20
1751.74707584425
 30
0.0
 40
48.90485451326414
100
AcDbArc
 50
180.0000000000002
 51
359.9999999999993
1001
REVIT
1002
{
1070
     3
1000
790271
1002
}
  0
LINE
  5
1F7
330
1C7
100
AcDbEntity
  8
M-PIPE
100
AcDbLine
 10
749.5124518180586
 20
1757.203035888075
 30
0.0
 11
755.3044989246649
 21
1760.547075844234
 31
0.0
1001
REVIT
1002
{
1070
     3
1000
790271
1002
}
  0
ARC
  5
1F8
330
1C7
100
AcDbEntity
  8
M-PIPE
100
AcDbCircle
 10
815.6664074431999
 20
1751.747075844233
 30
0.0
 40
60.99999999999983
100
AcDbArc
 50
188.2945626726909
 51
216.7054373272835
1001
REVIT
1002
{
1070
     3
1000
790271
1002
}
  0
LINE
  5
1F9
330
1C7
100
AcDbEntity
  8
M-PIPE
100
AcDbLine
 10
765.0305504734506
 20
1708.827111564285
 30
0.0
 11
766.7615529299255
 21
1715.287300679877
 31
0.0
1001
REVIT
1002
{
1070
     3
1000
790271
1002
}
  0
ARC
  5
1FA
330
1C7
100
AcDbEntity
  8
M-PIPE
100
AcDbCircle
 10
771.1158831790718
 20
1707.196551580139
 30
0.0
 40
6.300000000000087
100
AcDbArc
 50
165.0000000000032
 51
284.9999999999993
1001
REVIT
1002
{
1070
     3
1000
790271
1002
}
  0
LINE
  5
1FB
330
1C7
100
AcDbEntity
  8
M-PIPE
100
AcDbLine
 10
810.2104473993577
 20
1685.593120219091
 30
0.0
 11
806.8664074431987
 21
1691.385167325698
 31
0.0
1001
REVIT
1002
{
1070
     3
1000
790271
1002
}
  0
ARC
  5
1FC
330
1C7
100
AcDbEntity
  8
M-PIPE
100
AcDbCircle
 10
815.6664074431995
 20
1688.743120219092
 30
0.0
 40
6.300000000000077
100
AcDbArc
 50
210.0000000000024
 51
330.0000000000026
1001
REVIT
1002
{
1070
     3
1000
790271
1002
}
  0
LINE
  5
1FD
330
1C7
100
AcDbEntity
  8
M-PIPE
100
AcDbLine
 10
824.4664074431993
 20
1691.385167325698
 30
0.0
 11
821.1223674870417
 21
1685.593120219092
 31
0.0
1001
REVIT
1002
{
1070
     3
1000
790271
1002
}
  0
ARC
  5
1FE
330
1C7
100
AcDbEntity
  8
M-PIPE
100
AcDbCircle
 10
815.6664074431999
 20
1751.747075844233
 30
0.0
 40
60.99999999999982
100
AcDbArc
 50
278.2945626726904
 51
306.6583576303663
1001
REVIT
1002
{
1070
     3
1000
790271
1002
}
  0
LINE
  5
1FF
330
1C7
100
AcDbEntity
  8
M-PIPE
100
AcDbLine
 10
858.5610575752918
 20
1701.077288640974
 30
0.0
 11
852.0859853938127
 21
1702.812279002934
 31
0.0
1001
REVIT
1002
{
1070
     3
1000
790271
1002
}
  0
ARC
  5
200
330
1C7
100
AcDbEntity
  8
M-PIPE
100
AcDbCircle
 10
860.1916175594377
 20
1707.162621346595
 30
0.0
 40
6.300000000000007
100
AcDbArc
 50
254.9999999999998
 51
15.00000000000087
1001
REVIT
1002
{
1070
     3
1000
790271
1002
}
  0
LINE
  5
201
330
1C7
100
AcDbEntity
  8
M-PIPE
100
AcDbLine
 10
864.545947808584
 20
1715.253370446331
 30
0.0
 11
866.2769502650588
 21
1708.79318133074
 31
0.0
1001
REVIT
1002
{
1070
     3
1000
790271
1002
}
  0
ARC
  5
202
330
1C7
100
AcDbEntity
  8
M-PIPE
100
AcDbCircle
 10
815.6664074431999
 20
1751.747075844233
 30
0.0
 40
60.99999999999996
100
AcDbArc
 50
323.2548005183458
 51
351.6895339267376
1001
REVIT
1002
{
1070
     3
1000
790271
1002
}
  0
LINE
  5
203
330
1C7
100
AcDbEntity
  8
M-PIPE
100
AcDbLine
 10
881.8224246024842
 20
1746.276963481713
 30
0.0
 11
876.0258710495477
 21
1742.930321727553
 31
0.0
1001
REVIT
1002
{
1070
     3
1000
790271
1002
}
  0
ARC
  5
204
330
1C7
100
AcDbEntity
  8
M-PIPE
100
AcDbCircle
 10
878.6724246024842
 20
1751.732923525555
 30
0.0
 40
6.299999999999936
100
AcDbArc
 50
0.1287093354779144
 51
60.0000000000011
1001
REVIT
1002
{
1070
     3
1000
790271
1002
}
  0
ARC
  5
205
330
1C7
100
AcDbEntity
  8
M-PIPE
100
AcDbCircle
 10
878.6724246024842
 20
1751.732923525555
 30
0.0
 40
6.300000000000065
100
AcDbArc
 50
300.0000000000003
 51
0.1287093354779144
1001
REVIT
1002
{
1070
     3
1000
790271
1002
}
  0
LINE
  5
206
330
1C7
100
AcDbEntity
  8
M-PIPE
100
AcDbLine
 10
876.0303774958781
 20
1760.532923525555
 30
0.0
 11
881.8224246024842
 21
1757.188883569397
 31
0.0
1001
REVIT
1002
{
1070
     3
1000
790271
1002
}
  0
ARC
  5
207
330
1C7
100
AcDbEntity
  8
M-PIPE
100
AcDbCircle
 10
815.6664074431999
 20
1751.747075844233
 30
0.0
 40
60.99999999999997
100
AcDbArc
 50
8.281129461247681
 51
36.70543732732754
1001
REVIT
1002
{
1070
     3
1000
790271
1002
}
  0
LINE
  5
208
330
1C7
100
AcDbEntity
  8
M-PIPE
100
AcDbLine
 10
866.3022644129206
 20
1794.667040124212
 30
0.0
 11
864.5712619564475
 21
1788.206851008627
 31
0.0
1001
REVIT
1002
{
1070
     3
1000
790271
1002
}
  0
ARC
  5
209
330
1C7
100
AcDbEntity
  8
M-PIPE
100
AcDbCircle
 10
860.2169317072995
 20
1796.297600108357
 30
0.0
 40
6.300000000000007
100
AcDbArc
 50
345.0000000000008
 51
105.0000000000008
1001
REVIT
1002
{
1070
     3
1000
790271
1002
}
  0
LINE
  5
20A
330
1C7
100
AcDbEntity
  8
M-PIPE
100
AcDbLine
 10
852.1261826075626
 20
1800.651930357503
 30
0.0
 11
858.5863717231536
 21
1802.382932813978
 31
0.0
1001
REVIT
1002
{
1070
     3
1000
790271
1002
}
  0
ARC
  5
20B
330
1C7
100
AcDbEntity
  8
M-PIPE
100
AcDbCircle
 10
815.6664074431999
 20
1751.747075844233
 30
0.0
 40
61.00000000000004
100
AcDbArc
 50
53.29456267270885
 51
81.70543732730738
1001
REVIT
1002
{
1070
     3
1000
790271
1002
}
  0
LINE
  5
20C
330
1C7
100
AcDbEntity
  8
M-PIPE
100
AcDbLine
 10
821.1223674870424
 20
1817.901031469375
 30
0.0
 11
824.4664074432009
 21
1812.108984362768
 31
0.0
1001
REVIT
1002
{
1070
     3
1000
790271
1002
}
  0
ARC
  5
20D
330
1C7
100
AcDbEntity
  8
M-PIPE
100
AcDbCircle
 10
815.6664074432002
 20
1814.751031469375
 30
0.0
 40
6.30000000000005
100
AcDbArc
 50
29.99999999999992
 51
150.0000000000001
1001
REVIT
1002
{
1070
     3
1000
790271
1002
}
  0
LINE
  5
20E
330
1C7
100
AcDbEntity
  8
M-PIPE
100
AcDbLine
 10
806.8664074432005
 20
1812.108984362768
 30
0.0
 11
810.2104473993582
 21
1817.901031469375
 31
0.0
1001
REVIT
1002
{
1070
     3
1000
790271
1002
}
  0
ARC
  5
20F
330
1C7
100
AcDbEntity
  8
M-PIPE
100
AcDbCircle
 10
815.6664074431999
 20
1751.747075844233
 30
0.0
 40
60.9999999999999
100
AcDbArc
 50
98.29456267269193
 51
126.7054373273071
1001
REVIT
1002
{
1070
     3
1000
790271
1002
}
  0
LINE
  5
210
330
1C7
100
AcDbEntity
  8
M-PIPE
100
AcDbLine
 10
772.7464431632325
 20
1802.382932813969
 30
0.0
 11
779.2066322788242
 21
1800.651930357494
 31
0.0
1001
REVIT
1002
{
1070
     3
1000
790271
1002
}
  0
ARC
  5
211
330
1C7
100
AcDbEntity
  8
M-PIPE
100
AcDbCircle
 10
771.1158831790868
 20
1796.297600108347
 30
0.0
 40
6.300000000000007
100
AcDbArc
 50
75.00000000000113
 51
195.0000000000005
1001
REVIT
1002
{
1070
     3
1000
790271
1002
}
  0
LINE
  5
212
330
1C7
100
AcDbEntity
  8
M-PIPE
100
AcDbLine
 10
766.7615529299403
 20
1788.206851008611
 30
0.0
 11
765.0305504734657
 21
1794.667040124202
 31
0.0
1001
REVIT
1002
{
1070
     3
1000
790271
1002
}
  0
ARC
  5
213
330
1C7
100
AcDbEntity
  8
M-PIPE
100
AcDbCircle
 10
815.6664074431999
 20
1751.747075844233
 30
0.0
 40
60.99999999999993
100
AcDbArc
 50
143.2945626726919
 51
170.6344724451223
1001
REVIT
1002
{
1070
     3
1000
790271
1002
}
  0
ARC
  5
214
330
1C7
100
AcDbEntity
  8
M-PIPE
100
AcDbCircle
 10
815.6664074431999
 20
1751.747075844233
 30
0.0
 40
60.99999999999986
100
AcDbArc
 50
170.6344724451227
 51
171.7054373273084
1001
REVIT
1002
{
1070
     3
1000
790271
1002
}
  0
ARC
  5
215
330
1C7
100
AcDbEntity
  8
M-PIPE
100
AcDbCircle
 10
815.6664074431875
 20
1751.74707584425
 30
0.0
 40
57.50395562512903
100
AcDbArc
 50
0.0000000000000382
 51
179.9999999999996
1001
REVIT
1002
{
1070
     3
1000
790271
1002
}
  0
ARC
  5
216
330
1C7
100
AcDbEntity
  8
M-PIPE
100
AcDbCircle
 10
815.6664074431875
 20
1751.74707584425
 30
0.0
 40
57.50395562512927
100
AcDbArc
 50
179.9999999999995
 51
0.0
1001
REVIT
1002
{
1070
     3
1000
790271
1002
}
  0
LINE
  5
217
330
1C7
100
AcDbEntity
  8
M-PIPE
100
AcDbLine
 10
852.1664074431877
 20
1758.747075844249
 30
0.0
 11
852.1664074431878
 21
1751.74707584425
 31
0.0
1001
REVIT
1002
{
1070
     3
1000
790271
1002
}
  0
LINE
  5
218
330
1C7
100
AcDbEntity
  8
M-PIPE
100
AcDbLine
 10
852.1664074431878
 20
1751.747075844249
 30
0.0
 11
852.1664074431877
 21
1744.747075844249
 31
0.0
1001
REVIT
1002
{
1070
     3
1000
790271
1002
}
  0
ENDBLK
  5
21A
330
1C7
100
AcDbEntity
  8
0
100
AcDbBlockEnd
  0
BLOCK
  5
2C4
330
21C
100
AcDbEntity
  8
0
100
AcDbBlockBegin
  2
Automatic flow rate regulator valve_Caleffi_121 DN15 - 1_2__-V2-Est - Idraulica
 70
     0
 10
0.0
 20
0.0
 30
0.0
  3
Automatic flow rate regulator valve_Caleffi_121 DN15 - 1_2__-V2-Est - Idraulica
  1

  0
LWPOLYLINE
  5
21D
330
21C
100
AcDbEntity
  8
M-PIPE
100
AcDbPolyline
 90
       80
 70
   128
 43
0.0
 10
1125.363156828899
 20
2019.661248116155
 10
1123.413989203974
 20
2019.622259565045
 10
1121.467939831449
 20
2019.505356285077
 10
1119.528121975184
 20
2019.310725296564
 10
1117.597638929944
 20
2019.038677967565
 10
1115.679579056787
 20
2018.689649515776
 10
1113.777010842346
 20
2018.264198312263
 10
1111.892977989903
 20
2017.763004988193
 10
1110.030494550118
 20
2017.18687134597
 10
1108.192540099186
 20
2016.536719076519
 10
1106.382054972152
 20
2015.81358828478
 10
1104.601935559003
 20
2015.018635825759
 10
1102.855029671061
 20
2014.153133453811
 10
1101.144131985094
 20
2013.218465788099
 10
1099.471979572427
 20
2012.216128097504
 10
1097.841247520215
 20
2011.14772390851
 10
1096.254544651869
 20
2010.014962439906
 10
1094.714409353499
 20
2008.819655868398
 10
1093.22330551304
 20
2007.563716429515
 10
1091.78361857855
 20
2006.24915335844
 10
1090.397651742008
 20
2004.878069675662
 10
1089.067622254695
 20
2003.452658822592
 10
1087.795657880066
 20
2001.975201152522
 10
1086.583793489783
 20
2000.44806028255
 10
1085.433967808353
 20
1998.873679312296
 10
1084.348020311583
 20
1997.254576915462
 10
1083.327688283812
 20
1995.593343310493
 10
1082.374604038624
 20
1993.892636116779
 10
1081.490292307499
 20
1992.155176103033
 10
1080.676167800563
 20
1990.383742834637
 10
1079.933532943356
 20
1988.581170226935
 10
1079.26357579323
 20
1986.750342011573
 10
1078.667368138708
 20
1984.894187123137
 10
1078.145863784854
 20
1983.015675013492
 10
1077.699897027384
 20
1981.117810901284
 10
1077.330181317977
 20
1979.203630964237
 10
1077.0373081229
 20
1977.276197481915
 10
1076.821745976787
 20
1975.338593936723
 10
1076.68383973309
 20
1973.393920081003
 10
1076.623810012378
 20
1971.445286978081
 10
1076.6417528494
 20
1969.495812025235
 10
1076.737639539444
 20
1967.548613966524
 10
1076.91131668426
 20
1965.606807903462
 10
1077.162506437467
 20
1963.673500311521
 10
1077.490806949043
 20
1961.75178407043
 10
1077.895693008204
 20
1959.844733516231
 10
1078.376516883625
 20
1957.955399522995
 10
1078.932509359677
 20
1956.086804622074
 10
1079.562780967003
 20
1954.241938166697
 10
1080.266323405482
 20
1952.423751549644
 10
1081.042011157295
 20
1950.635153481641
 10
1081.888603287508
 20
1948.879005338051
 10
1082.804745429311
 20
1947.158116581279
 10
1083.788971950709
 20
1945.475240266231
 10
1084.839708299226
 20
1943.833068636017
 10
1085.95527352085
 20
1942.234228814935
 10
1087.133882949199
 20
1940.68127860563
 10
1088.373651060612
 20
1939.176702397159
 10
1089.672594490582
 20
1937.722907190497
 10
1091.028635206711
 20
1936.322218747848
 10
1092.439603833129
 20
1934.976877871921
 10
1093.903243121024
 20
1933.689036821129
 10
1095.417211559761
 20
1932.460755866427
 10
1096.9790871228
 20
1931.293999995325
 10
1098.586371142425
 20
1930.19063576832
 10
1100.236492307071
 20
1929.152428332804
 10
1101.926810774883
 20
1928.181038599202
 10
1103.654622396894
 20
1927.278020583869
 10
1105.41716304309
 20
1926.444818922995
 10
1107.211613024424
 20
1925.682766561498
 10
1109.035101603723
 20
1924.993082620594
 10
1110.884711588249
 20
1924.376870447463
 10
1112.75748399659
 20
1923.835115850131
 10
1114.650422792396
 20
1923.368685520386
 10
1116.560499677399
 20
1922.978325647255
 10
1118.484658936044
 20
1922.664660723263
 10
1120.419822323984
 20
1922.428192545376
 10
1122.362893992609
 20
1922.269299412236
 10
1124.310765441751
 20
1922.188235518959
 10
1125.3631568289
 20
1922.176873116154
1001
REVIT
1002
{
1070
     3
1000
939838
1002
}
  0
SPLINE
  5
21E
330
21C
100
AcDbEntity
  8
M-PIPE
100
AcDbSpline
210
0.0
220
0.0
230
1.0
 70
     8
 71
     3
 72
     9
 73
     5
 74
     0
 42
0.000000001
 43
0.0000000001
 40
0.0
 40
0.0
 40
0.0
 40
0.0
 40
0.5
 40
0.9656145667051848
 40
0.9656145667051848
 40
0.9656145667051848
 40
0.9656145667051848
 10
1100.363156828898
 20
2012.761632744133
 30
0.0
 10
1100.36615599669
 20
2012.763424679738
 30
0.0
 10
1100.497519225117
 20
2012.842308774054
 30
0.0
 10
1100.87351946417
 20
2013.063297548332
 30
0.0
 10
1101.11300645187
 20
2013.200631794903
 30
0.0
1001
REVIT
1002
{
1070
     3
1000
939838
1002
}
  0
LINE
  5
21F
330
21C
100
AcDbEntity
  8
M-PIPE
100
AcDbLine
 10
1101.167016929419
 20
2013.231560616154
 30
0.0
 11
1101.180454657861
 21
2013.231560616154
 31
0.0
1001
REVIT
1002
{
1070
     3
1000
939838
1002
}
  0
SPLINE
  5
220
330
21C
100
AcDbEntity
  8
M-PIPE
100
AcDbSpline
210
0.0
220
0.0
230
1.0
 70
     8
 71
     3
 72
     9
 73
     5
 74
     0
 42
0.000000001
 43
0.0000000001
 40
-1.0
 40
-1.0
 40
-1.0
 40
-1.0
 40
-0.5
 40
0.0
 40
0.0
 40
0.0
 40
0.0
 10
1100.363156828898
 20
2012.761632744133
 30
0.0
 10
1100.36615599669
 20
2012.763424679738
 30
0.0
 10
1100.502197055884
 20
2012.845117828368
 30
0.0
 10
1100.900608337744
 20
2013.079216520329
 30
0.0
 10
1101.167016929419
 20
2013.231560616154
 30
0.0
1001
REVIT
1002
{
1070
     3
1000
939838
1002
}
  0
ARC
  5
221
330
21C
100
AcDbEntity
  8
M-PIPE
100
AcDbCircle
 10
1125.363156828897
 20
1970.919060616154
 30
0.0
 40
48.7421875000003
100
AcDbArc
 50
94.28715832316353
 51
95.00000000000047
1001
REVIT
1002
{
1070
     3
1000
939838
1002
}
  0
ARC
  5
222
330
21C
100
AcDbEntity
  8
M-PIPE
100
AcDbCircle
 10
1125.363156828897
 20
1970.919060616154
 30
0.0
 40
48.74218750000013
100
AcDbArc
 50
98.57756857500188
 51
111.4467385529174
1001
REVIT
1002
{
1070
     3
1000
939838
1002
}
  0
ARC
  5
223
330
21C
100
AcDbEntity
  8
M-PIPE
100
AcDbCircle
 10
1125.363156828897
 20
1970.919060616154
 30
0.0
 40
48.74218750000014
100
AcDbArc
 50
115.0000000000004
 51
115.7279157608939
1001
REVIT
1002
{
1070
     3
1000
939838
1002
}
  0
ARC
  5
224
330
21C
100
AcDbEntity
  8
M-PIPE
100
AcDbCircle
 10
1125.363156828897
 20
1970.919060616154
 30
0.0
 40
48.74218750000028
100
AcDbArc
 50
124.3030120242241
 51
125.0000000000003
1001
REVIT
1002
{
1070
     3
1000
939838
1002
}
  0
ARC
  5
225
330
21C
100
AcDbEntity
  8
M-PIPE
100
AcDbCircle
 10
1125.363156828897
 20
1970.919060616154
 30
0.0
 40
48.74218750000014
100
AcDbArc
 50
128.6058748249896
 51
141.3941251750105
1001
REVIT
1002
{
1070
     3
1000
939838
1002
}
  0
ARC
  5
226
330
21C
100
AcDbEntity
  8
M-PIPE
100
AcDbCircle
 10
1125.363156828897
 20
1970.919060616154
 30
0.0
 40
48.74218750000023
100
AcDbArc
 50
145.0000000000003
 51
145.6969879757759
1001
REVIT
1002
{
1070
     3
1000
939838
1002
}
  0
ARC
  5
227
330
21C
100
AcDbEntity
  8
M-PIPE
100
AcDbCircle
 10
1125.363156828897
 20
1970.919060616154
 30
0.0
 40
48.74218750000028
100
AcDbArc
 50
154.2720842391063
 51
155.0000000000002
1001
REVIT
1002
{
1070
     3
1000
939838
1002
}
  0
ARC
  5
228
330
21C
100
AcDbEntity
  8
M-PIPE
100
AcDbCircle
 10
1125.363156828897
 20
1970.919060616154
 30
0.0
 40
48.74218750000001
100
AcDbArc
 50
158.5532614470827
 51
171.4224314249981
1001
REVIT
1002
{
1070
     3
1000
939838
1002
}
  0
ARC
  5
229
330
21C
100
AcDbEntity
  8
M-PIPE
100
AcDbCircle
 10
1125.363156828897
 20
1970.919060616154
 30
0.0
 40
48.74218750000006
100
AcDbArc
 50
175.0000000000003
 51
175.7128416768365
1001
REVIT
1002
{
1070
     3
1000
939838
1002
}
  0
ARC
  5
22A
330
21C
100
AcDbEntity
  8
M-PIPE
100
AcDbCircle
 10
1125.363156828897
 20
1970.919060616154
 30
0.0
 40
48.74218750000029
100
AcDbArc
 50
184.2871583231634
 51
184.9999999999998
1001
REVIT
1002
{
1070
     3
1000
939838
1002
}
  0
ARC
  5
22B
330
21C
100
AcDbEntity
  8
M-PIPE
100
AcDbCircle
 10
1125.363156828897
 20
1970.919060616154
 30
0.0
 40
48.74218750000009
100
AcDbArc
 50
188.5775685750015
 51
201.4467385529172
1001
REVIT
1002
{
1070
     3
1000
939838
1002
}
  0
ARC
  5
22C
330
21C
100
AcDbEntity
  8
M-PIPE
100
AcDbCircle
 10
1125.363156828897
 20
1970.919060616154
 30
0.0
 40
48.74218750000015
100
AcDbArc
 50
204.9999999999997
 51
205.7279157608934
1001
REVIT
1002
{
1070
     3
1000
939838
1002
}
  0
ARC
  5
22D
330
21C
100
AcDbEntity
  8
M-PIPE
100
AcDbCircle
 10
1125.363156828897
 20
1970.919060616154
 30
0.0
 40
48.74218750000015
100
AcDbArc
 50
214.3030120242236
 51
214.9999999999995
1001
REVIT
1002
{
1070
     3
1000
939838
1002
}
  0
ARC
  5
22E
330
21C
100
AcDbEntity
  8
M-PIPE
100
AcDbCircle
 10
1125.363156828897
 20
1970.919060616154
 30
0.0
 40
48.74218750000018
100
AcDbArc
 50
218.605874824989
 51
231.39412517501
1001
REVIT
1002
{
1070
     3
1000
939838
1002
}
  0
ARC
  5
22F
330
21C
100
AcDbEntity
  8
M-PIPE
100
AcDbCircle
 10
1125.363156828897
 20
1970.919060616154
 30
0.0
 40
48.74218749999987
100
AcDbArc
 50
234.9999999999995
 51
235.6969879757755
1001
REVIT
1002
{
1070
     3
1000
939838
1002
}
  0
ARC
  5
230
330
21C
100
AcDbEntity
  8
M-PIPE
100
AcDbCircle
 10
1125.363156828897
 20
1970.919060616154
 30
0.0
 40
48.74218749999986
100
AcDbArc
 50
244.2720842391056
 51
244.9999999999994
1001
REVIT
1002
{
1070
     3
1000
939838
1002
}
  0
ARC
  5
231
330
21C
100
AcDbEntity
  8
M-PIPE
100
AcDbCircle
 10
1125.363156828897
 20
1970.919060616154
 30
0.0
 40
48.74218750000001
100
AcDbArc
 50
248.553261447082
 51
261.4224314249977
1001
REVIT
1002
{
1070
     3
1000
939838
1002
}
  0
ARC
  5
232
330
21C
100
AcDbEntity
  8
M-PIPE
100
AcDbCircle
 10
1125.363156828897
 20
1970.919060616154
 30
0.0
 40
48.74218750000006
100
AcDbArc
 50
264.9999999999995
 51
265.7128416768358
1001
REVIT
1002
{
1070
     3
1000
939838
1002
}
  0
LINE
  5
233
330
21C
100
AcDbEntity
  8
M-PIPE
100
AcDbLine
 10
1125.363156828897
 20
1922.176873116154
 30
0.0
 11
1125.363156828897
 21
1927.676873116154
 31
0.0
1001
REVIT
1002
{
1070
     3
1000
939838
1002
}
  0
LINE
  5
234
330
21C
100
AcDbEntity
  8
M-PIPE
100
AcDbLine
 10
1125.363156828897
 20
2014.161248116154
 30
0.0
 11
1125.363156828897
 21
2019.661248116154
 31
0.0
1001
REVIT
1002
{
1070
     3
1000
939838
1002
}
  0
LINE
  5
235
330
21C
100
AcDbEntity
  8
M-PIPE
100
AcDbLine
 10
1125.363156828897
 20
1927.676873116154
 30
0.0
 11
1125.363156828897
 21
1942.919060616154
 31
0.0
1001
REVIT
1002
{
1070
     3
1000
939838
1002
}
  0
ARC
  5
236
330
21C
100
AcDbEntity
  8
M-PIPE
100
AcDbCircle
 10
1125.363156828897
 20
1970.919060616154
 30
0.0
 40
28.0
100
AcDbArc
 50
180.0
 51
269.9999999999997
1001
REVIT
1002
{
1070
     3
1000
939838
1002
}
  0
ARC
  5
237
330
21C
100
AcDbEntity
  8
M-PIPE
100
AcDbCircle
 10
1125.363156828897
 20
1970.919060616154
 30
0.0
 40
27.99999999999988
100
AcDbArc
 50
90.00000000000072
 51
180.0000000000002
1001
REVIT
1002
{
1070
     3
1000
939838
1002
}
  0
LINE
  5
238
330
21C
100
AcDbEntity
  8
M-PIPE
100
AcDbLine
 10
1125.363156828897
 20
1998.919060616154
 30
0.0
 11
1125.363156828897
 21
2014.161248116154
 31
0.0
1001
REVIT
1002
{
1070
     3
1000
939838
1002
}
  0
LINE
  5
239
330
21C
100
AcDbEntity
  8
M-PIPE
100
AcDbLine
 10
1152.17086431701
 20
2095.768265528397
 30
0.0
 11
1152.17086431701
 21
2140.418183849963
 31
0.0
1001
REVIT
1002
{
1070
     3
1000
938184
1002
}
  0
LINE
  5
23A
330
21C
100
AcDbEntity
  8
M-PIPE
100
AcDbLine
 10
1100.17086431701
 20
2140.418183849963
 30
0.0
 11
1100.17086431701
 21
2095.768265528397
 31
0.0
1001
REVIT
1002
{
1070
     3
1000
938184
1002
}
  0
LINE
  5
23B
330
21C
100
AcDbEntity
  8
M-PIPE
100
AcDbLine
 10
1133.903875177422
 20
2143.918183849963
 30
0.0
 11
1130.838345123961
 21
2143.918183849963
 31
0.0
1001
REVIT
1002
{
1070
     3
1000
938184
1002
}
  0
LINE
  5
23C
330
21C
100
AcDbEntity
  8
M-PIPE
100
AcDbLine
 10
1119.887968533834
 20
2143.918183849963
 30
0.0
 11
1116.295749404069
 21
2143.918183849963
 31
0.0
1001
REVIT
1002
{
1070
     3
1000
938184
1002
}
  0
LWPOLYLINE
  5
23D
330
21C
100
AcDbEntity
  8
M-PIPE
100
AcDbPolyline
 90
       41
 70
   128
 43
0.0
 10
1100.17086431701
 20
2140.418183849963
 10
1100.173663943696
 20
2140.558146519616
 10
1100.182058344951
 20
2140.697885278854
 10
1100.196034091521
 20
2140.837176575474
 10
1100.215568825195
 20
2140.975797573112
 10
1100.240631294565
 20
2141.113526507746
 10
1100.271181405028
 20
2141.250143042457
 10
1100.307170282922
 20
2141.385428619937
 10
1100.348540353721
 20
2141.519166812119
 10
1100.395225434137
 20
2141.651143666425
 10
1100.447150838
 20
2141.781148048043
 10
1100.50423349574
 20
2141.908971977693
 10
1100.566382087282
 20
2142.034410964358
 10
1100.633497188138
 20
2142.157264332416
 10
1100.705471428463
 20
2142.277335542685
 10
1100.782189664826
 20
2142.394432506845
 10
1100.863529164415
 20
2142.508367894731
 10
1100.949359801381
 20
2142.618959434027
 10
1101.039544265017
 20
2142.726030201863
 10
1101.133938279416
 20
2142.82940890785
 10
1101.232390834294
 20
2142.92893016811
 10
1101.334744426565
 20
2143.024434769861
 10
1101.440835312315
 20
2143.115769926109
 10
1101.550493768757
 20
2143.20278952009
 10
1101.663544365756
 20
2143.285354339016
 10
1101.779806246471
 20
2143.36333229679
 10
1101.899093416695
 20
2143.436598645314
 10
1102.021215042401
 20
2143.50503617406
 10
1102.145975755041
 20
2143.56853539758
 10
1102.273175964088
 20
2143.626994730664
 10
1102.402612176341
 20
2143.680320650847
 10
1102.534077321474
 20
2143.728427848036
 10
1102.667361083298
 20
2143.771239360975
 10
1102.802250236226
 20
2143.808686700376
 10
1102.93852898639
 20
2143.840709958486
 10
1103.075979316859
 20
2143.867257904922
 10
1103.214381336426
 20
2143.888288068633
 10
1103.353513631384
 20
2143.903766805844
 10
1103.493153619742
 20
2143.913669353877
 10
1103.633077907306
 20
2143.917979870767
 10
1103.67086431701
 20
2143.918183849963
1001
REVIT
1002
{
1070
     3
1000
938184
1002
}
  0
LWPOLYLINE
  5
23E
330
21C
100
AcDbEntity
  8
M-PIPE
100
AcDbPolyline
 90
       41
 70
   128
 43
0.0
 10
1148.67086431701
 20
2143.918183849963
 10
1148.810826986663
 20
2143.915384223276
 10
1148.950565745902
 20
2143.906989822021
 10
1149.089857042521
 20
2143.893014075451
 10
1149.22847804016
 20
2143.873479341777
 10
1149.366206974792
 20
2143.848416872407
 10
1149.502823509505
 20
2143.817866761945
 10
1149.638109086984
 20
2143.78187788405
 10
1149.771847279166
 20
2143.740507813251
 10
1149.903824133472
 20
2143.693822732835
 10
1150.03382851509
 20
2143.641897328973
 10
1150.161652444741
 20
2143.584814671232
 10
1150.287091431405
 20
2143.522666079689
 10
1150.409944799463
 20
2143.455550978834
 10
1150.530016009733
 20
2143.383576738509
 10
1150.647112973892
 20
2143.306858502147
 10
1150.761048361778
 20
2143.225519002557
 10
1150.871639901074
 20
2143.139688365591
 10
1150.97871066891
 20
2143.049503901956
 10
1151.082089374896
 20
2142.955109887556
 10
1151.181610635158
 20
2142.856657332678
 10
1151.277115236908
 20
2142.754303740407
 10
1151.368450393156
 20
2142.648212854657
 10
1151.455469987137
 20
2142.538554398215
 10
1151.538034806063
 20
2142.425503801216
 10
1151.616012763837
 20
2142.309241920501
 10
1151.689279112361
 20
2142.189954750277
 10
1151.757716641107
 20
2142.067833124571
 10
1151.821215864627
 20
2141.943072411931
 10
1151.879675197711
 20
2141.815872202884
 10
1151.933001117895
 20
2141.686435990631
 10
1151.981108315083
 20
2141.554970845498
 10
1152.023919828022
 20
2141.421687083675
 10
1152.061367167424
 20
2141.286797930746
 10
1152.093390425533
 20
2141.150519180582
 10
1152.119938371969
 20
2141.013068850114
 10
1152.140968535681
 20
2140.874666830546
 10
1152.156447272892
 20
2140.735534535588
 10
1152.166349820924
 20
2140.59589454723
 10
1152.170660337815
 20
2140.455970259667
 10
1152.17086431701
 20
2140.418183849963
1001
REVIT
1002
{
1070
     3
1000
938184
1002
}
  0
LINE
  5
23F
330
21C
100
AcDbEntity
  8
M-PIPE
100
AcDbLine
 10
1133.319071557797
 20
2087.918183849946
 30
0.0
 11
1133.113156828896
 21
2087.918183849946
 31
0.0
1001
REVIT
1002
{
1070
     3
1000
938184
1002
}
  0
LINE
  5
240
330
21C
100
AcDbEntity
  8
M-PIPE
100
AcDbLine
 10
1133.113156828896
 20
2087.918183849946
 30
0.0
 11
1117.613156828896
 21
2087.918183849946
 31
0.0
1001
REVIT
1002
{
1070
     3
1000
938184
1002
}
  0
LINE
  5
241
330
21C
100
AcDbEntity
  8
M-PIPE
100
AcDbLine
 10
1117.613156828896
 20
2087.918183849946
 30
0.0
 11
1117.084741185039
 21
2087.918183849946
 31
0.0
1001
REVIT
1002
{
1070
     3
1000
938184
1002
}
  0
LINE
  5
242
330
21C
100
AcDbEntity
  8
M-PIPE
100
AcDbLine
 10
1136.325512883987
 20
2140.418183849962
 30
0.0
 11
1136.325512883987
 21
2095.768265528396
 31
0.0
1001
REVIT
1002
{
1070
     3
1000
938184
1002
}
  0
LINE
  5
243
330
21C
100
AcDbEntity
  8
M-PIPE
100
AcDbLine
 10
1113.778157360615
 20
2095.768265528396
 30
0.0
 11
1113.778157360615
 21
2140.418183849962
 31
0.0
1001
REVIT
1002
{
1070
     3
1000
938184
1002
}
  0
LINE
  5
244
330
21C
100
AcDbEntity
  8
M-PIPE
100
AcDbLine
 10
1117.613156828896
 20
2087.918183849946
 30
0.0
 11
1117.613156828896
 21
2140.418183849962
 31
0.0
1001
REVIT
1002
{
1070
     3
1000
938184
1002
}
  0
LINE
  5
245
330
21C
100
AcDbEntity
  8
M-PIPE
100
AcDbLine
 10
1133.113156828896
 20
2087.918183849946
 30
0.0
 11
1133.113156828896
 21
2140.418183849962
 31
0.0
1001
REVIT
1002
{
1070
     3
1000
938184
1002
}
  0
SPLINE
  5
246
330
21C
100
AcDbEntity
  8
M-PIPE
100
AcDbSpline
210
0.0
220
0.0
230
1.0
 70
     8
 71
     3
 72
    14
 73
    10
 74
     0
 42
0.000000001
 43
0.0000000001
 40
0.0
 40
0.0
 40
0.0
 40
0.0
 40
0.1428571428571428
 40
0.2857142857142857
 40
0.4285714285714286
 40
0.5714285714285714
 40
0.6785714285714287
 40
0.7857142857142857
 40
1.0
 40
1.0
 40
1.0
 40
1.0
 10
1130.838345123959
 20
2143.918183849962
 30
0.0
 10
1130.996865423335
 20
2143.918183849962
 30
0.0
 10
1131.319799459779
 20
2143.865090042629
 30
0.0
 10
1131.787615967084
 20
2143.624465272058
 30
0.0
 10
1132.220182981492
 20
2143.226879147567
 30
0.0
 10
1132.562741036522
 20
2142.727499218638
 30
0.0
 10
1132.813697663423
 20
2142.180245707345
 30
0.0
 10
1133.040474333712
 20
2141.444664079213
 30
0.0
 10
1133.11355355953
 20
2140.830374721502
 30
0.0
 10
1133.113156828896
 20
2140.418183849962
 30
0.0
1001
REVIT
1002
{
1070
     3
1000
938184
1002
}
  0
SPLINE
  5
247
330
21C
100
AcDbEntity
  8
M-PIPE
100
AcDbSpline
210
0.0
220
0.0
230
1.0
 70
     8
 71
     3
 72
    13
 73
     9
 74
     0
 42
0.000000001
 43
0.0000000001
 40
-1.0
 40
-1.0
 40
-1.0
 40
-1.0
 40
-0.8333333333333332
 40
-0.6666666666666666
 40
-0.5
 40
-0.3333333333333333
 40
-0.1666666666666666
 40
0.0
 40
0.0
 40
0.0
 40
0.0
 10
1119.887968533833
 20
2143.918183849962
 30
0.0
 10
1119.696943257964
 20
2143.918183849962
 30
0.0
 10
1119.305995298715
 20
2143.837764011077
 30
0.0
 10
1118.743235003247
 20
2143.484095638127
 30
0.0
 10
1118.26544626693
 20
2142.921490015658
 30
0.0
 10
1117.899554093972
 20
2142.188289803927
 30
0.0
 10
1117.662423559774
 20
2141.334453868402
 30
0.0
 10
1117.611355066861
 20
2140.723616469061
 30
0.0
 10
1117.613156828896
 20
2140.418183849962
 30
0.0
1001
REVIT
1002
{
1070
     3
1000
938184
1002
}
  0
SPLINE
  5
248
330
21C
100
AcDbEntity
  8
M-PIPE
100
AcDbSpline
210
0.0
220
0.0
230
1.0
 70
     8
 71
     3
 72
    13
 73
     9
 74
     0
 42
0.000000001
 43
0.0000000001
 40
0.0
 40
0.0
 40
0.0
 40
0.0
 40
0.1428571428571428
 40
0.2857142857142857
 40
0.4285714285714286
 40
0.5714285714285714
 40
0.7857142857142857
 40
1.0
 40
1.0
 40
1.0
 40
1.0
 10
1116.295749404067
 20
2143.918183849962
 30
0.0
 10
1116.11476063888
 20
2143.918183849962
 30
0.0
 10
1115.748596286904
 20
2143.862414939439
 30
0.0
 10
1115.221264788193
 20
2143.611703779833
 30
0.0
 10
1114.740546290682
 20
2143.202297119117
 30
0.0
 10
1114.263877522315
 20
2142.557905715275
 30
0.0
 10
1113.879650225747
 20
2141.621853728574
 30
0.0
 10
1113.777971745073
 20
2140.820137066185
 30
0.0
 10
1113.778157360615
 20
2140.418183849962
 30
0.0
1001
REVIT
1002
{
1070
     3
1000
938184
1002
}
  0
SPLINE
  5
249
330
21C
100
AcDbEntity
  8
M-PIPE
100
AcDbSpline
210
0.0
220
0.0
230
1.0
 70
     8
 71
     3
 72
    14
 73
    10
 74
     0
 42
0.000000001
 43
0.0000000001
 40
0.0
 40
0.0
 40
0.0
 40
0.0
 40
0.1666666666666666
 40
0.25
 40
0.3333333333333333
 40
0.5
 40
0.6666666666666666
 40
0.8333333333333332
 40
1.0
 40
1.0
 40
1.0
 40
1.0
 10
1136.325512883987
 20
2140.418183849962
 30
0.0
 10
1136.324229764725
 20
2140.715740041036
 30
0.0
 10
1136.282470384725
 20
2141.165035567341
 30
0.0
 10
1136.146954653812
 20
2141.740456641112
 30
0.0
 10
1135.959369264462
 20
2142.288888373818
 30
0.0
 10
1135.636680914458
 20
2142.912929884589
 30
0.0
 10
1135.122469425763
 20
2143.486048015107
 30
0.0
 10
1134.524580213501
 20
2143.838514634227
 30
0.0
 10
1134.10793861339
 20
2143.918183849962
 30
0.0
 10
1133.90387517742
 20
2143.918183849962
 30
0.0
1001
REVIT
1002
{
1070
     3
1000
938184
1002
}
  0
LINE
  5
24A
330
21C
100
AcDbEntity
  8
M-PIPE
100
AcDbLine
 10
1096.170864316993
 20
2095.768265528397
 30
0.0
 11
1096.170864316993
 21
2087.918183850011
 31
0.0
1001
REVIT
1002
{
1070
     3
1000
938184
1002
}
  0
LINE
  5
24B
330
21C
100
AcDbEntity
  8
M-PIPE
100
AcDbLine
 10
1156.170864316993
 20
2087.91818385001
 30
0.0
 11
1156.170864316994
 21
2095.768265528396
 31
0.0
1001
REVIT
1002
{
1070
     3
1000
938184
1002
}
  0
LINE
  5
24C
330
21C
100
AcDbEntity
  8
M-PIPE
100
AcDbLine
 10
1096.170864316991
 20
2087.91818385001
 30
0.0
 11
1117.0827921488
 21
2087.91818385001
 31
0.0
1001
REVIT
1002
{
1070
     3
1000
938184
1002
}
  0
LINE
  5
24D
330
21C
100
AcDbEntity
  8
M-PIPE
100
AcDbLine
 10
1133.328892446304
 20
2087.91818385001
 30
0.0
 11
1156.170864316991
 21
2087.918183850009
 31
0.0
1001
REVIT
1002
{
1070
     3
1000
938184
1002
}
  0
LINE
  5
24E
330
21C
100
AcDbEntity
  8
M-PIPE
100
AcDbLine
 10
1117.0827921488
 20
2095.768265528396
 30
0.0
 11
1096.170864316991
 21
2095.768265528396
 31
0.0
1001
REVIT
1002
{
1070
     3
1000
938184
1002
}
  0
LINE
  5
24F
330
21C
100
AcDbEntity
  8
M-PIPE
100
AcDbLine
 10
1156.170864316991
 20
2095.768265528395
 30
0.0
 11
1133.328892446304
 21
2095.768265528396
 31
0.0
1001
REVIT
1002
{
1070
     3
1000
938184
1002
}
  0
LINE
  5
250
330
21C
100
AcDbEntity
  8
M-PIPE
100
AcDbLine
 10
1176.213681093009
 20
2019.81818385001
 30
0.0
 11
1176.213681093009
 21
2036.818183850009
 31
0.0
1001
REVIT
1002
{
1070
     3
1000
790271
1002
}
  0
LINE
  5
251
330
21C
100
AcDbEntity
  8
M-PIPE
100
AcDbLine
 10
1194.667112454057
 20
2019.81818385001
 30
0.0
 11
1194.667112454057
 21
2036.818183850009
 31
0.0
1001
REVIT
1002
{
1070
     3
1000
790271
1002
}
  0
LINE
  5
252
330
21C
100
AcDbEntity
  8
M-PIPE
100
AcDbLine
 10
1056.059201203774
 20
2036.818183850011
 30
0.0
 11
1056.059201203774
 21
2019.81818385001
 31
0.0
1001
REVIT
1002
{
1070
     3
1000
790271
1002
}
  0
LINE
  5
253
330
21C
100
AcDbEntity
  8
M-PIPE
100
AcDbLine
 10
1074.512632564801
 20
2036.818183850011
 30
0.0
 11
1074.512632564801
 21
2019.81818385001
 31
0.0
1001
REVIT
1002
{
1070
     3
1000
790271
1002
}
  0
LINE
  5
254
330
21C
100
AcDbEntity
  8
M-PIPE
100
AcDbLine
 10
1067.859201203769
 20
2039.31818385001
 30
0.0
 11
1067.859201203769
 21
2036.818183850011
 31
0.0
1001
REVIT
1002
{
1070
     3
1000
790271
1002
}
  0
LINE
  5
255
330
21C
100
AcDbEntity
  8
M-PIPE
100
AcDbLine
 10
1182.867112454028
 20
2036.818183850009
 30
0.0
 11
1182.867112454028
 21
2039.318183850009
 31
0.0
1001
REVIT
1002
{
1070
     3
1000
790271
1002
}
  0
LINE
  5
256
330
21C
100
AcDbEntity
  8
M-PIPE
100
AcDbLine
 10
1076.458302315635
 20
2042.31818385001
 30
0.0
 11
1067.859201203769
 21
2039.31818385001
 31
0.0
1001
REVIT
1002
{
1070
     3
1000
790271
1002
}
  0
LINE
  5
257
330
21C
100
AcDbEntity
  8
M-PIPE
100
AcDbLine
 10
1182.867112454028
 20
2039.318183850009
 30
0.0
 11
1174.268011342163
 21
2042.318183850008
 31
0.0
1001
REVIT
1002
{
1070
     3
1000
790271
1002
}
  0
LINE
  5
258
330
21C
100
AcDbEntity
  8
M-PIPE
100
AcDbLine
 10
1097.363156828899
 20
2052.66818385001
 30
0.0
 11
1097.863156828906
 21
2042.31818385001
 31
0.0
1001
REVIT
1002
{
1070
     3
1000
790271
1002
}
  0
LINE
  5
259
330
21C
100
AcDbEntity
  8
M-PIPE
100
AcDbLine
 10
1152.863156828892
 20
2042.318183850009
 30
0.0
 11
1153.363156828899
 21
2052.66818385001
 31
0.0
1001
REVIT
1002
{
1070
     3
1000
790271
1002
}
  0
LINE
  5
25A
330
21C
100
AcDbEntity
  8
M-PIPE
100
AcDbLine
 10
1097.863156828899
 20
2063.01818385001
 30
0.0
 11
1097.363156828899
 21
2052.66818385001
 31
0.0
1001
REVIT
1002
{
1070
     3
1000
790271
1002
}
  0
LINE
  5
25B
330
21C
100
AcDbEntity
  8
M-PIPE
100
AcDbLine
 10
1153.363156828899
 20
2052.66818385001
 30
0.0
 11
1152.863156828899
 21
2063.01818385001
 31
0.0
1001
REVIT
1002
{
1070
     3
1000
790271
1002
}
  0
LINE
  5
25C
330
21C
100
AcDbEntity
  8
M-PIPE
100
AcDbLine
 10
1097.863156828899
 20
2067.018183849947
 30
0.0
 11
1097.863156828899
 21
2063.01818385001
 31
0.0
1001
REVIT
1002
{
1070
     3
1000
790271
1002
}
  0
LINE
  5
25D
330
21C
100
AcDbEntity
  8
M-PIPE
100
AcDbLine
 10
1152.863156828899
 20
2063.01818385001
 30
0.0
 11
1152.863156828899
 21
2067.018183849947
 31
0.0
1001
REVIT
1002
{
1070
     3
1000
790271
1002
}
  0
LINE
  5
25E
330
21C
100
AcDbEntity
  8
M-PIPE
100
AcDbLine
 10
1101.363156828899
 20
2082.918183849947
 30
0.0
 11
1101.363156828899
 21
2070.518183849947
 31
0.0
1001
REVIT
1002
{
1070
     3
1000
790271
1002
}
  0
LINE
  5
25F
330
21C
100
AcDbEntity
  8
M-PIPE
100
AcDbLine
 10
1149.363156828899
 20
2070.518183849947
 30
0.0
 11
1149.363156828899
 21
2082.918183849947
 31
0.0
1001
REVIT
1002
{
1070
     3
1000
790271
1002
}
  0
LINE
  5
260
330
21C
100
AcDbEntity
  8
M-PIPE
100
AcDbLine
 10
1101.363156828899
 20
2070.518183849947
 30
0.0
 11
1097.863156828899
 21
2067.018183849947
 31
0.0
1001
REVIT
1002
{
1070
     3
1000
790271
1002
}
  0
LINE
  5
261
330
21C
100
AcDbEntity
  8
M-PIPE
100
AcDbLine
 10
1152.863156828899
 20
2067.018183849947
 30
0.0
 11
1149.363156828899
 21
2070.518183849947
 31
0.0
1001
REVIT
1002
{
1070
     3
1000
790271
1002
}
  0
LINE
  5
262
330
21C
100
AcDbEntity
  8
M-PIPE
100
AcDbLine
 10
1096.363156828899
 20
2087.918183849947
 30
0.0
 11
1101.363156828899
 21
2082.918183849947
 31
0.0
1001
REVIT
1002
{
1070
     3
1000
790271
1002
}
  0
LINE
  5
263
330
21C
100
AcDbEntity
  8
M-PIPE
100
AcDbLine
 10
1149.363156828899
 20
2082.918183849947
 30
0.0
 11
1154.363156828899
 21
2087.918183849946
 31
0.0
1001
REVIT
1002
{
1070
     3
1000
790271
1002
}
  0
LINE
  5
264
330
21C
100
AcDbEntity
  8
M-PIPE
100
AcDbLine
 10
1130.819116872755
 20
2036.818183850009
 30
0.0
 11
1125.363156828896
 21
2036.818183850009
 31
0.0
1001
REVIT
1002
{
1070
     3
1000
790271
1002
}
  0
LINE
  5
265
330
21C
100
AcDbEntity
  8
M-PIPE
100
AcDbLine
 10
1125.363156828896
 20
2036.81818385001
 30
0.0
 11
1119.907196785071
 21
2036.81818385001
 31
0.0
1001
REVIT
1002
{
1070
     3
1000
790271
1002
}
  0
LINE
  5
266
330
21C
100
AcDbEntity
  8
M-PIPE
100
AcDbLine
 10
1134.163156828913
 20
2036.818183850009
 30
0.0
 11
1130.819116872755
 21
2036.818183850009
 31
0.0
1001
REVIT
1002
{
1070
     3
1000
790271
1002
}
  0
LINE
  5
267
330
21C
100
AcDbEntity
  8
M-PIPE
100
AcDbLine
 10
1185.725065347448
 20
2036.818183850008
 30
0.0
 11
1176.250957109377
 21
2036.818183850008
 31
0.0
1001
REVIT
1002
{
1070
     3
1000
790271
1002
}
  0
LINE
  5
268
330
21C
100
AcDbEntity
  8
M-PIPE
100
AcDbLine
 10
1076.458302315632
 20
2042.318183850009
 30
0.0
 11
1125.363156828896
 21
2042.318183850009
 31
0.0
1001
REVIT
1002
{
1070
     3
1000
790271
1002
}
  0
LINE
  5
269
330
21C
100
AcDbEntity
  8
M-PIPE
100
AcDbLine
 10
1125.363156828897
 20
2042.318183850009
 30
0.0
 11
1174.26801134216
 21
2042.318183850008
 31
0.0
1001
REVIT
1002
{
1070
     3
1000
790271
1002
}
  0
LINE
  5
26A
330
21C
100
AcDbEntity
  8
M-PIPE
100
AcDbLine
 10
1116.563156828913
 20
2019.818183850009
 30
0.0
 11
1115.436483234337
 21
2019.818183850009
 31
0.0
1001
REVIT
1002
{
1070
     3
1000
790271
1002
}
  0
LINE
  5
26B
330
21C
100
AcDbEntity
  8
M-PIPE
100
AcDbLine
 10
1115.436483234337
 20
2019.818183850009
 30
0.0
 11
1088.903381664536
 21
2019.818183850009
 31
0.0
1001
REVIT
1002
{
1070
     3
1000
790271
1002
}
  0
LINE
  5
26C
330
21C
100
AcDbEntity
  8
M-PIPE
100
AcDbLine
 10
1088.903381664536
 20
2019.818183850009
 30
0.0
 11
1082.443192548945
 21
2019.818183850009
 31
0.0
1001
REVIT
1002
{
1070
     3
1000
790271
1002
}
  0
LINE
  5
26D
330
21C
100
AcDbEntity
  8
M-PIPE
100
AcDbLine
 10
1082.443192548945
 20
2019.818183850009
 30
0.0
 11
1074.512632564799
 21
2019.818183850009
 31
0.0
1001
REVIT
1002
{
1070
     3
1000
790271
1002
}
  0
LINE
  5
26E
330
21C
100
AcDbEntity
  8
M-PIPE
100
AcDbLine
 10
1074.47535654843
 20
2019.818183850009
 30
0.0
 11
1065.001248310378
 21
2019.818183850009
 31
0.0
1001
REVIT
1002
{
1070
     3
1000
790271
1002
}
  0
LINE
  5
26F
330
21C
100
AcDbEntity
  8
M-PIPE
100
AcDbLine
 10
1065.001248310378
 20
2019.818183850009
 30
0.0
 11
1059.209201203772
 21
2019.818183850009
 31
0.0
1001
REVIT
1002
{
1070
     3
1000
790271
1002
}
  0
LINE
  5
270
330
21C
100
AcDbEntity
  8
M-PIPE
100
AcDbLine
 10
1059.209201203772
 20
2019.818183850009
 30
0.0
 11
1056.059201203772
 21
2019.818183850009
 31
0.0
1001
REVIT
1002
{
1070
     3
1000
790271
1002
}
  0
LINE
  5
271
330
21C
100
AcDbEntity
  8
M-PIPE
100
AcDbLine
 10
1194.667112454055
 20
2019.818183850009
 30
0.0
 11
1191.517112454055
 21
2019.818183850009
 31
0.0
1001
REVIT
1002
{
1070
     3
1000
790271
1002
}
  0
LINE
  5
272
330
21C
100
AcDbEntity
  8
M-PIPE
100
AcDbLine
 10
1191.517112454055
 20
2019.818183850009
 30
0.0
 11
1185.725065347448
 21
2019.818183850009
 31
0.0
1001
REVIT
1002
{
1070
     3
1000
790271
1002
}
  0
LINE
  5
273
330
21C
100
AcDbEntity
  8
M-PIPE
100
AcDbLine
 10
1176.250957109377
 20
2019.818183850009
 30
0.0
 11
1185.725065347448
 21
2019.818183850009
 31
0.0
1001
REVIT
1002
{
1070
     3
1000
790271
1002
}
  0
LINE
  5
274
330
21C
100
AcDbEntity
  8
M-PIPE
100
AcDbLine
 10
1176.213681093007
 20
2019.818183850009
 30
0.0
 11
1168.283121108862
 21
2019.818183850009
 31
0.0
1001
REVIT
1002
{
1070
     3
1000
790271
1002
}
  0
LINE
  5
275
330
21C
100
AcDbEntity
  8
M-PIPE
100
AcDbLine
 10
1168.283121108862
 20
2019.818183850009
 30
0.0
 11
1161.82293199327
 21
2019.818183850009
 31
0.0
1001
REVIT
1002
{
1070
     3
1000
790271
1002
}
  0
LINE
  5
276
330
21C
100
AcDbEntity
  8
M-PIPE
100
AcDbLine
 10
1161.82293199327
 20
2019.818183850009
 30
0.0
 11
1134.163156828913
 21
2019.818183850009
 31
0.0
1001
REVIT
1002
{
1070
     3
1000
790271
1002
}
  0
LINE
  5
277
330
21C
100
AcDbEntity
  8
M-PIPE
100
AcDbLine
 10
1130.819116872755
 20
2019.818183850009
 30
0.0
 11
1134.163156828913
 21
2019.818183850009
 31
0.0
1001
REVIT
1002
{
1070
     3
1000
790271
1002
}
  0
LINE
  5
278
330
21C
100
AcDbEntity
  8
M-PIPE
100
AcDbLine
 10
1119.907196785071
 20
2019.818183850009
 30
0.0
 11
1130.819116872755
 21
2019.818183850009
 31
0.0
1001
REVIT
1002
{
1070
     3
1000
790271
1002
}
  0
LINE
  5
279
330
21C
100
AcDbEntity
  8
M-PIPE
100
AcDbLine
 10
1119.907196785071
 20
2019.818183850009
 30
0.0
 11
1116.563156828913
 21
2019.818183850009
 31
0.0
1001
REVIT
1002
{
1070
     3
1000
790271
1002
}
  0
LINE
  5
27A
330
21C
100
AcDbEntity
  8
M-PIPE
100
AcDbLine
 10
1119.907196785071
 20
2036.81818385001
 30
0.0
 11
1116.563156828913
 21
2036.81818385001
 31
0.0
1001
REVIT
1002
{
1070
     3
1000
790271
1002
}
  0
LINE
  5
27B
330
21C
100
AcDbEntity
  8
M-PIPE
100
AcDbLine
 10
1116.563156828913
 20
2036.81818385001
 30
0.0
 11
1116.563156828913
 21
2019.818183850009
 31
0.0
1001
REVIT
1002
{
1070
     3
1000
790271
1002
}
  0
LINE
  5
27C
330
21C
100
AcDbEntity
  8
M-PIPE
100
AcDbLine
 10
1161.822931993269
 20
2036.818183850009
 30
0.0
 11
1134.163156828912
 21
2036.818183850009
 31
0.0
1001
REVIT
1002
{
1070
     3
1000
790271
1002
}
  0
LINE
  5
27D
330
21C
100
AcDbEntity
  8
M-PIPE
100
AcDbLine
 10
1134.163156828912
 20
2019.818183850009
 30
0.0
 11
1134.163156828912
 21
2036.818183850009
 31
0.0
1001
REVIT
1002
{
1070
     3
1000
790271
1002
}
  0
LINE
  5
27E
330
21C
100
AcDbEntity
  8
M-PIPE
100
AcDbLine
 10
1168.283121108861
 20
2036.818183850009
 30
0.0
 11
1161.82293199327
 21
2036.818183850009
 31
0.0
1001
REVIT
1002
{
1070
     3
1000
790271
1002
}
  0
LINE
  5
27F
330
21C
100
AcDbEntity
  8
M-PIPE
100
AcDbLine
 10
1161.82293199327
 20
2019.818183850009
 30
0.0
 11
1161.82293199327
 21
2036.818183850009
 31
0.0
1001
REVIT
1002
{
1070
     3
1000
790271
1002
}
  0
LINE
  5
280
330
21C
100
AcDbEntity
  8
M-PIPE
100
AcDbLine
 10
1176.213681093007
 20
2036.818183850009
 30
0.0
 11
1168.283121108862
 21
2036.818183850009
 31
0.0
1001
REVIT
1002
{
1070
     3
1000
790271
1002
}
  0
LINE
  5
281
330
21C
100
AcDbEntity
  8
M-PIPE
100
AcDbLine
 10
1191.517112454055
 20
2036.818183850008
 30
0.0
 11
1185.725065347448
 21
2036.818183850008
 31
0.0
1001
REVIT
1002
{
1070
     3
1000
790271
1002
}
  0
LINE
  5
282
330
21C
100
AcDbEntity
  8
M-PIPE
100
AcDbLine
 10
1185.725065347448
 20
2019.818183850009
 30
0.0
 11
1185.725065347448
 21
2036.818183850008
 31
0.0
1001
REVIT
1002
{
1070
     3
1000
790271
1002
}
  0
LINE
  5
283
330
21C
100
AcDbEntity
  8
M-PIPE
100
AcDbLine
 10
1194.667112454055
 20
2036.818183850008
 30
0.0
 11
1191.517112454055
 21
2036.818183850008
 31
0.0
1001
REVIT
1002
{
1070
     3
1000
790271
1002
}
  0
LINE
  5
284
330
21C
100
AcDbEntity
  8
M-PIPE
100
AcDbLine
 10
1059.209201203772
 20
2036.81818385001
 30
0.0
 11
1056.059201203772
 21
2036.81818385001
 31
0.0
1001
REVIT
1002
{
1070
     3
1000
790271
1002
}
  0
LINE
  5
285
330
21C
100
AcDbEntity
  8
M-PIPE
100
AcDbLine
 10
1065.001248310378
 20
2036.81818385001
 30
0.0
 11
1059.209201203772
 21
2036.81818385001
 31
0.0
1001
REVIT
1002
{
1070
     3
1000
790271
1002
}
  0
LINE
  5
286
330
21C
100
AcDbEntity
  8
M-PIPE
100
AcDbLine
 10
1074.47535654843
 20
2036.81818385001
 30
0.0
 11
1065.001248310378
 21
2036.81818385001
 31
0.0
1001
REVIT
1002
{
1070
     3
1000
790271
1002
}
  0
LINE
  5
287
330
21C
100
AcDbEntity
  8
M-PIPE
100
AcDbLine
 10
1065.001248310378
 20
2019.818183850009
 30
0.0
 11
1065.001248310378
 21
2036.81818385001
 31
0.0
1001
REVIT
1002
{
1070
     3
1000
790271
1002
}
  0
LINE
  5
288
330
21C
100
AcDbEntity
  8
M-PIPE
100
AcDbLine
 10
1082.443192548945
 20
2036.81818385001
 30
0.0
 11
1074.512632564799
 21
2036.81818385001
 31
0.0
1001
REVIT
1002
{
1070
     3
1000
790271
1002
}
  0
LINE
  5
289
330
21C
100
AcDbEntity
  8
M-PIPE
100
AcDbLine
 10
1088.903381664536
 20
2036.81818385001
 30
0.0
 11
1082.443192548945
 21
2036.81818385001
 31
0.0
1001
REVIT
1002
{
1070
     3
1000
790271
1002
}
  0
LINE
  5
28A
330
21C
100
AcDbEntity
  8
M-PIPE
100
AcDbLine
 10
1115.436483234337
 20
2036.81818385001
 30
0.0
 11
1088.903381664536
 21
2036.81818385001
 31
0.0
1001
REVIT
1002
{
1070
     3
1000
790271
1002
}
  0
LINE
  5
28B
330
21C
100
AcDbEntity
  8
M-PIPE
100
AcDbLine
 10
1088.903381664536
 20
2019.818183850009
 30
0.0
 11
1088.903381664536
 21
2036.81818385001
 31
0.0
1001
REVIT
1002
{
1070
     3
1000
790271
1002
}
  0
LINE
  5
28C
330
21C
100
AcDbEntity
  8
M-PIPE
100
AcDbLine
 10
1116.563156828913
 20
2036.81818385001
 30
0.0
 11
1115.436483234338
 21
2036.81818385001
 31
0.0
1001
REVIT
1002
{
1070
     3
1000
790271
1002
}
  0
LINE
  5
28D
330
21C
100
AcDbEntity
  8
M-PIPE
100
AcDbLine
 10
1125.363156828896
 20
2039.31818385001
 30
0.0
 11
1067.859201203767
 21
2039.31818385001
 31
0.0
1001
REVIT
1002
{
1070
     3
1000
790271
1002
}
  0
LINE
  5
28E
330
21C
100
AcDbEntity
  8
M-PIPE
100
AcDbLine
 10
1182.867112454025
 20
2039.318183850008
 30
0.0
 11
1125.363156828896
 21
2039.31818385001
 31
0.0
1001
REVIT
1002
{
1070
     3
1000
790271
1002
}
  0
LINE
  5
28F
330
21C
100
AcDbEntity
  8
M-PIPE
100
AcDbLine
 10
1125.363156828896
 20
2063.018183850009
 30
0.0
 11
1097.863156828897
 21
2063.018183850009
 31
0.0
1001
REVIT
1002
{
1070
     3
1000
790271
1002
}
  0
LINE
  5
290
330
21C
100
AcDbEntity
  8
M-PIPE
100
AcDbLine
 10
1125.363156828896
 20
2052.66818385001
 30
0.0
 11
1097.367746027475
 21
2052.66818385001
 31
0.0
1001
REVIT
1002
{
1070
     3
1000
790271
1002
}
  0
LINE
  5
291
330
21C
100
AcDbEntity
  8
M-PIPE
100
AcDbLine
 10
1153.358567630318
 20
2052.668183850009
 30
0.0
 11
1125.363156828896
 21
2052.66818385001
 31
0.0
1001
REVIT
1002
{
1070
     3
1000
790271
1002
}
  0
LINE
  5
292
330
21C
100
AcDbEntity
  8
M-PIPE
100
AcDbLine
 10
1152.863156828897
 20
2063.018183850009
 30
0.0
 11
1125.363156828897
 21
2063.018183850009
 31
0.0
1001
REVIT
1002
{
1070
     3
1000
790271
1002
}
  0
LINE
  5
293
330
21C
100
AcDbEntity
  8
M-PIPE
100
AcDbLine
 10
1101.363156828897
 20
2070.518183849947
 30
0.0
 11
1125.363156828897
 21
2070.518183849947
 31
0.0
1001
REVIT
1002
{
1070
     3
1000
790271
1002
}
  0
LINE
  5
294
330
21C
100
AcDbEntity
  8
M-PIPE
100
AcDbLine
 10
1125.363156828897
 20
2070.518183849947
 30
0.0
 11
1149.363156828897
 21
2070.518183849946
 31
0.0
1001
REVIT
1002
{
1070
     3
1000
790271
1002
}
  0
LINE
  5
295
330
21C
100
AcDbEntity
  8
M-PIPE
100
AcDbLine
 10
1125.363156828897
 20
2067.018183849947
 30
0.0
 11
1097.863156828897
 21
2067.018183849947
 31
0.0
1001
REVIT
1002
{
1070
     3
1000
790271
1002
}
  0
LINE
  5
296
330
21C
100
AcDbEntity
  8
M-PIPE
100
AcDbLine
 10
1152.863156828897
 20
2067.018183849945
 30
0.0
 11
1125.363156828897
 21
2067.018183849947
 31
0.0
1001
REVIT
1002
{
1070
     3
1000
790271
1002
}
  0
LINE
  5
297
330
21C
100
AcDbEntity
  8
M-PIPE
100
AcDbLine
 10
1125.363156828897
 20
2082.918183849946
 30
0.0
 11
1101.363156828897
 21
2082.918183849946
 31
0.0
1001
REVIT
1002
{
1070
     3
1000
790271
1002
}
  0
LINE
  5
298
330
21C
100
AcDbEntity
  8
M-PIPE
100
AcDbLine
 10
1149.363156828897
 20
2082.918183849946
 30
0.0
 11
1125.363156828897
 21
2082.918183849946
 31
0.0
1001
REVIT
1002
{
1070
     3
1000
790271
1002
}
  0
LINE
  5
299
330
21C
100
AcDbEntity
  8
P-SANR-FIXT
100
AcDbLine
 10
1098.869973511846
 20
1961.919060616155
 30
0.0
 11
1100.8631568289
 21
1961.919060616155
 31
0.0
  0
LINE
  5
29A
330
21C
100
AcDbEntity
  8
P-SANR-FIXT
100
AcDbLine
 10
1149.8631568289
 20
1961.919060616155
 30
0.0
 11
1157.3631568289
 21
1961.919060616155
 31
0.0
  0
LINE
  5
29B
330
21C
100
AcDbEntity
  8
P-SANR-FIXT
100
AcDbLine
 10
1157.3631568289
 20
1979.919060616155
 30
0.0
 11
1149.863156828899
 21
1979.919060616155
 31
0.0
  0
LINE
  5
29C
330
21C
100
AcDbEntity
  8
P-SANR-FIXT
100
AcDbLine
 10
1100.863156828899
 20
1979.919060616155
 30
0.0
 11
1098.869973511846
 21
1979.919060616155
 31
0.0
  0
LINE
  5
29D
330
21C
100
AcDbEntity
  8
P-SANR-FIXT
100
AcDbLine
 10
1101.8631568289
 20
1986.094301954553
 30
0.0
 11
1101.8631568289
 21
1984.890670152655
 31
0.0
  0
LINE
  5
29E
330
21C
100
AcDbEntity
  8
P-SANR-FIXT
100
AcDbLine
 10
1148.8631568289
 20
1984.893052064271
 30
0.0
 11
1148.8631568289
 21
2008.698183850012
 31
0.0
  0
LINE
  5
29F
330
21C
100
AcDbEntity
  8
P-SANR-FIXT
100
AcDbLine
 10
1148.8631568289
 20
2008.698183850012
 30
0.0
 11
1149.607171649154
 21
2009.986855320275
 31
0.0
  0
LINE
  5
2A0
330
21C
100
AcDbEntity
  8
P-SANR-FIXT
100
AcDbLine
 10
1101.119142008647
 20
2014.318183850012
 30
0.0
 11
1101.119142008647
 21
2013.198196402509
 31
0.0
  0
LINE
  5
2A1
330
21C
100
AcDbEntity
  8
P-SANR-FIXT
100
AcDbLine
 10
1149.607171649153
 20
2009.986855320275
 30
0.0
 11
1149.607171649153
 21
2014.318183850012
 31
0.0
  0
LINE
  5
2A2
330
21C
100
AcDbEntity
  8
P-SANR-FIXT
100
AcDbLine
 10
1067.859201203774
 20
2017.318183850012
 30
0.0
 11
1076.458302315639
 21
2014.318183850012
 31
0.0
  0
LINE
  5
2A3
330
21C
100
AcDbEntity
  8
P-SANR-FIXT
100
AcDbLine
 10
1174.268011342161
 20
2014.318183850012
 30
0.0
 11
1182.867112454026
 21
2017.318183850012
 31
0.0
  0
LINE
  5
2A4
330
21C
100
AcDbEntity
  8
P-SANR-FIXT
100
AcDbLine
 10
1067.859201203774
 20
2019.81818385001
 30
0.0
 11
1067.859201203774
 21
2017.318183850012
 31
0.0
  0
LINE
  5
2A5
330
21C
100
AcDbEntity
  8
P-SANR-FIXT
100
AcDbLine
 10
1182.867112454026
 20
2017.318183850012
 30
0.0
 11
1182.867112454026
 21
2019.81818385001
 31
0.0
  0
ARC
  5
2A6
330
21C
100
AcDbEntity
  8
P-SANR-FIXT
100
AcDbCircle
 10
1125.363156828897
 20
1970.919060616154
 30
0.0
 40
15.90000000000009
100
AcDbArc
 50
90.0
 51
269.9999999999997
  0
LINE
  5
2A7
330
21C
100
AcDbEntity
  8
P-SANR-FIXT
100
AcDbLine
 10
1157.363156828898
 20
1970.919060616154
 30
0.0
 11
1157.363156828898
 21
1961.919060616154
 31
0.0
  0
LINE
  5
2A8
330
21C
100
AcDbEntity
  8
P-SANR-FIXT
100
AcDbLine
 10
1157.363156828898
 20
1979.919060616154
 30
0.0
 11
1157.363156828898
 21
1970.919060616154
 31
0.0
  0
LINE
  5
2A9
330
21C
100
AcDbEntity
  8
P-SANR-FIXT
100
AcDbLine
 10
1112.170333588293
 20
1979.752627321166
 30
0.0
 11
1112.170333588293
 21
1979.774738867147
 31
0.0
  0
LINE
  5
2AA
330
21C
100
AcDbEntity
  8
P-SANR-FIXT
100
AcDbLine
 10
1138.555980069503
 20
1979.774738867147
 30
0.0
 11
1138.555980069503
 21
1979.752627321165
 31
0.0
  0
LINE
  5
2AB
330
21C
100
AcDbEntity
  8
P-SANR-FIXT
100
AcDbLine
 10
1148.863156828898
 20
2008.698183850011
 30
0.0
 11
1125.363156828898
 21
2008.698183850011
 31
0.0
  0
LINE
  5
2AC
330
21C
100
AcDbEntity
  8
P-SANR-FIXT
100
AcDbLine
 10
1149.607171649151
 20
2009.986855320274
 30
0.0
 11
1125.363156828898
 21
2009.986855320274
 31
0.0
  0
ARC
  5
2AD
330
21C
100
AcDbEntity
  8
P-SANR-FIXT
100
AcDbCircle
 10
1125.363156828897
 20
1970.919060616154
 30
0.0
 40
15.9000000000002
100
AcDbArc
 50
270.0000000000001
 51
89.99999999999959
  0
ARC
  5
2AE
330
21C
100
AcDbEntity
  8
P-SANR-FIXT
100
AcDbCircle
 10
1125.363156828897
 20
1970.919060616154
 30
0.0
 40
27.34999999999993
100
AcDbArc
 50
90.0
 51
93.28960376096782
  0
LINE
  5
2AF
330
21C
100
AcDbEntity
  8
P-SANR-FIXT
100
AcDbLine
 10
1123.793735107746
 20
1998.22399451941
 30
0.0
 11
1102.501101280598
 21
1985.930686647549
 31
0.0
  0
ARC
  5
2B0
330
21C
100
AcDbEntity
  8
P-SANR-FIXT
100
AcDbCircle
 10
1125.363156828897
 20
1970.919060616154
 30
0.0
 40
27.34999999999982
100
AcDbArc
 50
146.7103962390344
 51
153.6107601307027
  0
LINE
  5
2B1
330
21C
100
AcDbEntity
  8
P-SANR-FIXT
100
AcDbLine
 10
1100.863156828897
 20
1983.075231888392
 30
0.0
 11
1100.863156828898
 21
1958.762889343915
 31
0.0
  0
ARC
  5
2B2
330
21C
100
AcDbEntity
  8
P-SANR-FIXT
100
AcDbCircle
 10
1125.363156828897
 20
1970.919060616154
 30
0.0
 40
27.34999999999977
100
AcDbArc
 50
206.3892398692994
 51
213.9355863481264
  0
LINE
  5
2B3
330
21C
100
AcDbEntity
  8
P-SANR-FIXT
100
AcDbLine
 10
1102.671799656971
 20
1955.650635363495
 30
0.0
 11
1123.485991270275
 21
1943.63355623259
 31
0.0
  0
ARC
  5
2B4
330
21C
100
AcDbEntity
  8
P-SANR-FIXT
100
AcDbCircle
 10
1125.363156828897
 20
1970.919060616154
 30
0.0
 40
27.3499999999998
100
AcDbArc
 50
266.0644136518749
 51
269.9999999999999
  0
ARC
  5
2B5
330
21C
100
AcDbEntity
  8
P-SANR-FIXT
100
AcDbCircle
 10
1125.363156828897
 20
1970.919060616154
 30
0.0
 40
27.34999999999983
100
AcDbArc
 50
270.0000000000001
 51
273.935586348126
  0
LINE
  5
2B6
330
21C
100
AcDbEntity
  8
P-SANR-FIXT
100
AcDbLine
 10
1127.240322387521
 20
1943.63355623259
 30
0.0
 11
1148.054514000825
 21
1955.650635363495
 31
0.0
  0
ARC
  5
2B7
330
21C
100
AcDbEntity
  8
P-SANR-FIXT
100
AcDbCircle
 10
1125.363156828897
 20
1970.919060616154
 30
0.0
 40
27.34999999999972
100
AcDbArc
 50
326.0644136518751
 51
333.6107601307024
  0
LINE
  5
2B8
330
21C
100
AcDbEntity
  8
P-SANR-FIXT
100
AcDbLine
 10
1149.863156828898
 20
1958.762889343916
 30
0.0
 11
1149.863156828897
 21
1983.075231888393
 31
0.0
  0
ARC
  5
2B9
330
21C
100
AcDbEntity
  8
P-SANR-FIXT
100
AcDbCircle
 10
1125.363156828897
 20
1970.919060616154
 30
0.0
 40
27.3499999999999
100
AcDbArc
 50
26.38923986929953
 51
33.28960376096809
  0
LINE
  5
2BA
330
21C
100
AcDbEntity
  8
P-SANR-FIXT
100
AcDbLine
 10
1148.225212377196
 20
1985.93068664755
 30
0.0
 11
1126.932578550048
 21
1998.22399451941
 31
0.0
  0
ARC
  5
2BB
330
21C
100
AcDbEntity
  8
P-SANR-FIXT
100
AcDbCircle
 10
1125.363156828897
 20
1970.919060616154
 30
0.0
 40
27.34999999999991
100
AcDbArc
 50
86.71039623903453
 51
90.0
  0
LINE
  5
2BC
330
21C
100
AcDbEntity
  8
P-SANR-FIXT
100
AcDbLine
 10
1109.998460197824
 20
1966.899754078241
 30
0.0
 11
1109.983672063739
 21
1966.899754078241
 31
0.0
  0
LINE
  5
2BD
330
21C
100
AcDbEntity
  8
P-SANR-FIXT
100
AcDbLine
 10
1109.983672063738
 20
1974.938367154067
 30
0.0
 11
1109.998460197824
 21
1974.938367154067
 31
0.0
  0
LINE
  5
2BE
330
21C
100
AcDbEntity
  8
P-SANR-FIXT
100
AcDbLine
 10
1140.742641594057
 20
1966.899754078241
 30
0.0
 11
1140.72785345997
 21
1966.899754078241
 31
0.0
  0
LINE
  5
2BF
330
21C
100
AcDbEntity
  8
P-SANR-FIXT
100
AcDbLine
 10
1140.727853459971
 20
1974.938367154067
 30
0.0
 11
1140.742641594057
 21
1974.938367154067
 31
0.0
  0
LINE
  5
2C0
330
21C
100
AcDbEntity
  8
P-SANR-FIXT
100
AcDbLine
 10
1103.225504803351
 20
2014.318183850011
 30
0.0
 11
1076.458302315637
 21
2014.318183850011
 31
0.0
  0
LINE
  5
2C1
330
21C
100
AcDbEntity
  8
P-SANR-FIXT
100
AcDbLine
 10
1174.268011342159
 20
2014.318183850011
 30
0.0
 11
1125.363156828898
 21
2014.318183850011
 31
0.0
  0
LINE
  5
2C2
330
21C
100
AcDbEntity
  8
P-SANR-FIXT
100
AcDbLine
 10
1110.478226154132
 20
2017.318183850012
 30
0.0
 11
1067.859201203772
 21
2017.318183850012
 31
0.0
  0
LINE
  5
2C3
330
21C
100
AcDbEntity
  8
P-SANR-FIXT
100
AcDbLine
 10
1182.867112454024
 20
2017.318183850012
 30
0.0
 11
1125.363156828898
 21
2017.318183850012
 31
0.0
  0
ENDBLK
  5
2C5
330
21C
100
AcDbEntity
  8
0
100
AcDbBlockEnd
  0
ENDSEC
  0
SECTION
  2
ENTITIES
  0
INSERT
  5
1C6
330
71
100
AcDbEntity
  8
P-SANR-FIXT
100
AcDbBlockReference
  2
Automatic flow rate regulator valve_Caleffi_121 DN15 - 1_2__-859151-Est - Idraulica
 10
0.0
 20
0.0
 30
0.0
1001
REVIT
1002
{
1070
     1
1000
863131
1002
}
1002
{
1070
     5
1000
859151
1002
}
1002
{
1070
     2
1000
-2001160
1002
}
  0
INSERT
  5
21B
330
71
100
AcDbEntity
  8
P-SANR-FIXT
100
AcDbBlockReference
  2
Automatic flow rate regulator valve_Caleffi_121 DN15 - 1_2__-V1-Est - Idraulica
 10
0.0
 20
0.0
 30
0.0
1001
REVIT
1002
{
1070
     1
1000
863152
1002
}
1002
{
1070
     5
1000
859151
1002
}
1002
{
1070
     2
1000
-2001160
1002
}
  0
INSERT
  5
2C6
330
71
100
AcDbEntity
  8
P-SANR-FIXT
100
AcDbBlockReference
  2
Automatic flow rate regulator valve_Caleffi_121 DN15 - 1_2__-V2-Est - Idraulica
 10
0.0
 20
0.0
 30
0.0
1001
REVIT
1002
{
1070
     1
1000
863172
1002
}
1002
{
1070
     5
1000
859151
1002
}
1002
{
1070
     2
1000
-2001160
1002
}
  0
ENDSEC
  0
SECTION
  2
OBJECTS
  0
DICTIONARY
  5
C
330
0
100
AcDbDictionary
281
     1
  3
ACAD_CIP_PREVIOUS_PRODUCT_INFO
350
7A
  3
ACAD_COLOR
350
63
  3
ACAD_DETAILVIEWSTYLE
350
6B
  3
ACAD_GROUP
350
D
  3
ACAD_IMAGE_VARS
350
7B
  3
ACAD_LAYOUT
350
62
  3
ACAD_MATERIAL
350
10
  3
ACAD_MLEADERSTYLE
350
66
  3
ACAD_MLINESTYLE
350
5F
  3
ACAD_PLOTSETTINGS
350
61
  3
ACAD_PLOTSTYLENAME
350
E
  3
ACAD_SCALELIST
350
42
  3
ACAD_SECTIONVIEWSTYLE
350
68
  3
ACAD_TABLESTYLE
350
64
  3
ACAD_VISUALSTYLE
350
29
  3
ACDB_RECOMPOSE_DATA
350
2D1
  3
AcDbVariableDictionary
350
7C
  3
REVIT_DICTIONARY
350
2C8
  0
DICTIONARY
  5
2CD
330
71
100
AcDbDictionary
280
     1
281
     1
  3
ACAD_SORTENTS
360
2CE
  0
XRECORD
  5
7A
102
{ACAD_REACTORS
330
C
102
}
330
C
100
AcDbXrecord
280
     1
300
RVT
300
2013
300
RVT2013
  0
DICTIONARY
  5
63
102
{ACAD_REACTORS
330
C
102
}
330
C
100
AcDbDictionary
281
     1
  0
DICTIONARY
  5
6B
102
{ACAD_REACTORS
330
C
102
}
330
C
100
AcDbDictionary
281
     1
  3
Imperial24
350
6C
  0
DICTIONARY
  5
D
102
{ACAD_REACTORS
330
C
102
}
330
C
100
AcDbDictionary
281
     1
  0
RASTERVARIABLES
  5
7B
102
{ACAD_REACTORS
330
C
102
}
330
C
100
AcDbRasterVariables
 90
        0
 70
     0
 71
     1
 72
     1
  0
DICTIONARY
  5
62
102
{ACAD_REACTORS
330
C
102
}
330
C
100
AcDbDictionary
281
     1
  3
Layout1
350
70
  3
Layout2
350
78
  3
Model
350
74
  0
DICTIONARY
  5
10
102
{ACAD_REACTORS
330
C
102
}
330
C
100
AcDbDictionary
281
     1
  3
ByBlock
350
19
  3
ByLayer
350
11
  3
Global
350
21
  0
DICTIONARY
  5
66
102
{ACAD_REACTORS
330
C
102
}
330
C
100
AcDbDictionary
281
     1
  3
Standard
350
67
  0
DICTIONARY
  5
5F
102
{ACAD_REACTORS
330
C
102
}
330
C
100
AcDbDictionary
281
     1
  3
Standard
350
60
  0
DICTIONARY
  5
61
102
{ACAD_REACTORS
330
C
102
}
330
C
100
AcDbDictionary
281
     1
  0
ACDBDICTIONARYWDFLT
  5
E
102
{ACAD_REACTORS
330
C
102
}
330
C
100
AcDbDictionary
281
     1
  3
Normal
350
F
100
AcDbDictionaryWithDefault
340
F
  0
DICTIONARY
  5
42
102
{ACAD_REACTORS
330
C
102
}
330
C
100
AcDbDictionary
281
     1
  3
A0
350
43
  3
A1
350
44
  3
A2
350
45
  3
A3
350
46
  3
A4
350
47
  3
A5
350
48
  3
A6
350
49
  3
A7
350
4A
  3
A8
350
4B
  3
A9
350
4C
  3
B0
350
4D
  3
B1
350
4E
  3
B2
350
4F
  3
B3
350
50
  3
B4
350
51
  3
B5
350
52
  3
B6
350
53
  0
DICTIONARY
  5
68
102
{ACAD_REACTORS
330
C
102
}
330
C
100
AcDbDictionary
281
     1
  3
Imperial24
350
6A
  0
DICTIONARY
  5
64
102
{ACAD_REACTORS
330
C
102
}
330
C
100
AcDbDictionary
281
     1
  3
Standard
350
65
  0
DICTIONARY
  5
29
102
{ACAD_REACTORS
330
C
102
}
330
C
100
AcDbDictionary
281
     1
  3
2dWireframe
350
2F
  3
Basic
350
2E
  3
Brighten
350
35
  3
ColorChange
350
39
  3
Conceptual
350
32
  3
Dim
350
34
  3
EdgeColorOff
350
41
  3
Facepattern
350
38
  3
Flat
350
2A
  3
FlatWithEdges
350
2B
  3
Gouraud
350
2C
  3
GouraudWithEdges
350
2D
  3
Hidden
350
31
  3
JitterOff
350
3F
  3
Linepattern
350
37
  3
OverhangOff
350
40
  3
Realistic
350
33
  3
Shaded
350
3E
  3
Shaded with edges
350
3D
  3
Shades of Gray
350
3A
  3
Sketchy
350
3B
  3
Thicken
350
36
  3
Wireframe
350
30
  3
X-Ray
350
3C
  0
XRECORD
  5
2D1
102
{ACAD_REACTORS
330
C
102
}
330
C
100
AcDbXrecord
280
     1
 90
        1
330
65
  0
DICTIONARY
  5
7C
102
{ACAD_REACTORS
330
C
102
}
330
C
100
AcDbDictionary
281
     1
  3
CANNOSCALE
350
81
  3
CMLEADERSTYLE
350
7E
  3
CTABLESTYLE
350
7D
  3
CVIEWDETAILSTYLE
350
7F
  3
CVIEWSECTIONSTYLE
350
80
  0
DICTIONARY
  5
2C8
102
{ACAD_REACTORS
330
C
102
}
330
C
100
AcDbDictionary
281
     1
  3
DRAWING_TOOL
350
2CC
  3
REVIT_CATEGORY_MAPPING
350
2CA
  3
REVIT_SUB_CATEGORY_MAPPING
350
2CB
  3
REVIT_TYPE_MAPPING
350
2C9
  0
SORTENTSTABLE
  5
2CE
102
{ACAD_REACTORS
330
2CD
102
}
330
2CD
100
AcDbSortentsTable
330
71
  0
ACDBDETAILVIEWSTYLE
  5
6C
102
{ACAD_REACTORS
330
6B
102
}
330
6B
100
AcDbModelDocViewStyle
 70
     0
  3
Imperial24
290
     1
100
AcDbDetailViewStyle
 70
     0
 71
     0
 90
        3
 71
     1
340
55
 62
   256
 40
0.24
340
0
 62
   256
 40
0.24
300

 40
0.36
280
     3
 71
     2
340
5D
 90
       25
 62
   256
 71
     3
340
55
 62
   256
 40
0.24
 90
        1
 40
0.75
 90
        1
300
%<\AcVar ViewType \f "%tc1">% %<\AcVar ViewDetailId>%\PSCALA %<\AcVar ViewScale \f "%sn">%
 71
     4
340
5D
 90
       25
 62
   256
340
5D
 90
       25
 62
   256
280
     0
  0
LAYOUT
  5
70
102
{ACAD_REACTORS
330
62
102
}
330
62
100
AcDbPlotSettings
  1

  2

  4

  6

 40
0.0
 41
0.0
 42
0.0
 43
0.0
 44
0.0
 45
0.0
 46
0.0
 47
0.0
 48
0.0
 49
0.0
140
0.0
141
0.0
142
1.0
143
1.0
 70
   688
 72
     0
 73
     0
 74
     5
  7

 75
    16
147
1.0
 76
     0
 77
     2
 78
   300
148
0.0
149
0.0
100
AcDbLayout
  1
Layout1
 70
     1
 71
     1
 10
0.0
 20
0.0
 11
12.0
 21
9.0
 12
0.0
 22
0.0
 32
0.0
 14
0.0
 24
0.0
 34
0.0
 15
0.0
 25
0.0
 35
0.0
146
0.0
 13
0.0
 23
0.0
 33
0.0
 16
1.0
 26
0.0
 36
0.0
 17
0.0
 27
1.0
 37
0.0
 76
     0
330
6D
  0
LAYOUT
  5
78
102
{ACAD_REACTORS
330
62
102
}
330
62
100
AcDbPlotSettings
  1

  2

  4

  6

 40
0.0
 41
0.0
 42
0.0
 43
0.0
 44
0.0
 45
0.0
 46
0.0
 47
0.0
 48
0.0
 49
0.0
140
0.0
141
0.0
142
1.0
143
1.0
 70
   688
 72
     0
 73
     0
 74
     5
  7

 75
    16
147
1.0
 76
     0
 77
     2
 78
   300
148
0.0
149
0.0
100
AcDbLayout
  1
Layout2
 70
     1
 71
     2
 10
0.0
 20
0.0
 11
12.0
 21
9.0
 12
0.0
 22
0.0
 32
0.0
 14
0.0
 24
0.0
 34
0.0
 15
0.0
 25
0.0
 35
0.0
146
0.0
 13
0.0
 23
0.0
 33
0.0
 16
1.0
 26
0.0
 36
0.0
 17
0.0
 27
1.0
 37
0.0
 76
     0
330
75
  0
LAYOUT
  5
74
102
{ACAD_REACTORS
330
62
102
}
330
62
100
AcDbPlotSettings
  1

  2

  4

  6

 40
0.0
 41
0.0
 42
0.0
 43
0.0
 44
0.0
 45
0.0
 46
0.0
 47
0.0
 48
0.0
 49
0.0
140
0.0
141
0.0
142
1.0
143
1.0
 70
  1712
 72
     0
 73
     0
 74
     0
  7

 75
     0
147
1.0
 76
     0
 77
     2
 78
   300
148
0.0
149
0.0
100
AcDbLayout
  1
Model
 70
     1
 71
     0
 10
0.0
 20
0.0
 11
12.0
 21
9.0
 12
0.0
 22
0.0
 32
0.0
 14
0.0
 24
0.0
 34
0.0
 15
0.0
 25
0.0
 35
0.0
146
0.0
 13
0.0
 23
0.0
 33
0.0
 16
1.0
 26
0.0
 36
0.0
 17
0.0
 27
1.0
 37
0.0
 76
     0
330
71
  0
MATERIAL
  5
19
102
{ACAD_XDICTIONARY
360
1A
102
}
102
{ACAD_REACTORS
330
10
102
}
330
10
100
AcDbMaterial
  1
ByBlock
 72
     0
 43
0.0208333333333333
 43
0.0
 43
0.0
 43
0.0
 43
0.0
 43
0.0208333333333333
 43
0.0
 43
0.0
 43
0.0
 43
0.0
 43
1.0
 43
0.0
 43
0.0
 43
0.0
 43
0.0
 43
1.0
 77
     0
 47
0.0208333333333333
 47
0.0
 47
0.0
 47
0.0
 47
0.0
 47
0.0208333333333333
 47
0.0
 47
0.0
 47
0.0
 47
0.0
 47
1.0
 47
0.0
 47
0.0
 47
0.0
 47
0.0
 47
1.0
171
     0
 49
0.0208333333333333
 49
0.0
 49
0.0
 49
0.0
 49
0.0
 49
0.0208333333333333
 49
0.0
 49
0.0
 49
0.0
 49
0.0
 49
1.0
 49
0.0
 49
0.0
 49
0.0
 49
0.0
 49
1.0
175
     0
142
0.0208333333333333
142
0.0
142
0.0
142
0.0
142
0.0
142
0.0208333333333333
142
0.0
142
0.0
142
0.0
142
0.0
142
1.0
142
0.0
142
0.0
142
0.0
142
0.0
142
1.0
179
     0
144
0.0208333333333333
144
0.0
144
0.0
144
0.0
144
0.0
144
0.0208333333333333
144
0.0
144
0.0
144
0.0
144
0.0
144
1.0
144
0.0
144
0.0
144
0.0
144
0.0
144
1.0
147
0.0208333333333333
147
0.0
147
0.0
147
0.0
147
0.0
147
0.0208333333333333
147
0.0
147
0.0
147
0.0
147
0.0
147
1.0
147
0.0
147
0.0
147
0.0
147
0.0
147
1.0
  0
MATERIAL
  5
11
102
{ACAD_XDICTIONARY
360
12
102
}
102
{ACAD_REACTORS
330
10
102
}
330
10
100
AcDbMaterial
  1
ByLayer
 72
     0
 43
0.0208333333333333
 43
0.0
 43
0.0
 43
0.0
 43
0.0
 43
0.0208333333333333
 43
0.0
 43
0.0
 43
0.0
 43
0.0
 43
1.0
 43
0.0
 43
0.0
 43
0.0
 43
0.0
 43
1.0
 77
     0
 47
0.0208333333333333
 47
0.0
 47
0.0
 47
0.0
 47
0.0
 47
0.0208333333333333
 47
0.0
 47
0.0
 47
0.0
 47
0.0
 47
1.0
 47
0.0
 47
0.0
 47
0.0
 47
0.0
 47
1.0
171
     0
 49
0.0208333333333333
 49
0.0
 49
0.0
 49
0.0
 49
0.0
 49
0.0208333333333333
 49
0.0
 49
0.0
 49
0.0
 49
0.0
 49
1.0
 49
0.0
 49
0.0
 49
0.0
 49
0.0
 49
1.0
175
     0
142
0.0208333333333333
142
0.0
142
0.0
142
0.0
142
0.0
142
0.0208333333333333
142
0.0
142
0.0
142
0.0
142
0.0
142
1.0
142
0.0
142
0.0
142
0.0
142
0.0
142
1.0
179
     0
144
0.0208333333333333
144
0.0
144
0.0
144
0.0
144
0.0
144
0.0208333333333333
144
0.0
144
0.0
144
0.0
144
0.0
144
1.0
144
0.0
144
0.0
144
0.0
144
0.0
144
1.0
147
0.0208333333333333
147
0.0
147
0.0
147
0.0
147
0.0
147
0.0208333333333333
147
0.0
147
0.0
147
0.0
147
0.0
147
1.0
147
0.0
147
0.0
147
0.0
147
0.0
147
1.0
  0
MATERIAL
  5
21
102
{ACAD_XDICTIONARY
360
22
102
}
102
{ACAD_REACTORS
330
10
102
}
330
10
100
AcDbMaterial
  1
Global
 72
     0
 43
0.0208333333333333
 43
0.0
 43
0.0
 43
0.0
 43
0.0
 43
0.0208333333333333
 43
0.0
 43
0.0
 43
0.0
 43
0.0
 43
1.0
 43
0.0
 43
0.0
 43
0.0
 43
0.0
 43
1.0
 77
     0
 47
0.0208333333333333
 47
0.0
 47
0.0
 47
0.0
 47
0.0
 47
0.0208333333333333
 47
0.0
 47
0.0
 47
0.0
 47
0.0
 47
1.0
 47
0.0
 47
0.0
 47
0.0
 47
0.0
 47
1.0
171
     0
 49
0.0208333333333333
 49
0.0
 49
0.0
 49
0.0
 49
0.0
 49
0.0208333333333333
 49
0.0
 49
0.0
 49
0.0
 49
0.0
 49
1.0
 49
0.0
 49
0.0
 49
0.0
 49
0.0
 49
1.0
175
     0
142
0.0208333333333333
142
0.0
142
0.0
142
0.0
142
0.0
142
0.0208333333333333
142
0.0
142
0.0
142
0.0
142
0.0
142
1.0
142
0.0
142
0.0
142
0.0
142
0.0
142
1.0
179
     0
144
0.0208333333333333
144
0.0
144
0.0
144
0.0
144
0.0
144
0.0208333333333333
144
0.0
144
0.0
144
0.0
144
0.0
144
1.0
144
0.0
144
0.0
144
0.0
144
0.0
144
1.0
147
0.0208333333333333
147
0.0
147
0.0
147
0.0
147
0.0
147
0.0208333333333333
147
0.0
147
0.0
147
0.0
147
0.0
147
1.0
147
0.0
147
0.0
147
0.0
147
0.0
147
1.0
  0
MLEADERSTYLE
  5
67
102
{ACAD_REACTORS
330
66
102
}
330
66
100
AcDbMLeaderStyle
179
     2
170
     2
171
     1
172
     0
 90
        2
 40
0.0
 41
0.0
173
     1
 91
-1056964608
340
5B
 92
       -2
290
     1
 42
0.09
291
     1
 43
0.36
  3
Standard
 44
0.18
300

342
55
174
     1
178
     6
175
     1
176
     0
 93
-1056964608
 45
0.18
292
     0
297
     0
 46
0.18
 94
-1056964608
 47
1.0
 49
1.0
140
1.0
293
     1
141
0.0
294
     1
177
     0
142
1.0
295
     1
296
     0
143
0.125
271
     0
272
     9
273
     9
298
     1
  0
MLINESTYLE
  5
60
102
{ACAD_REACTORS
330
5F
102
}
330
5F
100
AcDbMlineStyle
  2
STANDARD
 70
     0
  3

 62
   256
 51
90.0
 52
90.0
 71
     2
 49
0.5
 62
   256
  6
BYLAYER
 49
-0.5
 62
   256
  6
BYLAYER
  0
ACDBPLACEHOLDER
  5
F
102
{ACAD_REACTORS
330
E
102
}
330
E
  0
SCALE
  5
43
102
{ACAD_REACTORS
330
42
102
}
330
42
100
AcDbScale
 70
     0
300
1:1
140
1.0
141
1.0
290
     1
  0
SCALE
  5
44
102
{ACAD_REACTORS
330
42
102
}
330
42
100
AcDbScale
 70
     0
300
1/128" = 1'-0"
140
0.0078125
141
12.0
290
     0
  0
SCALE
  5
45
102
{ACAD_REACTORS
330
42
102
}
330
42
100
AcDbScale
 70
     0
300
1/64" = 1'-0"
140
0.015625
141
12.0
290
     0
  0
SCALE
  5
46
102
{ACAD_REACTORS
330
42
102
}
330
42
100
AcDbScale
 70
     0
300
1/32" = 1'-0"
140
0.03125
141
12.0
290
     0
  0
SCALE
  5
47
102
{ACAD_REACTORS
330
42
102
}
330
42
100
AcDbScale
 70
     0
300
1/16" = 1'-0"
140
0.0625
141
12.0
290
     0
  0
SCALE
  5
48
102
{ACAD_REACTORS
330
42
102
}
330
42
100
AcDbScale
 70
     0
300
3/32" = 1'-0"
140
0.09375
141
12.0
290
     0
  0
SCALE
  5
49
102
{ACAD_REACTORS
330
42
102
}
330
42
100
AcDbScale
 70
     0
300
1/8" = 1'-0"
140
0.125
141
12.0
290
     0
  0
SCALE
  5
4A
102
{ACAD_REACTORS
330
42
102
}
330
42
100
AcDbScale
 70
     0
300
3/16" = 1'-0"
140
0.1875
141
12.0
290
     0
  0
SCALE
  5
4B
102
{ACAD_REACTORS
330
42
102
}
330
42
100
AcDbScale
 70
     0
300
1/4" = 1'-0"
140
0.25
141
12.0
290
     0
  0
SCALE
  5
4C
102
{ACAD_REACTORS
330
42
102
}
330
42
100
AcDbScale
 70
     0
300
3/8" = 1'-0"
140
0.375
141
12.0
290
     0
  0
SCALE
  5
4D
102
{ACAD_REACTORS
330
42
102
}
330
42
100
AcDbScale
 70
     0
300
1/2" = 1'-0"
140
0.5
141
12.0
290
     0
  0
SCALE
  5
4E
102
{ACAD_REACTORS
330
42
102
}
330
42
100
AcDbScale
 70
     0
300
3/4" = 1'-0"
140
0.75
141
12.0
290
     0
  0
SCALE
  5
4F
102
{ACAD_REACTORS
330
42
102
}
330
42
100
AcDbScale
 70
     0
300
1" = 1'-0"
140
1.0
141
12.0
290
     0
  0
SCALE
  5
50
102
{ACAD_REACTORS
330
42
102
}
330
42
100
AcDbScale
 70
     0
300
1-1/2" = 1'-0"
140
1.5
141
12.0
290
     0
  0
SCALE
  5
51
102
{ACAD_REACTORS
330
42
102
}
330
42
100
AcDbScale
 70
     0
300
3" = 1'-0"
140
3.0
141
12.0
290
     0
  0
SCALE
  5
52
102
{ACAD_REACTORS
330
42
102
}
330
42
100
AcDbScale
 70
     0
300
6" = 1'-0"
140
6.0
141
12.0
290
     0
  0
SCALE
  5
53
102
{ACAD_REACTORS
330
42
102
}
330
42
100
AcDbScale
 70
     0
300
1'-0" = 1'-0"
140
12.0
141
12.0
290
     0
  0
ACDBSECTIONVIEWSTYLE
  5
6A
102
{ACAD_REACTORS
330
68
102
}
330
68
100
AcDbModelDocViewStyle
 70
     0
  3
Imperial24
290
     1
100
AcDbSectionViewStyle
 70
     0
 71
     0
 90
       78
 71
     1
340
55
 62
   256
 40
0.24
340
0
340
0
 62
   256
 40
0.24
300
I, O, Q, S, X, Z
 40
0.48
 90
        3
 40
0.18
 90
        1
 71
     2
340
69
 90
       25
 62
   256
340
5D
 90
       50
 62
   256
 40
0.24
 40
0.0
 40
0.24
 71
     3
340
55
 62
   256
 40
0.24
 90
        1
 40
0.75
 90
        1
300
%<\AcVar ViewType \f "%tc1">% %<\AcVar ViewSectionStartId>%-%<\AcVar ViewSectionEndId>%\PSCALA %<\AcVar ViewScale \f "%sn">%
 71
     4
 62
   256
 62
   257
300
ANSI31
 40
1.0
 90
        0
290
     0
290
     0
 90
        6
 40
0.0
 40
1.570796326794896
 40
0.2617993877991494
 40
1.308996938995747
 40
-0.2617993877991494
 40
1.832595714594046
  0
TABLESTYLE
  5
65
102
{ACAD_XDICTIONARY
360
2CF
102
}
102
{ACAD_REACTORS
330
64
102
}
330
64
100
AcDbTableStyle
280
     0
  3
Standard
 70
     0
 71
     0
 40
0.06
 41
0.06
280
     0
281
     0
  7
Standard
140
0.18
170
     2
 62
     0
 63
     7
283
     0
 90
      512
 91
        0
  1

274
    -2
284
     1
 64
     0
275
    -2
285
     1
 65
     0
276
    -2
286
     1
 66
     0
277
    -2
287
     1
 67
     0
278
    -2
288
     1
 68
     0
279
    -2
289
     1
 69
     0
  7
Standard
140
0.25
170
     5
 62
     0
 63
     7
283
     0
 90
      512
 91
        0
  1

274
    -2
284
     1
 64
     0
275
    -2
285
     1
 65
     0
276
    -2
286
     1
 66
     0
277
    -2
287
     1
 67
     0
278
    -2
288
     1
 68
     0
279
    -2
289
     1
 69
     0
  7
Standard
140
0.18
170
     5
 62
     0
 63
     7
283
     0
 90
      512
 91
        0
  1

274
    -2
284
     1
 64
     0
275
    -2
285
     1
 65
     0
276
    -2
286
     1
 66
     0
277
    -2
287
     1
 67
     0
278
    -2
288
     1
 68
     0
279
    -2
289
     1
 69
     0
  0
VISUALSTYLE
  5
2F
102
{ACAD_REACTORS
330
29
102
}
330
29
100
AcDbVisualStyle
  2
2dWireframe
 70
     4
177
     3
291
     0
 70
    58
 90
        0
176
     1
 90
        2
176
     1
 90
        0
176
     1
 90
        0
176
     1
 40
0.6
176
     1
 40
30.0
176
     1
 62
     7
420
 16777215
176
     1
 90
        1
176
     1
 90
        4
176
     1
 62
     7
176
     1
 62
   257
176
     1
 90
        1
176
     1
 90
        1
176
     1
 40
1.0
176
     1
 90
        0
176
     1
 62
   257
176
     1
 40
1.0
176
     1
 90
        1
176
     1
 90
        6
176
     1
 90
        2
176
     1
 62
     7
176
     1
 90
        5
176
     1
 90
        0
176
     1
 90
        0
176
     1
290
     0
176
     1
 90
        1
176
     1
 40
0.0
176
     1
 90
        0
176
     1
290
     1
176
     1
290
     1
176
     1
290
     0
176
     1
290
     0
176
     1
290
     0
176
     1
290
     0
176
     1
290
     0
176
     1
290
     0
176
     1
290
     0
176
     1
 90
       50
176
     1
 40
0.0
176
     1
 40
1.0
176
     1
 90
        0
176
     1
 62
    18
420
        0
176
     1
 90
       50
176
     1
 90
        3
176
     1
 62
     5
420
      255
176
     1
290
     0
176
     1
 90
       50
176
     1
 90
       50
176
     1
 90
       50
176
     1
290
     0
176
     1
 90
       50
176
     1
 62
   256
176
     0
 40
1.0
176
     0
 90
        2
176
     1
  1
strokes_ogs.tif
176
     1
290
     0
176
     1
 40
1.0
176
     1
 40
1.0
176
     1
  0
VISUALSTYLE
  5
2E
102
{ACAD_REACTORS
330
29
102
}
330
29
100
AcDbVisualStyle
  2
Basic
 70
     7
177
     3
291
     1
 70
    58
 90
        1
176
     1
 90
        0
176
     1
 90
        1
176
     1
 90
        0
176
     1
 40
0.6
176
     1
 40
30.0
176
     1
 62
     7
420
 16777215
176
     1
 90
        0
176
     1
 90
        4
176
     1
 62
     7
176
     1
 62
   257
176
     1
 90
        1
176
     1
 90
        1
176
     1
 40
1.0
176
     1
 90
        8
176
     1
 62
     7
176
     1
 40
1.0
176
     1
 90
        1
176
     1
 90
        6
176
     1
 90
        2
176
     1
 62
     7
176
     1
 90
        5
176
     1
 90
        0
176
     1
 90
        0
176
     1
290
     0
176
     1
 90
        1
176
     1
 40
0.0
176
     1
 90
        0
176
     1
290
     0
176
     1
290
     1
176
     1
290
     1
176
     1
290
     0
176
     1
290
     0
176
     1
290
     0
176
     1
290
     0
176
     1
290
     0
176
     1
290
     0
176
     1
 90
       50
176
     1
 40
0.0
176
     1
 40
1.0
176
     1
 90
        0
176
     1
 62
    18
420
        0
176
     1
 90
       50
176
     1
 90
        3
176
     1
 62
     5
420
      255
176
     1
290
     0
176
     1
 90
       50
176
     1
 90
       50
176
     1
 90
       50
176
     1
290
     0
176
     1
 90
       50
176
     1
 62
   256
176
     0
 40
1.0
176
     0
 90
        2
176
     1
  1
strokes_ogs.tif
176
     1
290
     0
176
     1
 40
1.0
176
     1
 40
1.0
176
     1
  0
VISUALSTYLE
  5
35
102
{ACAD_REACTORS
330
29
102
}
330
29
100
AcDbVisualStyle
  2
Brighten
 70
    12
177
     3
291
     1
 70
    58
 90
        2
176
     1
 90
        2
176
     1
 90
        0
176
     1
 90
        0
176
     1
 40
0.6
176
     1
 40
30.0
176
     1
 62
     7
420
 16777215
176
     1
 90
        1
176
     1
 90
        4
176
     1
 62
     7
176
     1
 62
   257
176
     1
 90
        1
176
     1
 90
        1
176
     1
 40
1.0
176
     1
 90
        8
176
     1
 62
     7
176
     1
 40
1.0
176
     1
 90
        1
176
     1
 90
        6
176
     1
 90
        2
176
     1
 62
     7
176
     1
 90
        5
176
     1
 90
        0
176
     1
 90
        0
176
     1
290
     0
176
     1
 90
        1
176
     1
 40
50.0
176
     1
 90
        0
176
     1
290
     0
176
     1
290
     1
176
     1
290
     1
176
     1
290
     0
176
     1
290
     0
176
     1
290
     0
176
     1
290
     0
176
     1
290
     0
176
     1
290
     0
176
     1
 90
       50
176
     1
 40
0.0
176
     1
 40
1.0
176
     1
 90
        0
176
     1
 62
    18
420
        0
176
     1
 90
       50
176
     1
 90
        3
176
     1
 62
     5
420
      255
176
     1
290
     0
176
     1
 90
       50
176
     1
 90
       50
176
     1
 90
       50
176
     1
290
     0
176
     1
 90
       50
176
     1
 62
   256
176
     0
 40
1.0
176
     0
 90
        2
176
     1
  1
strokes_ogs.tif
176
     1
290
     0
176
     1
 40
1.0
176
     1
 40
1.0
176
     1
  0
VISUALSTYLE
  5
39
102
{ACAD_REACTORS
330
29
102
}
330
29
100
AcDbVisualStyle
  2
ColorChange
 70
    16
177
     3
291
     1
 70
    58
 90
        2
176
     1
 90
        2
176
     1
 90
        3
176
     1
 90
        0
176
     1
 40
0.6
176
     1
 40
30.0
176
     1
 62
     8
420
  8421504
176
     1
 90
        1
176
     1
 90
        4
176
     1
 62
     7
176
     1
 62
   257
176
     1
 90
        1
176
     1
 90
        1
176
     1
 40
1.0
176
     1
 90
        8
176
     1
 62
     8
420
  8421504
176
     1
 40
1.0
176
     1
 90
        1
176
     1
 90
        6
176
     1
 90
        2
176
     1
 62
     7
176
     1
 90
        5
176
     1
 90
        0
176
     1
 90
        0
176
     1
290
     0
176
     1
 90
        1
176
     1
 40
0.0
176
     1
 90
        0
176
     1
290
     0
176
     1
290
     1
176
     1
290
     1
176
     1
290
     0
176
     1
290
     0
176
     1
290
     0
176
     1
290
     0
176
     1
290
     0
176
     1
290
     0
176
     1
 90
       50
176
     1
 40
0.0
176
     1
 40
1.0
176
     1
 90
        0
176
     1
 62
    18
420
        0
176
     1
 90
       50
176
     1
 90
        3
176
     1
 62
     5
420
      255
176
     1
290
     0
176
     1
 90
       50
176
     1
 90
       50
176
     1
 90
       50
176
     1
290
     0
176
     1
 90
       50
176
     1
 62
   256
176
     0
 40
1.0
176
     0
 90
        2
176
     1
  1
strokes_ogs.tif
176
     1
290
     0
176
     1
 40
1.0
176
     1
 40
1.0
176
     1
  0
VISUALSTYLE
  5
32
102
{ACAD_REACTORS
330
29
102
}
330
29
100
AcDbVisualStyle
  2
Conceptual
 70
     9
177
     3
291
     0
 70
    58
 90
        3
176
     1
 90
        2
176
     1
 90
        0
176
     1
 90
        0
176
     1
 40
0.6
176
     1
 40
30.0
176
     1
 62
     7
420
 16777215
176
     1
 90
        2
176
     1
 90
        2
176
     1
 62
     7
176
     1
 62
   257
176
     1
 90
        1
176
     1
 90
        1
176
     1
 40
179.0
176
     1
 90
        8
176
     1
 62
     7
176
     1
 40
1.0
176
     1
 90
        1
176
     1
 90
        6
176
     1
 90
        2
176
     1
 62
     7
176
     1
 90
        3
176
     1
 90
        0
176
     1
 90
        0
176
     1
290
     0
176
     1
 90
        1
176
     1
 40
0.0
176
     1
 90
        0
176
     1
290
     0
176
     1
290
     1
176
     1
290
     1
176
     1
290
     0
176
     1
290
     0
176
     1
290
     0
176
     1
290
     0
176
     1
290
     0
176
     1
290
     0
176
     1
 90
       50
176
     1
 40
0.0
176
     1
 40
1.0
176
     1
 90
        0
176
     1
 62
    18
420
        0
176
     1
 90
       50
176
     1
 90
        3
176
     1
 62
     5
420
      255
176
     1
290
     0
176
     1
 90
       50
176
     1
 90
       50
176
     1
 90
       50
176
     1
290
     0
176
     1
 90
       50
176
     1
 62
   256
176
     0
 40
1.0
176
     0
 90
        2
176
     1
  1
strokes_ogs.tif
176
     1
290
     0
176
     1
 40
1.0
176
     1
 40
1.0
176
     1
  0
VISUALSTYLE
  5
34
102
{ACAD_REACTORS
330
29
102
}
330
29
100
AcDbVisualStyle
  2
Dim
 70
    11
177
     3
291
     1
 70
    58
 90
        2
176
     1
 90
        2
176
     1
 90
        0
176
     1
 90
        0
176
     1
 40
0.6
176
     1
 40
30.0
176
     1
 62
     7
420
 16777215
176
     1
 90
        1
176
     1
 90
        4
176
     1
 62
     7
176
     1
 62
   257
176
     1
 90
        1
176
     1
 90
        1
176
     1
 40
1.0
176
     1
 90
        8
176
     1
 62
     7
176
     1
 40
1.0
176
     1
 90
        1
176
     1
 90
        6
176
     1
 90
        2
176
     1
 62
     7
176
     1
 90
        5
176
     1
 90
        0
176
     1
 90
        0
176
     1
290
     0
176
     1
 90
        1
176
     1
 40
-50.0
176
     1
 90
        0
176
     1
290
     0
176
     1
290
     1
176
     1
290
     1
176
     1
290
     0
176
     1
290
     0
176
     1
290
     0
176
     1
290
     0
176
     1
290
     0
176
     1
290
     0
176
     1
 90
       50
176
     1
 40
0.0
176
     1
 40
1.0
176
     1
 90
        0
176
     1
 62
    18
420
        0
176
     1
 90
       50
176
     1
 90
        3
176
     1
 62
     5
420
      255
176
     1
290
     0
176
     1
 90
       50
176
     1
 90
       50
176
     1
 90
       50
176
     1
290
     0
176
     1
 90
       50
176
     1
 62
   256
176
     0
 40
1.0
176
     0
 90
        2
176
     1
  1
strokes_ogs.tif
176
     1
290
     0
176
     1
 40
1.0
176
     1
 40
1.0
176
     1
  0
VISUALSTYLE
  5
41
102
{ACAD_REACTORS
330
29
102
}
330
29
100
AcDbVisualStyle
  2
EdgeColorOff
 70
    22
177
     3
291
     1
 70
    58
 90
        2
176
     0
 90
        2
176
     0
 90
        0
176
     0
 90
        0
176
     0
 40
0.6
176
     0
 40
30.0
176
     0
 62
     7
420
 16777215
176
     0
 90
        1
176
     0
 90
        4
176
     0
 62
     7
176
     0
 62
   257
176
     0
 90
        1
176
     0
 90
        1
176
     0
 40
1.0
176
     0
 90
        8
176
     2
 62
     7
176
     0
 40
1.0
176
     0
 90
        1
176
     0
 90
        6
176
     0
 90
        2
176
     0
 62
     7
176
     0
 90
        5
176
     0
 90
        0
176
     0
 90
        0
176
     0
290
     0
176
     0
 90
        1
176
     0
 40
0.0
176
     0
 90
        0
176
     0
290
     0
176
     0
290
     1
176
     0
290
     1
176
     0
290
     0
176
     0
290
     0
176
     0
290
     0
176
     0
290
     0
176
     0
290
     0
176
     0
290
     0
176
     0
 90
       50
176
     0
 40
0.0
176
     0
 40
1.0
176
     0
 90
        0
176
     0
 62
    18
420
        0
176
     0
 90
       50
176
     0
 90
        3
176
     0
 62
     5
420
      255
176
     0
290
     0
176
     0
 90
       50
176
     0
 90
       50
176
     0
 90
       50
176
     0
290
     0
176
     0
 90
       50
176
     0
 62
   256
176
     0
 40
1.0
176
     0
 90
        2
176
     0
  1
strokes_ogs.tif
176
     0
290
     0
176
     0
 40
1.0
176
     0
 40
1.0
176
     0
  0
VISUALSTYLE
  5
38
102
{ACAD_REACTORS
330
29
102
}
330
29
100
AcDbVisualStyle
  2
Facepattern
 70
    15
177
     3
291
     1
 70
    58
 90
        2
176
     1
 90
        2
176
     1
 90
        0
176
     1
 90
        0
176
     1
 40
0.6
176
     1
 40
30.0
176
     1
 62
     7
420
 16777215
176
     1
 90
        1
176
     1
 90
        4
176
     1
 62
     7
176
     1
 62
   257
176
     1
 90
        1
176
     1
 90
        1
176
     1
 40
1.0
176
     1
 90
        8
176
     1
 62
     7
176
     1
 40
1.0
176
     1
 90
        1
176
     1
 90
        6
176
     1
 90
        2
176
     1
 62
     7
176
     1
 90
        5
176
     1
 90
        0
176
     1
 90
        0
176
     1
290
     0
176
     1
 90
        1
176
     1
 40
0.0
176
     1
 90
        0
176
     1
290
     0
176
     1
290
     1
176
     1
290
     1
176
     1
290
     0
176
     1
290
     0
176
     1
290
     0
176
     1
290
     0
176
     1
290
     0
176
     1
290
     0
176
     1
 90
       50
176
     1
 40
0.0
176
     1
 40
1.0
176
     1
 90
        0
176
     1
 62
    18
420
        0
176
     1
 90
       50
176
     1
 90
        3
176
     1
 62
     5
420
      255
176
     1
290
     0
176
     1
 90
       50
176
     1
 90
       50
176
     1
 90
       50
176
     1
290
     0
176
     1
 90
       50
176
     1
 62
   256
176
     0
 40
1.0
176
     0
 90
        2
176
     1
  1
strokes_ogs.tif
176
     1
290
     0
176
     1
 40
1.0
176
     1
 40
1.0
176
     1
  0
VISUALSTYLE
  5
2A
102
{ACAD_REACTORS
330
29
102
}
330
29
100
AcDbVisualStyle
  2
Flat
 70
     0
177
     3
291
     1
 70
    58
 90
        2
176
     1
 90
        1
176
     1
 90
        1
176
     1
 90
        2
176
     1
 40
0.6
176
     1
 40
30.0
176
     1
 62
     7
420
 16777215
176
     1
 90
        0
176
     1
 90
        0
176
     1
 62
     7
176
     1
 62
   257
176
     1
 90
        1
176
     1
 90
        1
176
     1
 40
1.0
176
     1
 90
        8
176
     1
 62
     7
176
     1
 40
1.0
176
     1
 90
        1
176
     1
 90
        6
176
     1
 90
        2
176
     1
 62
     7
176
     1
 90
        5
176
     1
 90
        0
176
     1
 90
        0
176
     1
290
     0
176
     1
 90
       13
176
     1
 40
0.0
176
     1
 90
        0
176
     1
290
     0
176
     1
290
     1
176
     1
290
     1
176
     1
290
     0
176
     1
290
     0
176
     1
290
     0
176
     1
290
     0
176
     1
290
     0
176
     1
290
     0
176
     1
 90
       50
176
     1
 40
0.0
176
     1
 40
1.0
176
     1
 90
        0
176
     1
 62
    18
420
        0
176
     1
 90
       50
176
     1
 90
        3
176
     1
 62
     5
420
      255
176
     1
290
     0
176
     1
 90
       50
176
     1
 90
       50
176
     1
 90
       50
176
     1
290
     0
176
     1
 90
       50
176
     1
 62
   256
176
     0
 40
1.0
176
     0
 90
        2
176
     1
  1
strokes_ogs.tif
176
     1
290
     0
176
     1
 40
1.0
176
     1
 40
1.0
176
     1
  0
VISUALSTYLE
  5
2B
102
{ACAD_REACTORS
330
29
102
}
330
29
100
AcDbVisualStyle
  2
FlatWithEdges
 70
     1
177
     3
291
     1
 70
    58
 90
        2
176
     1
 90
        1
176
     1
 90
        1
176
     1
 90
        2
176
     1
 40
0.6
176
     1
 40
30.0
176
     1
 62
     7
420
 16777215
176
     1
 90
        1
176
     1
 90
        0
176
     1
 62
     7
176
     1
 62
   257
176
     1
 90
        1
176
     1
 90
        1
176
     1
 40
1.0
176
     1
 90
        0
176
     1
 62
   257
176
     1
 40
1.0
176
     1
 90
        1
176
     1
 90
        6
176
     1
 90
        2
176
     1
 62
     7
176
     1
 90
        5
176
     1
 90
        0
176
     1
 90
        0
176
     1
290
     0
176
     1
 90
       13
176
     1
 40
0.0
176
     1
 90
        0
176
     1
290
     0
176
     1
290
     1
176
     1
290
     1
176
     1
290
     0
176
     1
290
     0
176
     1
290
     0
176
     1
290
     0
176
     1
290
     0
176
     1
290
     0
176
     1
 90
       50
176
     1
 40
0.0
176
     1
 40
1.0
176
     1
 90
        0
176
     1
 62
    18
420
        0
176
     1
 90
       50
176
     1
 90
        3
176
     1
 62
     5
420
      255
176
     1
290
     0
176
     1
 90
       50
176
     1
 90
       50
176
     1
 90
       50
176
     1
290
     0
176
     1
 90
       50
176
     1
 62
   256
176
     0
 40
1.0
176
     0
 90
        2
176
     1
  1
strokes_ogs.tif
176
     1
290
     0
176
     1
 40
1.0
176
     1
 40
1.0
176
     1
  0
VISUALSTYLE
  5
2C
102
{ACAD_REACTORS
330
29
102
}
330
29
100
AcDbVisualStyle
  2
Gouraud
 70
     2
177
     3
291
     1
 70
    58
 90
        2
176
     1
 90
        2
176
     1
 90
        1
176
     1
 90
        2
176
     1
 40
0.6
176
     1
 40
30.0
176
     1
 62
     7
420
 16777215
176
     1
 90
        0
176
     1
 90
        0
176
     1
 62
     7
176
     1
 62
   257
176
     1
 90
        1
176
     1
 90
        1
176
     1
 40
1.0
176
     1
 90
        0
176
     1
 62
     7
176
     1
 40
1.0
176
     1
 90
        1
176
     1
 90
        6
176
     1
 90
        2
176
     1
 62
     7
176
     1
 90
        5
176
     1
 90
        0
176
     1
 90
        0
176
     1
290
     0
176
     1
 90
       13
176
     1
 40
0.0
176
     1
 90
        0
176
     1
290
     0
176
     1
290
     1
176
     1
290
     1
176
     1
290
     0
176
     1
290
     0
176
     1
290
     0
176
     1
290
     0
176
     1
290
     0
176
     1
290
     0
176
     1
 90
       50
176
     1
 40
0.0
176
     1
 40
1.0
176
     1
 90
        0
176
     1
 62
    18
420
        0
176
     1
 90
       50
176
     1
 90
        3
176
     1
 62
     5
420
      255
176
     1
290
     0
176
     1
 90
       50
176
     1
 90
       50
176
     1
 90
       50
176
     1
290
     0
176
     1
 90
       50
176
     1
 62
   256
176
     0
 40
1.0
176
     0
 90
        2
176
     1
  1
strokes_ogs.tif
176
     1
290
     0
176
     1
 40
1.0
176
     1
 40
1.0
176
     1
  0
VISUALSTYLE
  5
2D
102
{ACAD_REACTORS
330
29
102
}
330
29
100
AcDbVisualStyle
  2
GouraudWithEdges
 70
     3
177
     3
291
     1
 70
    58
 90
        2
176
     1
 90
        2
176
     1
 90
        1
176
     1
 90
        2
176
     1
 40
0.6
176
     1
 40
30.0
176
     1
 62
     7
420
 16777215
176
     1
 90
        1
176
     1
 90
        0
176
     1
 62
     7
176
     1
 62
   257
176
     1
 90
        1
176
     1
 90
        1
176
     1
 40
1.0
176
     1
 90
        0
176
     1
 62
   257
176
     1
 40
1.0
176
     1
 90
        1
176
     1
 90
        6
176
     1
 90
        2
176
     1
 62
     7
176
     1
 90
        5
176
     1
 90
        0
176
     1
 90
        0
176
     1
290
     0
176
     1
 90
       13
176
     1
 40
0.0
176
     1
 90
        0
176
     1
290
     0
176
     1
290
     1
176
     1
290
     1
176
     1
290
     0
176
     1
290
     0
176
     1
290
     0
176
     1
290
     0
176
     1
290
     0
176
     1
290
     0
176
     1
 90
       50
176
     1
 40
0.0
176
     1
 40
1.0
176
     1
 90
        0
176
     1
 62
    18
420
        0
176
     1
 90
       50
176
     1
 90
        3
176
     1
 62
     5
420
      255
176
     1
290
     0
176
     1
 90
       50
176
     1
 90
       50
176
     1
 90
       50
176
     1
290
     0
176
     1
 90
       50
176
     1
 62
   256
176
     0
 40
1.0
176
     0
 90
        2
176
     1
  1
strokes_ogs.tif
176
     1
290
     0
176
     1
 40
1.0
176
     1
 40
1.0
176
     1
  0
VISUALSTYLE
  5
31
102
{ACAD_REACTORS
330
29
102
}
330
29
100
AcDbVisualStyle
  2
Hidden
 70
     6
177
     3
291
     0
 70
    58
 90
        1
176
     1
 90
        2
176
     1
 90
        2
176
     1
 90
        0
176
     1
 40
0.6
176
     1
 40
30.0
176
     1
 62
     7
420
 16777215
176
     1
 90
        2
176
     1
 90
        2
176
     1
 62
     7
176
     1
 62
   257
176
     1
 90
        2
176
     1
 90
        1
176
     1
 40
40.0
176
     1
 90
        0
176
     1
 62
   257
176
     1
 40
1.0
176
     1
 90
        1
176
     1
 90
        6
176
     1
 90
        2
176
     1
 62
     7
176
     1
 90
        3
176
     1
 90
        0
176
     1
 90
        0
176
     1
290
     0
176
     1
 90
        1
176
     1
 40
0.0
176
     1
 90
        0
176
     1
290
     0
176
     1
290
     1
176
     1
290
     1
176
     1
290
     0
176
     1
290
     0
176
     1
290
     0
176
     1
290
     0
176
     1
290
     0
176
     1
290
     0
176
     1
 90
       50
176
     1
 40
0.0
176
     1
 40
1.0
176
     1
 90
        0
176
     1
 62
    18
420
        0
176
     1
 90
       50
176
     1
 90
        3
176
     1
 62
     5
420
      255
176
     1
290
     0
176
     1
 90
       50
176
     1
 90
       50
176
     1
 90
       50
176
     1
290
     0
176
     1
 90
       50
176
     1
 62
   256
176
     0
 40
1.0
176
     0
 90
        2
176
     1
  1
strokes_ogs.tif
176
     1
290
     0
176
     1
 40
1.0
176
     1
 40
1.0
176
     1
  0
VISUALSTYLE
  5
3F
102
{ACAD_REACTORS
330
29
102
}
330
29
100
AcDbVisualStyle
  2
JitterOff
 70
    20
177
     3
291
     1
 70
    58
 90
        2
176
     0
 90
        2
176
     0
 90
        0
176
     0
 90
        0
176
     0
 40
0.6
176
     0
 40
30.0
176
     0
 62
     7
420
 16777215
176
     0
 90
        1
176
     0
 90
        4
176
     0
 62
     7
176
     0
 62
   257
176
     0
 90
        1
176
     0
 90
        1
176
     0
 40
1.0
176
     0
 90
       10
176
     2
 62
     7
176
     0
 40
1.0
176
     0
 90
        1
176
     0
 90
        6
176
     0
 90
        2
176
     0
 62
     7
176
     0
 90
        5
176
     0
 90
        0
176
     0
 90
        0
176
     0
290
     0
176
     0
 90
        1
176
     0
 40
0.0
176
     0
 90
        0
176
     0
290
     0
176
     0
290
     1
176
     0
290
     1
176
     0
290
     0
176
     0
290
     0
176
     0
290
     0
176
     0
290
     0
176
     0
290
     0
176
     0
290
     0
176
     0
 90
       50
176
     0
 40
0.0
176
     0
 40
1.0
176
     0
 90
        0
176
     0
 62
    18
420
        0
176
     0
 90
       50
176
     0
 90
        3
176
     0
 62
     5
420
      255
176
     0
290
     0
176
     0
 90
       50
176
     0
 90
       50
176
     0
 90
       50
176
     0
290
     0
176
     0
 90
       50
176
     0
 62
   256
176
     0
 40
1.0
176
     0
 90
        2
176
     0
  1
strokes_ogs.tif
176
     0
290
     0
176
     0
 40
1.0
176
     0
 40
1.0
176
     0
  0
VISUALSTYLE
  5
37
102
{ACAD_REACTORS
330
29
102
}
330
29
100
AcDbVisualStyle
  2
Linepattern
 70
    14
177
     3
291
     1
 70
    58
 90
        2
176
     1
 90
        2
176
     1
 90
        0
176
     1
 90
        0
176
     1
 40
0.6
176
     1
 40
30.0
176
     1
 62
     7
420
 16777215
176
     1
 90
        1
176
     1
 90
        4
176
     1
 62
     7
176
     1
 62
   257
176
     1
 90
        7
176
     1
 90
        7
176
     1
 40
1.0
176
     1
 90
        8
176
     1
 62
     7
176
     1
 40
1.0
176
     1
 90
        1
176
     1
 90
        6
176
     1
 90
        2
176
     1
 62
     7
176
     1
 90
        5
176
     1
 90
        0
176
     1
 90
        0
176
     1
290
     0
176
     1
 90
        1
176
     1
 40
0.0
176
     1
 90
        0
176
     1
290
     0
176
     1
290
     1
176
     1
290
     1
176
     1
290
     0
176
     1
290
     0
176
     1
290
     0
176
     1
290
     0
176
     1
290
     0
176
     1
290
     0
176
     1
 90
       50
176
     1
 40
0.0
176
     1
 40
1.0
176
     1
 90
        0
176
     1
 62
    18
420
        0
176
     1
 90
       50
176
     1
 90
        3
176
     1
 62
     5
420
      255
176
     1
290
     0
176
     1
 90
       50
176
     1
 90
       50
176
     1
 90
       50
176
     1
290
     0
176
     1
 90
       50
176
     1
 62
   256
176
     0
 40
1.0
176
     0
 90
        2
176
     1
  1
strokes_ogs.tif
176
     1
290
     0
176
     1
 40
1.0
176
     1
 40
1.0
176
     1
  0
VISUALSTYLE
  5
40
102
{ACAD_REACTORS
330
29
102
}
330
29
100
AcDbVisualStyle
  2
OverhangOff
 70
    21
177
     3
291
     1
 70
    58
 90
        2
176
     0
 90
        2
176
     0
 90
        0
176
     0
 90
        0
176
     0
 40
0.6
176
     0
 40
30.0
176
     0
 62
     7
420
 16777215
176
     0
 90
        1
176
     0
 90
        4
176
     0
 62
     7
176
     0
 62
   257
176
     0
 90
        1
176
     0
 90
        1
176
     0
 40
1.0
176
     0
 90
        9
176
     2
 62
     7
176
     0
 40
1.0
176
     0
 90
        1
176
     0
 90
        6
176
     0
 90
        2
176
     0
 62
     7
176
     0
 90
        5
176
     0
 90
        0
176
     0
 90
        0
176
     0
290
     0
176
     0
 90
        1
176
     0
 40
0.0
176
     0
 90
        0
176
     0
290
     0
176
     0
290
     1
176
     0
290
     1
176
     0
290
     0
176
     0
290
     0
176
     0
290
     0
176
     0
290
     0
176
     0
290
     0
176
     0
290
     0
176
     0
 90
       50
176
     0
 40
0.0
176
     0
 40
1.0
176
     0
 90
        0
176
     0
 62
    18
420
        0
176
     0
 90
       50
176
     0
 90
        3
176
     0
 62
     5
420
      255
176
     0
290
     0
176
     0
 90
       50
176
     0
 90
       50
176
     0
 90
       50
176
     0
290
     0
176
     0
 90
       50
176
     0
 62
   256
176
     0
 40
1.0
176
     0
 90
        2
176
     0
  1
strokes_ogs.tif
176
     0
290
     0
176
     0
 40
1.0
176
     0
 40
1.0
176
     0
  0
VISUALSTYLE
  5
33
102
{ACAD_REACTORS
330
29
102
}
330
29
100
AcDbVisualStyle
  2
Realistic
 70
     8
177
     3
291
     0
 70
    58
 90
        2
176
     1
 90
        3
176
     1
 90
        0
176
     1
 90
        2
176
     1
 40
0.6
176
     1
 40
30.0
176
     1
 62
     7
420
 16777215
176
     1
 90
        0
176
     1
 90
        0
176
     1
 62
     7
176
     1
 62
   257
176
     1
 90
        1
176
     1
 90
        1
176
     1
 40
1.0
176
     1
 90
        8
176
     1
 62
   257
176
     1
 40
1.0
176
     1
 90
        1
176
     1
 90
        6
176
     1
 90
        2
176
     1
 62
     7
176
     1
 90
        3
176
     1
 90
        0
176
     1
 90
        0
176
     1
290
     0
176
     1
 90
       13
176
     1
 40
0.0
176
     1
 90
        0
176
     1
290
     0
176
     1
290
     1
176
     1
290
     1
176
     1
290
     0
176
     1
290
     0
176
     1
290
     0
176
     1
290
     0
176
     1
290
     0
176
     1
290
     0
176
     1
 90
       50
176
     1
 40
0.0
176
     1
 40
1.0
176
     1
 90
        0
176
     1
 62
    18
420
        0
176
     1
 90
       50
176
     1
 90
        3
176
     1
 62
     5
420
      255
176
     1
290
     0
176
     1
 90
       50
176
     1
 90
       50
176
     1
 90
       50
176
     1
290
     0
176
     1
 90
       50
176
     1
 62
   256
176
     0
 40
1.0
176
     0
 90
        2
176
     1
  1
strokes_ogs.tif
176
     1
290
     0
176
     1
 40
1.0
176
     1
 40
1.0
176
     1
  0
VISUALSTYLE
  5
3E
102
{ACAD_REACTORS
330
29
102
}
330
29
100
AcDbVisualStyle
  2
Shaded
 70
    27
177
     3
291
     0
 70
    58
 90
        2
176
     1
 90
        2
176
     1
 90
        1
176
     1
 90
        2
176
     1
 40
0.6
176
     1
 40
30.0
176
     1
 62
     7
420
 16777215
176
     1
 90
        0
176
     1
 90
        4
176
     1
 62
     7
176
     1
 62
   257
176
     1
 90
        1
176
     1
 90
        1
176
     1
 40
1.0
176
     1
 90
        8
176
     1
 62
   257
176
     1
 40
1.0
176
     1
 90
        1
176
     1
 90
        6
176
     1
 90
        2
176
     1
 62
     8
420
  7895160
176
     1
 90
        3
176
     1
 90
        0
176
     1
 90
        0
176
     1
290
     0
176
     1
 90
        5
176
     1
 40
0.0
176
     1
 90
        0
176
     1
290
     0
176
     1
290
     1
176
     1
290
     1
176
     1
290
     0
176
     1
290
     0
176
     1
290
     0
176
     1
290
     0
176
     1
290
     0
176
     1
290
     0
176
     1
 90
       50
176
     1
 40
0.0
176
     1
 40
1.0
176
     1
 90
        0
176
     1
 62
    18
420
        0
176
     1
 90
       50
176
     1
 90
        3
176
     1
 62
     5
420
      255
176
     1
290
     0
176
     1
 90
       50
176
     1
 90
       50
176
     1
 90
       50
176
     1
290
     0
176
     1
 90
       50
176
     1
 62
   256
176
     0
 40
1.0
176
     0
 90
        2
176
     1
  1
strokes_ogs.tif
176
     1
290
     0
176
     1
 40
1.0
176
     1
 40
1.0
176
     1
  0
VISUALSTYLE
  5
3D
102
{ACAD_REACTORS
330
29
102
}
330
29
100
AcDbVisualStyle
  2
Shaded with edges
 70
    26
177
     3
291
     0
 70
    58
 90
        2
176
     1
 90
        2
176
     1
 90
        1
176
     1
 90
        2
176
     1
 40
0.6
176
     1
 40
30.0
176
     1
 62
     7
420
 16777215
176
     1
 90
        1
176
     1
 90
       10
176
     1
 62
     7
176
     1
 62
   257
176
     1
 90
        2
176
     1
 90
        1
176
     1
 40
1.0
176
     1
 90
        8
176
     1
 62
   257
176
     1
 40
1.0
176
     1
 90
        1
176
     1
 90
        6
176
     1
 90
        2
176
     1
 62
     7
176
     1
 90
        3
176
     1
 90
        0
176
     1
 90
        0
176
     1
290
     0
176
     1
 90
        5
176
     1
 40
0.0
176
     1
 90
        0
176
     1
290
     0
176
     1
290
     1
176
     1
290
     1
176
     1
290
     0
176
     1
290
     0
176
     1
290
     0
176
     1
290
     0
176
     1
290
     0
176
     1
290
     0
176
     1
 90
       50
176
     1
 40
0.0
176
     1
 40
1.0
176
     1
 90
        0
176
     1
 62
    18
420
        0
176
     1
 90
       50
176
     1
 90
        3
176
     1
 62
     5
420
      255
176
     1
290
     0
176
     1
 90
       50
176
     1
 90
       50
176
     1
 90
       50
176
     1
290
     0
176
     1
 90
       50
176
     1
 62
   256
176
     0
 40
1.0
176
     0
 90
        2
176
     1
  1
strokes_ogs.tif
176
     1
290
     0
176
     1
 40
1.0
176
     1
 40
1.0
176
     1
  0
VISUALSTYLE
  5
3A
102
{ACAD_REACTORS
330
29
102
}
330
29
100
AcDbVisualStyle
  2
Shades of Gray
 70
    23
177
     3
291
     0
 70
    58
 90
        2
176
     1
 90
        2
176
     1
 90
        3
176
     1
 90
        0
176
     1
 40
0.6
176
     1
 40
30.0
176
     1
 62
     7
420
 16777215
176
     1
 90
        2
176
     1
 90
        2
176
     1
 62
     7
176
     1
 62
     7
176
     1
 90
        1
176
     1
 90
        1
176
     1
 40
40.0
176
     1
 90
        8
176
     1
 62
     7
176
     1
 40
1.0
176
     1
 90
        1
176
     1
 90
        6
176
     1
 90
        2
176
     1
 62
     7
176
     1
 90
        3
176
     1
 90
        0
176
     1
 90
        0
176
     1
290
     0
176
     1
 90
        1
176
     1
 40
0.0
176
     1
 90
        0
176
     1
290
     0
176
     1
290
     1
176
     1
290
     1
176
     1
290
     0
176
     1
290
     0
176
     1
290
     0
176
     1
290
     0
176
     1
290
     0
176
     1
290
     0
176
     1
 90
       50
176
     1
 40
0.0
176
     1
 40
1.0
176
     1
 90
        0
176
     1
 62
    18
420
        0
176
     1
 90
       50
176
     1
 90
        3
176
     1
 62
     5
420
      255
176
     1
290
     0
176
     1
 90
       50
176
     1
 90
       50
176
     1
 90
       50
176
     1
290
     0
176
     1
 90
       50
176
     1
 62
   256
176
     0
 40
1.0
176
     0
 90
        2
176
     1
  1
strokes_ogs.tif
176
     1
290
     0
176
     1
 40
1.0
176
     1
 40
1.0
176
     1
  0
VISUALSTYLE
  5
3B
102
{ACAD_REACTORS
330
29
102
}
330
29
100
AcDbVisualStyle
  2
Sketchy
 70
    24
177
     3
291
     0
 70
    58
 90
        1
176
     1
 90
        2
176
     1
 90
        2
176
     1
 90
        0
176
     1
 40
0.6
176
     1
 40
30.0
176
     1
 62
     7
420
 16777215
176
     1
 90
        2
176
     1
 90
        2
176
     1
 62
     7
176
     1
 62
     7
176
     1
 90
        1
176
     1
 90
        1
176
     1
 40
40.0
176
     1
 90
       11
176
     1
 62
     7
176
     1
 40
1.0
176
     1
 90
        1
176
     1
 90
        6
176
     1
 90
        2
176
     1
 62
     7
176
     1
 90
        6
176
     1
 90
        0
176
     1
 90
        0
176
     1
290
     0
176
     1
 90
        1
176
     1
 40
0.0
176
     1
 90
        0
176
     1
290
     0
176
     1
290
     1
176
     1
290
     1
176
     1
290
     0
176
     1
290
     0
176
     1
290
     0
176
     1
290
     0
176
     1
290
     0
176
     1
290
     0
176
     1
 90
       50
176
     1
 40
0.0
176
     1
 40
1.0
176
     1
 90
        0
176
     1
 62
    18
420
        0
176
     1
 90
       50
176
     1
 90
        3
176
     1
 62
     5
420
      255
176
     1
290
     0
176
     1
 90
       50
176
     1
 90
       50
176
     1
 90
       50
176
     1
290
     0
176
     1
 90
       50
176
     1
 62
   256
176
     0
 40
1.0
176
     0
 90
        2
176
     1
  1
strokes_ogs.tif
176
     1
290
     0
176
     1
 40
1.0
176
     1
 40
1.0
176
     1
  0
VISUALSTYLE
  5
36
102
{ACAD_REACTORS
330
29
102
}
330
29
100
AcDbVisualStyle
  2
Thicken
 70
    13
177
     3
291
     1
 70
    58
 90
        2
176
     1
 90
        2
176
     1
 90
        0
176
     1
 90
        0
176
     1
 40
0.6
176
     1
 40
30.0
176
     1
 62
     7
420
 16777215
176
     1
 90
        1
176
     1
 90
        4
176
     1
 62
     7
176
     1
 62
   257
176
     1
 90
        1
176
     1
 90
        1
176
     1
 40
1.0
176
     1
 90
       12
176
     1
 62
     7
176
     1
 40
1.0
176
     1
 90
        1
176
     1
 90
        6
176
     1
 90
        2
176
     1
 62
     7
176
     1
 90
        5
176
     1
 90
        0
176
     1
 90
        0
176
     1
290
     0
176
     1
 90
        1
176
     1
 40
0.0
176
     1
 90
        0
176
     1
290
     0
176
     1
290
     1
176
     1
290
     1
176
     1
290
     0
176
     1
290
     0
176
     1
290
     0
176
     1
290
     0
176
     1
290
     0
176
     1
290
     0
176
     1
 90
       50
176
     1
 40
0.0
176
     1
 40
1.0
176
     1
 90
        0
176
     1
 62
    18
420
        0
176
     1
 90
       50
176
     1
 90
        3
176
     1
 62
     5
420
      255
176
     1
290
     0
176
     1
 90
       50
176
     1
 90
       50
176
     1
 90
       50
176
     1
290
     0
176
     1
 90
       50
176
     1
 62
   256
176
     0
 40
1.0
176
     0
 90
        2
176
     1
  1
strokes_ogs.tif
176
     1
290
     0
176
     1
 40
1.0
176
     1
 40
1.0
176
     1
  0
VISUALSTYLE
  5
30
102
{ACAD_REACTORS
330
29
102
}
330
29
100
AcDbVisualStyle
  2
Wireframe
 70
     5
177
     3
291
     0
 70
    58
 90
        0
176
     1
 90
        2
176
     1
 90
        0
176
     1
 90
        0
176
     1
 40
0.6
176
     1
 40
30.0
176
     1
 62
     7
420
 16777215
176
     1
 90
        1
176
     1
 90
        4
176
     1
 62
     7
176
     1
 62
   257
176
     1
 90
        1
176
     1
 90
        1
176
     1
 40
1.0
176
     1
 90
        0
176
     1
 62
   257
176
     1
 40
1.0
176
     1
 90
        1
176
     1
 90
        6
176
     1
 90
        2
176
     1
 62
     7
176
     1
 90
        3
176
     1
 90
        0
176
     1
 90
        0
176
     1
290
     0
176
     1
 90
        1
176
     1
 40
0.0
176
     1
 90
        0
176
     1
290
     0
176
     1
290
     1
176
     1
290
     1
176
     1
290
     0
176
     1
290
     0
176
     1
290
     0
176
     1
290
     0
176
     1
290
     0
176
     1
290
     0
176
     1
 90
       50
176
     1
 40
0.0
176
     1
 40
1.0
176
     1
 90
        0
176
     1
 62
    18
420
        0
176
     1
 90
       50
176
     1
 90
        3
176
     1
 62
     5
420
      255
176
     1
290
     0
176
     1
 90
       50
176
     1
 90
       50
176
     1
 90
       50
176
     1
290
     0
176
     1
 90
       50
176
     1
 62
   256
176
     0
 40
1.0
176
     0
 90
        2
176
     1
  1
strokes_ogs.tif
176
     1
290
     0
176
     1
 40
1.0
176
     1
 40
1.0
176
     1
  0
VISUALSTYLE
  5
3C
102
{ACAD_REACTORS
330
29
102
}
330
29
100
AcDbVisualStyle
  2
X-Ray
 70
    25
177
     3
291
     0
 70
    58
 90
        2
176
     1
 90
        2
176
     1
 90
        1
176
     1
 90
        1
176
     1
 40
0.5
176
     1
 40
30.0
176
     1
 62
     7
420
 16777215
176
     1
 90
        1
176
     1
 90
        0
176
     1
 62
     7
176
     1
 62
   257
176
     1
 90
        1
176
     1
 90
        1
176
     1
 40
1.0
176
     1
 90
        8
176
     1
 62
     7
176
     1
 40
1.0
176
     1
 90
        1
176
     1
 90
        6
176
     1
 90
        2
176
     1
 62
     7
176
     1
 90
        3
176
     1
 90
        0
176
     1
 90
        0
176
     1
290
     0
176
     1
 90
       13
176
     1
 40
0.0
176
     1
 90
        0
176
     1
290
     0
176
     1
290
     1
176
     1
290
     1
176
     1
290
     0
176
     1
290
     0
176
     1
290
     0
176
     1
290
     0
176
     1
290
     0
176
     1
290
     0
176
     1
 90
       50
176
     1
 40
0.0
176
     1
 40
1.0
176
     1
 90
        0
176
     1
 62
    18
420
        0
176
     1
 90
       50
176
     1
 90
        3
176
     1
 62
     5
420
      255
176
     1
290
     0
176
     1
 90
       50
176
     1
 90
       50
176
     1
 90
       50
176
     1
290
     0
176
     1
 90
       50
176
     1
 62
   256
176
     0
 40
1.0
176
     0
 90
        2
176
     1
  1
strokes_ogs.tif
176
     1
290
     0
176
     1
 40
1.0
176
     1
 40
1.0
176
     1
  0
DICTIONARYVAR
  5
81
102
{ACAD_REACTORS
330
7C
102
}
330
7C
100
DictionaryVariables
280
     0
  1
1:1
  0
DICTIONARYVAR
  5
7E
102
{ACAD_REACTORS
330
7C
102
}
330
7C
100
DictionaryVariables
280
     0
  1
STANDARD
  0
DICTIONARYVAR
  5
7D
102
{ACAD_REACTORS
330
7C
102
}
330
7C
100
DictionaryVariables
280
     0
  1
STANDARD
  0
DICTIONARYVAR
  5
7F
102
{ACAD_REACTORS
330
7C
102
}
330
7C
100
DictionaryVariables
280
     0
  1
Imperial24
  0
DICTIONARYVAR
  5
80
102
{ACAD_REACTORS
330
7C
102
}
330
7C
100
DictionaryVariables
280
     0
  1
Imperial24
  0
XRECORD
  5
2CC
102
{ACAD_REACTORS
330
2C8
102
}
330
2C8
100
AcDbXrecord
280
     1
  1
BUILDING_ID
  1
Progetto per messa in tavola DXF, DWG
  1
FLOOR_ID
  1
694395
  0
XRECORD
  5
2CA
102
{ACAD_REACTORS
330
2C8
102
}
330
2C8
100
AcDbXrecord
280
     1
  1
-2001160
  1
Apparecchi idraulici
  0
XRECORD
  5
2CB
102
{ACAD_REACTORS
330
2C8
102
}
330
2C8
100
AcDbXrecord
280
     1
  1
790271
  1
Body
  1
938184
  1
Handle
  1
939838
  1
Insulation
  0
XRECORD
  5
2C9
102
{ACAD_REACTORS
330
2C8
102
}
330
2C8
100
AcDbXrecord
280
     1
  1
859151
  1
Automatic flow rate regulator valve_Caleffi_121 DN15 : 1/2''
  0
DICTIONARY
  5
1A
330
19
100
AcDbDictionary
280
     1
281
     1
  3
BUMPTILE
360
1C
  3
DIFFUSETILE
360
1B
  3
OPACITYTILE
360
1F
  3
REFLECTIONTILE
360
1E
  3
REFRACTIONTILE
360
20
  3
SPECULARTILE
360
1D
  0
DICTIONARY
  5
12
330
11
100
AcDbDictionary
280
     1
281
     1
  3
BUMPTILE
360
14
  3
DIFFUSETILE
360
13
  3
OPACITYTILE
360
17
  3
REFLECTIONTILE
360
16
  3
REFRACTIONTILE
360
18
  3
SPECULARTILE
360
15
  0
DICTIONARY
  5
22
330
21
100
AcDbDictionary
280
     1
281
     1
  3
BUMPTILE
360
24
  3
DIFFUSETILE
360
23
  3
OPACITYTILE
360
27
  3
REFLECTIONTILE
360
26
  3
REFRACTIONTILE
360
28
  3
SPECULARTILE
360
25
  0
DICTIONARY
  5
2CF
330
65
100
AcDbDictionary
280
     1
281
     1
  3
ACAD_ROUNDTRIP_2008_TABLESTYLE_CELLSTYLEMAP
360
2D0
  0
XRECORD
  5
1C
102
{ACAD_REACTORS
330
1A
102
}
330
1A
100
AcDbXrecord
280
     1
270
     1
271
     1
  0
XRECORD
  5
1B
102
{ACAD_REACTORS
330
1A
102
}
330
1A
100
AcDbXrecord
280
     1
270
     1
271
     1
  0
XRECORD
  5
1F
102
{ACAD_REACTORS
330
1A
102
}
330
1A
100
AcDbXrecord
280
     1
270
     1
271
     1
  0
XRECORD
  5
1E
102
{ACAD_REACTORS
330
1A
102
}
330
1A
100
AcDbXrecord
280
     1
270
     1
271
     1
  0
XRECORD
  5
20
102
{ACAD_REACTORS
330
1A
102
}
330
1A
100
AcDbXrecord
280
     1
270
     1
271
     1
  0
XRECORD
  5
1D
102
{ACAD_REACTORS
330
1A
102
}
330
1A
100
AcDbXrecord
280
     1
270
     1
271
     1
  0
XRECORD
  5
14
102
{ACAD_REACTORS
330
12
102
}
330
12
100
AcDbXrecord
280
     1
270
     1
271
     1
  0
XRECORD
  5
13
102
{ACAD_REACTORS
330
12
102
}
330
12
100
AcDbXrecord
280
     1
270
     1
271
     1
  0
XRECORD
  5
17
102
{ACAD_REACTORS
330
12
102
}
330
12
100
AcDbXrecord
280
     1
270
     1
271
     1
  0
XRECORD
  5
16
102
{ACAD_REACTORS
330
12
102
}
330
12
100
AcDbXrecord
280
     1
270
     1
271
     1
  0
XRECORD
  5
18
102
{ACAD_REACTORS
330
12
102
}
330
12
100
AcDbXrecord
280
     1
270
     1
271
     1
  0
XRECORD
  5
15
102
{ACAD_REACTORS
330
12
102
}
330
12
100
AcDbXrecord
280
     1
270
     1
271
     1
  0
XRECORD
  5
24
102
{ACAD_REACTORS
330
22
102
}
330
22
100
AcDbXrecord
280
     1
270
     1
271
     1
  0
XRECORD
  5
23
102
{ACAD_REACTORS
330
22
102
}
330
22
100
AcDbXrecord
280
     1
270
     1
271
     1
  0
XRECORD
  5
27
102
{ACAD_REACTORS
330
22
102
}
330
22
100
AcDbXrecord
280
     1
270
     1
271
     1
  0
XRECORD
  5
26
102
{ACAD_REACTORS
330
22
102
}
330
22
100
AcDbXrecord
280
     1
270
     1
271
     1
  0
XRECORD
  5
28
102
{ACAD_REACTORS
330
22
102
}
330
22
100
AcDbXrecord
280
     1
270
     1
271
     1
  0
XRECORD
  5
25
102
{ACAD_REACTORS
330
22
102
}
330
22
100
AcDbXrecord
280
     1
270
     1
271
     1
  0
CELLSTYLEMAP
  5
2D0
102
{ACAD_REACTORS
330
2CF
102
}
330
2CF
100
AcDbCellStyleMap
 90
        3
300
CELLSTYLE
  1
TABLEFORMAT_BEGIN
 90
        5
170
     1
 91
        0
 92
    32768
 62
   257
 93
        1
300
CONTENTFORMAT
  1
CONTENTFORMAT_BEGIN
 90
        0
 91
        0
 92
      512
 93
        0
300

 40
0.0
140
1.0
 94
        5
 62
     0
340
55
144
0.25
309
CONTENTFORMAT_END
171
     0
 94
        0
309
TABLEFORMAT_END
  1
CELLSTYLE_BEGIN
 90
        1
 91
        1
300
_TITLE
309
CELLSTYLE_END
300
CELLSTYLE
  1
TABLEFORMAT_BEGIN
 90
        5
170
     1
 91
        0
 92
        0
 62
   257
 93
        1
300
CONTENTFORMAT
  1
CONTENTFORMAT_BEGIN
 90
        0
 91
        0
 92
      512
 93
        0
300

 40
0.0
140
1.0
 94
        5
 62
     0
340
55
144
0.18
309
CONTENTFORMAT_END
171
     0
 94
        0
309
TABLEFORMAT_END
  1
CELLSTYLE_BEGIN
 90
        2
 91
        1
300
_HEADER
309
CELLSTYLE_END
300
CELLSTYLE
  1
TABLEFORMAT_BEGIN
 90
        5
170
     1
 91
        0
 92
        0
 62
   257
 93
        1
300
CONTENTFORMAT
  1
CONTENTFORMAT_BEGIN
 90
        0
 91
        0
 92
      512
 93
        0
300

 40
0.0
140
1.0
 94
        2
 62
     0
340
55
144
0.18
309
CONTENTFORMAT_END
171
     0
 94
        0
309
TABLEFORMAT_END
  1
CELLSTYLE_BEGIN
 90
        3
 91
        2
300
_DATA
309
CELLSTYLE_END
  0
ENDSEC
  0
EOF
