  0
SECTION
  2
HEADER
  9
$ACADVER
  1
AC1027
  9
$ACADMAINTVER
 70
    20
  9
$DWGCODEPAGE
  3
ANSI_1252
  9
$REQUIREDVERSIONS
160
                 0
  9
$INSBASE
 10
0.0
 20
0.0
 30
0.0
  9
$EXTMIN
 10
758.1664074331877
 20
1772.442350135024
 30
-0.00000001
  9
$EXTMAX
 10
1104.667882528125
 20
2077.498183850009
 30
0.00000001
  9
$LIMMIN
 10
0.0
 20
0.0
  9
$LIMMAX
 10
12.0
 20
9.0
  9
$ORTHOMODE
 70
     0
  9
$REGENMODE
 70
     1
  9
$FILLMODE
 70
     1
  9
$QTEXTMODE
 70
     0
  9
$MIRRTEXT
 70
     0
  9
$LTSCALE
 40
1.0
  9
$ATTMODE
 70
     1
  9
$TEXTSIZE
 40
0.2
  9
$TRACEWID
 40
0.05
  9
$TEXTSTYLE
  7
Standard
  9
$CLAYER
  8
0
  9
$CELTYPE
  6
ByLayer
  9
$CECOLOR
 62
   256
  9
$CELTSCALE
 40
1.0
  9
$DISPSILH
 70
     0
  9
$DIMSCALE
 40
1.0
  9
$DIMASZ
 40
0.18
  9
$DIMEXO
 40
0.0625
  9
$DIMDLI
 40
0.38
  9
$DIMRND
 40
0.0
  9
$DIMDLE
 40
0.0
  9
$DIMEXE
 40
0.18
  9
$DIMTP
 40
0.0
  9
$DIMTM
 40
0.0
  9
$DIMTXT
 40
0.18
  9
$DIMCEN
 40
0.09
  9
$DIMTSZ
 40
0.0
  9
$DIMTOL
 70
     0
  9
$DIMLIM
 70
     0
  9
$DIMTIH
 70
     1
  9
$DIMTOH
 70
     1
  9
$DIMSE1
 70
     0
  9
$DIMSE2
 70
     0
  9
$DIMTAD
 70
     0
  9
$DIMZIN
 70
     0
  9
$DIMBLK
  1

  9
$DIMASO
 70
     1
  9
$DIMSHO
 70
     1
  9
$DIMPOST
  1

  9
$DIMAPOST
  1

  9
$DIMALT
 70
     0
  9
$DIMALTD
 70
     2
  9
$DIMALTF
 40
25.4
  9
$DIMLFAC
 40
1.0
  9
$DIMTOFL
 70
     0
  9
$DIMTVP
 40
0.0
  9
$DIMTIX
 70
     0
  9
$DIMSOXD
 70
     0
  9
$DIMSAH
 70
     0
  9
$DIMBLK1
  1

  9
$DIMBLK2
  1

  9
$DIMSTYLE
  2
Standard
  9
$DIMCLRD
 70
     0
  9
$DIMCLRE
 70
     0
  9
$DIMCLRT
 70
     0
  9
$DIMTFAC
 40
1.0
  9
$DIMGAP
 40
0.09
  9
$DIMJUST
 70
     0
  9
$DIMSD1
 70
     0
  9
$DIMSD2
 70
     0
  9
$DIMTOLJ
 70
     1
  9
$DIMTZIN
 70
     0
  9
$DIMALTZ
 70
     0
  9
$DIMALTTZ
 70
     0
  9
$DIMUPT
 70
     0
  9
$DIMDEC
 70
     4
  9
$DIMTDEC
 70
     4
  9
$DIMALTU
 70
     2
  9
$DIMALTTD
 70
     2
  9
$DIMTXSTY
  7
Standard
  9
$DIMAUNIT
 70
     0
  9
$DIMADEC
 70
     0
  9
$DIMALTRND
 40
0.0
  9
$DIMAZIN
 70
     0
  9
$DIMDSEP
 70
    46
  9
$DIMATFIT
 70
     3
  9
$DIMFRAC
 70
     0
  9
$DIMLDRBLK
  1

  9
$DIMLUNIT
 70
     2
  9
$DIMLWD
 70
    -2
  9
$DIMLWE
 70
    -2
  9
$DIMTMOVE
 70
     0
  9
$DIMFXL
 40
1.0
  9
$DIMFXLON
 70
     0
  9
$DIMJOGANG
 40
0.7853981633974483
  9
$DIMTFILL
 70
     0
  9
$DIMTFILLCLR
 70
     0
  9
$DIMARCSYM
 70
     0
  9
$DIMLTYPE
  6

  9
$DIMLTEX1
  6

  9
$DIMLTEX2
  6

  9
$DIMTXTDIRECTION
 70
     0
  9
$LUNITS
 70
     2
  9
$LUPREC
 70
     4
  9
$SKETCHINC
 40
0.1
  9
$FILLETRAD
 40
0.0
  9
$AUNITS
 70
     0
  9
$AUPREC
 70
     0
  9
$MENU
  1
.
  9
$ELEVATION
 40
0.0
  9
$PELEVATION
 40
0.0
  9
$THICKNESS
 40
0.0
  9
$LIMCHECK
 70
     0
  9
$CHAMFERA
 40
0.0
  9
$CHAMFERB
 40
0.0
  9
$CHAMFERC
 40
0.0
  9
$CHAMFERD
 40
0.0
  9
$SKPOLY
 70
     0
  9
$TDCREATE
 40
2457569.580863958
  9
$TDUCREATE
 40
2457569.497530625
  9
$TDUPDATE
 40
2457569.580863958
  9
$TDUUPDATE
 40
2457569.497530625
  9
$TDINDWG
 40
0.0000108796
  9
$TDUSRTIMER
 40
0.0000108796
  9
$USRTIMER
 70
     1
  9
$ANGBASE
 50
0.0
  9
$ANGDIR
 70
     0
  9
$PDMODE
 70
     0
  9
$PDSIZE
 40
0.0
  9
$PLINEWID
 40
0.0
  9
$SPLFRAME
 70
     0
  9
$SPLINETYPE
 70
     6
  9
$SPLINESEGS
 70
     8
  9
$HANDSEED
  5
2C4
  9
$SURFTAB1
 70
     6
  9
$SURFTAB2
 70
     6
  9
$SURFTYPE
 70
     6
  9
$SURFU
 70
     6
  9
$SURFV
 70
     6
  9
$UCSBASE
  2

  9
$UCSNAME
  2

  9
$UCSORG
 10
0.0
 20
0.0
 30
0.0
  9
$UCSXDIR
 10
1.0
 20
0.0
 30
0.0
  9
$UCSYDIR
 10
0.0
 20
1.0
 30
0.0
  9
$UCSORTHOREF
  2

  9
$UCSORTHOVIEW
 70
     0
  9
$UCSORGTOP
 10
0.0
 20
0.0
 30
0.0
  9
$UCSORGBOTTOM
 10
0.0
 20
0.0
 30
0.0
  9
$UCSORGLEFT
 10
0.0
 20
0.0
 30
0.0
  9
$UCSORGRIGHT
 10
0.0
 20
0.0
 30
0.0
  9
$UCSORGFRONT
 10
0.0
 20
0.0
 30
0.0
  9
$UCSORGBACK
 10
0.0
 20
0.0
 30
0.0
  9
$PUCSBASE
  2

  9
$PUCSNAME
  2

  9
$PUCSORG
 10
0.0
 20
0.0
 30
0.0
  9
$PUCSXDIR
 10
1.0
 20
0.0
 30
0.0
  9
$PUCSYDIR
 10
0.0
 20
1.0
 30
0.0
  9
$PUCSORTHOREF
  2

  9
$PUCSORTHOVIEW
 70
     0
  9
$PUCSORGTOP
 10
0.0
 20
0.0
 30
0.0
  9
$PUCSORGBOTTOM
 10
0.0
 20
0.0
 30
0.0
  9
$PUCSORGLEFT
 10
0.0
 20
0.0
 30
0.0
  9
$PUCSORGRIGHT
 10
0.0
 20
0.0
 30
0.0
  9
$PUCSORGFRONT
 10
0.0
 20
0.0
 30
0.0
  9
$PUCSORGBACK
 10
0.0
 20
0.0
 30
0.0
  9
$USERI1
 70
     0
  9
$USERI2
 70
     0
  9
$USERI3
 70
     0
  9
$USERI4
 70
     0
  9
$USERI5
 70
     0
  9
$USERR1
 40
0.0
  9
$USERR2
 40
0.0
  9
$USERR3
 40
0.0
  9
$USERR4
 40
0.0
  9
$USERR5
 40
0.0
  9
$WORLDVIEW
 70
     1
  9
$SHADEDGE
 70
     3
  9
$SHADEDIF
 70
    70
  9
$TILEMODE
 70
     1
  9
$MAXACTVP
 70
    64
  9
$PINSBASE
 10
0.0
 20
0.0
 30
0.0
  9
$PLIMCHECK
 70
     0
  9
$PEXTMIN
 10
1.000000000000000E+20
 20
1.000000000000000E+20
 30
1.000000000000000E+20
  9
$PEXTMAX
 10
-1.000000000000000E+20
 20
-1.000000000000000E+20
 30
-1.000000000000000E+20
  9
$PLIMMIN
 10
0.0
 20
0.0
  9
$PLIMMAX
 10
12.0
 20
9.0
  9
$UNITMODE
 70
     0
  9
$VISRETAIN
 70
     1
  9
$PLINEGEN
 70
     0
  9
$PSLTSCALE
 70
     1
  9
$TREEDEPTH
 70
  3020
  9
$CMLSTYLE
  2
Standard
  9
$CMLJUST
 70
     0
  9
$CMLSCALE
 40
1.0
  9
$PROXYGRAPHICS
 70
     1
  9
$MEASUREMENT
 70
     1
  9
$CELWEIGHT
370
    -1
  9
$ENDCAPS
280
     0
  9
$JOINSTYLE
280
     0
  9
$LWDISPLAY
290
     0
  9
$INSUNITS
 70
     4
  9
$HYPERLINKBASE
  1

  9
$STYLESHEET
  1

  9
$XEDIT
290
     1
  9
$CEPSNTYPE
380
     0
  9
$PSTYLEMODE
290
     1
  9
$FINGERPRINTGUID
  2
{80645766-310D-4429-A956-A9C7B3BC3FBF}
  9
$VERSIONGUID
  2
{7B6349C5-41C3-405C-9FC5-E643A7AAFC06}
  9
$EXTNAMES
290
     1
  9
$PSVPSCALE
 40
0.0
  9
$OLESTARTUP
290
     0
  9
$SORTENTS
280
   127
  9
$INDEXCTL
280
     0
  9
$HIDETEXT
280
     1
  9
$XCLIPFRAME
280
     2
  9
$HALOGAP
280
     0
  9
$OBSCOLOR
 70
   257
  9
$OBSLTYPE
280
     0
  9
$INTERSECTIONDISPLAY
280
     0
  9
$INTERSECTIONCOLOR
 70
   257
  9
$DIMASSOC
280
     2
  9
$PROJECTNAME
  1

  9
$CAMERADISPLAY
290
     0
  9
$LENSLENGTH
 40
50.0
  9
$CAMERAHEIGHT
 40
0.0
  9
$STEPSPERSEC
 40
2.0
  9
$STEPSIZE
 40
6.0
  9
$3DDWFPREC
 40
2.0
  9
$PSOLWIDTH
 40
0.25
  9
$PSOLHEIGHT
 40
4.0
  9
$LOFTANG1
 40
1.570796326794896
  9
$LOFTANG2
 40
1.570796326794896
  9
$LOFTMAG1
 40
0.0
  9
$LOFTMAG2
 40
0.0
  9
$LOFTPARAM
 70
     7
  9
$LOFTNORMALS
280
     1
  9
$LATITUDE
 40
37.795
  9
$LONGITUDE
 40
-122.394
  9
$NORTHDIRECTION
 40
0.0
  9
$TIMEZONE
 70
 -8000
  9
$LIGHTGLYPHDISPLAY
280
     1
  9
$TILEMODELIGHTSYNCH
280
     1
  9
$CMATERIAL
347
11
  9
$SOLIDHIST
280
     0
  9
$SHOWHIST
280
     1
  9
$DWFFRAME
280
     2
  9
$DGNFRAME
280
     0
  9
$REALWORLDSCALE
290
     1
  9
$INTERFERECOLOR
 62
     1
  9
$INTERFEREOBJVS
345
33
  9
$INTERFEREVPVS
346
30
  9
$CSHADOW
280
     0
  9
$SHADOWPLANELOCATION
 40
0.0
  0
ENDSEC
  0
SECTION
  2
CLASSES
  0
CLASS
  1
ACDBDICTIONARYWDFLT
  2
AcDbDictionaryWithDefault
  3
ObjectDBX Classes
 90
        0
 91
        1
280
     0
281
     0
  0
CLASS
  1
MATERIAL
  2
AcDbMaterial
  3
ObjectDBX Classes
 90
     1153
 91
        3
280
     0
281
     0
  0
CLASS
  1
VISUALSTYLE
  2
AcDbVisualStyle
  3
ObjectDBX Classes
 90
     4095
 91
       24
280
     0
281
     0
  0
CLASS
  1
SCALE
  2
AcDbScale
  3
ObjectDBX Classes
 90
     1153
 91
       17
280
     0
281
     0
  0
CLASS
  1
TABLESTYLE
  2
AcDbTableStyle
  3
ObjectDBX Classes
 90
     4095
 91
        1
280
     0
281
     0
  0
CLASS
  1
MLEADERSTYLE
  2
AcDbMLeaderStyle
  3
ACDB_MLEADERSTYLE_CLASS
 90
     4095
 91
        1
280
     0
281
     0
  0
CLASS
  1
ACDBSECTIONVIEWSTYLE
  2
AcDbSectionViewStyle
  3
ObjectDBX Classes
 90
     1025
 91
        1
280
     0
281
     0
  0
CLASS
  1
ACDBDETAILVIEWSTYLE
  2
AcDbDetailViewStyle
  3
ObjectDBX Classes
 90
     1025
 91
        1
280
     0
281
     0
  0
CLASS
  1
RASTERVARIABLES
  2
AcDbRasterVariables
  3
ISM
 90
        0
 91
        1
280
     0
281
     0
  0
CLASS
  1
DICTIONARYVAR
  2
AcDbDictionaryVar
  3
ObjectDBX Classes
 90
        0
 91
        5
280
     0
281
     0
  0
CLASS
  1
CELLSTYLEMAP
  2
AcDbCellStyleMap
  3
ObjectDBX Classes
 90
     1152
 91
        2
280
     0
281
     0
  0
CLASS
  1
SORTENTSTABLE
  2
AcDbSortentsTable
  3
ObjectDBX Classes
 90
        0
 91
        1
280
     0
281
     0
  0
ENDSEC
  0
SECTION
  2
TABLES
  0
TABLE
  2
VPORT
  5
8
330
0
100
AcDbSymbolTable
 70
     1
  0
VPORT
  5
57
330
8
100
AcDbSymbolTableRecord
100
AcDbViewportTableRecord
  2
*Active
 70
     0
 10
0.0
 20
0.0
 11
1.0
 21
1.0
 12
931.4171449806565
 22
1924.970266992516
 13
0.0
 23
0.0
 14
1.0
 24
1.0
 15
0.0
 25
0.0
 16
0.0
 26
0.0
 36
1.0
 17
0.0
 27
0.0
 37
0.0
 40
305.0558337149846
 41
1.135862477616723
 42
50.0
 43
0.0
 44
0.0
 50
0.0
 51
0.0
 71
     0
 72
  1000
 73
     1
 74
     1
 75
     0
 76
     0
 77
     0
 78
     0
281
     0
 65
     1
110
0.0
120
0.0
130
0.0
111
1.0
121
0.0
131
0.0
112
0.0
122
1.0
132
0.0
 79
     0
146
0.0
 60
     3
 61
     5
292
     1
282
     1
141
0.0
142
0.0
 63
   250
421
  3355443
  0
ENDTAB
  0
TABLE
  2
LTYPE
  5
5
330
0
100
AcDbSymbolTable
 70
     3
  0
LTYPE
  5
5B
330
5
100
AcDbSymbolTableRecord
100
AcDbLinetypeTableRecord
  2
ByBlock
 70
     0
  3

 72
    65
 73
     0
 40
0.0
  0
LTYPE
  5
5C
330
5
100
AcDbSymbolTableRecord
100
AcDbLinetypeTableRecord
  2
ByLayer
 70
     0
  3

 72
    65
 73
     0
 40
0.0
  0
LTYPE
  5
5D
330
5
100
AcDbSymbolTableRecord
100
AcDbLinetypeTableRecord
  2
Continuous
 70
     0
  3
Solid line
 72
    65
 73
     0
 40
0.0
  0
LTYPE
  5
69
330
5
100
AcDbSymbolTableRecord
100
AcDbLinetypeTableRecord
  2
PHANTOM2
 70
     0
  3
___ _ _ ___ _ _ ___ _ _ ___ _ _
 72
    65
 73
     6
 40
1.25
 49
0.625
 74
     0
 49
-0.125
 74
     0
 49
0.125
 74
     0
 49
-0.125
 74
     0
 49
0.125
 74
     0
 49
-0.125
 74
     0
  0
LTYPE
  5
86
330
5
100
AcDbSymbolTableRecord
100
AcDbLinetypeTableRecord
  2
Nascosto 1_5 mm
 70
     0
  3

 72
    65
 73
     2
 40
2.2
 49
1.5
 74
     0
 49
-0.7000000000000001
 74
     0
  0
ENDTAB
  0
TABLE
  2
LAYER
  5
2
330
0
100
AcDbSymbolTable
 70
     4
  0
LAYER
  5
54
330
2
100
AcDbSymbolTableRecord
100
AcDbLayerTableRecord
  2
0
 70
     0
 62
     7
  6
Continuous
370
    -3
390
F
347
21
348
0
  0
LAYER
  5
85
330
2
100
AcDbSymbolTableRecord
100
AcDbLayerTableRecord
  2
P-SANR-FIXT
 70
     0
 62
     6
  6
Continuous
370
    18
390
F
347
21
348
0
  0
LAYER
  5
88
330
2
100
AcDbSymbolTableRecord
100
AcDbLayerTableRecord
  2
M-PIPE
 70
     0
 62
     3
  6
Continuous
370
    18
390
F
347
21
348
0
  0
ENDTAB
  0
TABLE
  2
STYLE
  5
3
330
0
100
AcDbSymbolTable
 70
     2
  0
STYLE
  5
55
330
3
100
AcDbSymbolTableRecord
100
AcDbTextStyleTableRecord
  2
Standard
 70
     0
 40
0.0
 41
1.0
 50
0.0
 71
     0
 42
0.2
  3
txt
  4

  0
STYLE
  5
5A
330
3
100
AcDbSymbolTableRecord
100
AcDbTextStyleTableRecord
  2
Annotative
 70
     0
 40
0.0
 41
1.0
 50
0.0
 71
     0
 42
0.2
  3
txt
  4

1001
AcadAnnotative
1000
AnnotativeData
1002
{
1070
     1
1070
     1
1002
}
  0
ENDTAB
  0
TABLE
  2
VIEW
  5
6
330
0
100
AcDbSymbolTable
 70
     0
  0
ENDTAB
  0
TABLE
  2
UCS
  5
7
330
0
100
AcDbSymbolTable
 70
     0
  0
ENDTAB
  0
TABLE
  2
APPID
  5
9
330
0
100
AcDbSymbolTable
 70
     3
  0
APPID
  5
56
330
9
100
AcDbSymbolTableRecord
100
AcDbRegAppTableRecord
  2
ACAD
 70
     0
  0
APPID
  5
5E
330
9
100
AcDbSymbolTableRecord
100
AcDbRegAppTableRecord
  2
AcadAnnotative
 70
     0
  0
APPID
  5
79
330
9
100
AcDbSymbolTableRecord
100
AcDbRegAppTableRecord
  2
REVIT
 70
     0
  0
ENDTAB
  0
TABLE
  2
DIMSTYLE
  5
A
330
0
100
AcDbSymbolTable
 70
     2
100
AcDbDimStyleTable
 71
     0
  0
DIMSTYLE
105
58
330
A
100
AcDbSymbolTableRecord
100
AcDbDimStyleTableRecord
  2
Standard
 70
     0
340
55
  0
DIMSTYLE
105
59
330
A
100
AcDbSymbolTableRecord
100
AcDbDimStyleTableRecord
  2
Annotative
 70
     0
340
55
1001
AcadAnnotative
1000
AnnotativeData
1002
{
1070
     1
1070
     1
1002
}
  0
ENDTAB
  0
TABLE
  2
BLOCK_RECORD
  5
1
330
0
100
AcDbSymbolTable
 70
     4
  0
BLOCK_RECORD
  5
71
102
{ACAD_XDICTIONARY
360
2BF
102
}
330
1
100
AcDbSymbolTableRecord
100
AcDbBlockTableRecord
  2
*Model_Space
340
74
 70
     0
280
     1
281
     0
  0
BLOCK_RECORD
  5
6D
330
1
100
AcDbSymbolTableRecord
100
AcDbBlockTableRecord
  2
*Paper_Space
340
70
 70
     0
280
     1
281
     0
  0
BLOCK_RECORD
  5
75
330
1
100
AcDbSymbolTableRecord
100
AcDbBlockTableRecord
  2
*Paper_Space0
340
78
 70
     0
280
     1
281
     0
  0
BLOCK_RECORD
  5
87
330
1
100
AcDbSymbolTableRecord
100
AcDbBlockTableRecord
  2
Automatic flow rate regulator valve_Caleffi_121 DN15 - 1_2__-859151-Est - Idraulica
340
0
102
{BLKREFS
331
1DF
102
}
 70
     0
280
     1
281
     0
  0
BLOCK_RECORD
  5
1E0
330
1
100
AcDbSymbolTableRecord
100
AcDbBlockTableRecord
  2
Automatic flow rate regulator valve_Caleffi_121 DN15 - 1_2__-V1-Est - Idraulica
340
0
102
{BLKREFS
331
219
102
}
 70
     0
280
     1
281
     0
  0
BLOCK_RECORD
  5
21A
330
1
100
AcDbSymbolTableRecord
100
AcDbBlockTableRecord
  2
Automatic flow rate regulator valve_Caleffi_121 DN15 - 1_2__-V2-Est - Idraulica
340
0
102
{BLKREFS
331
2B8
102
}
 70
     0
280
     1
281
     0
  0
ENDTAB
  0
ENDSEC
  0
SECTION
  2
BLOCKS
  0
BLOCK
  5
72
330
71
100
AcDbEntity
  8
0
100
AcDbBlockBegin
  2
*Model_Space
 70
     0
 10
0.0
 20
0.0
 30
0.0
  3
*Model_Space
  1

  0
ENDBLK
  5
73
330
71
100
AcDbEntity
  8
0
100
AcDbBlockEnd
  0
BLOCK
  5
6E
330
6D
100
AcDbEntity
 67
     1
  8
0
100
AcDbBlockBegin
  2
*Paper_Space
 70
     0
 10
0.0
 20
0.0
 30
0.0
  3
*Paper_Space
  1

  0
ENDBLK
  5
6F
330
6D
100
AcDbEntity
 67
     1
  8
0
100
AcDbBlockEnd
  0
BLOCK
  5
76
330
75
100
AcDbEntity
 67
     1
  8
0
100
AcDbBlockBegin
  2
*Paper_Space0
 70
     0
 10
0.0
 20
0.0
 30
0.0
  3
*Paper_Space0
  1

  0
ENDBLK
  5
77
330
75
100
AcDbEntity
 67
     1
  8
0
100
AcDbBlockEnd
  0
BLOCK
  5
1DD
330
87
100
AcDbEntity
  8
0
100
AcDbBlockBegin
  2
Automatic flow rate regulator valve_Caleffi_121 DN15 - 1_2__-859151-Est - Idraulica
 70
     0
 10
0.0
 20
0.0
 30
0.0
  3
Automatic flow rate regulator valve_Caleffi_121 DN15 - 1_2__-859151-Est - Idraulica
  1

  0
LWPOLYLINE
  5
89
330
87
100
AcDbEntity
  8
M-PIPE
100
AcDbPolyline
 90
       41
 70
   128
 43
0.0
 10
763.166407443189
 20
1933.437499999998
 10
762.9664607722558
 20
1933.441499466693
 10
762.7668339733432
 20
1933.453491468485
 10
762.5678464067444
 20
1933.473456820729
 10
762.3698164101178
 20
1933.50136358312
 10
762.1730607892135
 20
1933.537167110792
 10
761.9778943110534
 20
1933.580810125738
 10
761.7846292003683
 20
1933.632222808444
 10
761.5935746401082
 20
1933.691322909586
 10
761.4050362768136
 20
1933.758015881608
 10
761.2193157316457
 20
1933.832195029984
 10
761.0367101178589
 20
1933.913741683898
 10
760.8575115654815
 20
1934.002525386102
 10
760.6820067539701
 20
1934.098404101609
 10
760.5104764535846
 20
1934.201224444931
 10
760.3431950762137
 20
1934.31082192545
 10
760.180430236377
 20
1934.427021210576
 10
760.0224423230967
 20
1934.549636406243
 10
759.8694840833317
 20
1934.678471354294
 10
759.7218002176362
 20
1934.813319946293
 10
759.5796269886914
 20
1934.953966453262
 10
759.4431918433347
 20
1935.100185870792
 10
759.3127130486941
 20
1935.251744279005
 10
759.1883993430071
 20
1935.408399216781
 10
759.0704496016838
 20
1935.569900069635
 10
758.9590525191495
 20
1935.735988470657
 10
758.8543863069721
 20
1935.906398713834
 10
758.7566184087641
 20
1936.080858179129
 10
758.6659052323065
 20
1936.259087768614
 10
758.5823918993301
 20
1936.440802352967
 10
758.5062120133527
 20
1936.625711227615
 10
758.4374874459413
 20
1936.813518577804
 10
758.3763281417429
 20
1937.003923951838
 10
758.3228319425975
 20
1937.196622741736
 10
758.2770844310122
 20
1937.391306670541
 10
758.2391587932465
 20
1937.587664285497
 10
758.2091157022305
 20
1937.785381456307
 10
758.1870032205008
 20
1937.984141877677
 10
758.1728567233109
 20
1938.18362757533
 10
758.1666988420392
 20
1938.383519414706
 10
758.1664074431889
 20
1938.437499999998
1001
REVIT
1002
{
1070
     3
1000
939838
1002
}
  0
LWPOLYLINE
  5
8A
330
87
100
AcDbEntity
  8
M-PIPE
100
AcDbPolyline
 90
       41
 70
   128
 43
0.0
 10
758.1664074431889
 20
2003.437499999998
 10
758.1704069098841
 20
2003.637446670931
 10
758.1823989116759
 20
2003.837073469844
 10
758.2023642639196
 20
2004.036061036443
 10
758.2302710263109
 20
2004.234091033069
 10
758.2660745539826
 20
2004.430846653974
 10
758.3097175689288
 20
2004.626013132134
 10
758.3611302516351
 20
2004.819278242819
 10
758.4202303527769
 20
2005.010332803079
 10
758.4869233247992
 20
2005.198871166374
 10
758.5611024731746
 20
2005.384591711542
 10
758.6426491270892
 20
2005.567197325328
 10
758.7314328292926
 20
2005.746395877705
 10
758.8273115448006
 20
2005.921900689217
 10
758.9301318881219
 20
2006.093430989603
 10
759.0397293686406
 20
2006.260712366974
 10
759.1559286537674
 20
2006.42347720681
 10
759.2785438494343
 20
2006.581465120091
 10
759.4073787974845
 20
2006.734423359856
 10
759.5422273894844
 20
2006.882107225551
 10
759.6828738964532
 20
2007.024280454496
 10
759.8290933139824
 20
2007.160715599852
 10
759.980651722196
 20
2007.291194394493
 10
760.1373066599717
 20
2007.41550810018
 10
760.2988075128267
 20
2007.533457841503
 10
760.4648959138483
 20
2007.644854924038
 10
760.635306157025
 20
2007.749521136215
 10
760.8097656223203
 20
2007.847289034423
 10
760.9879952118054
 20
2007.938002210881
 10
761.1697097961577
 20
2008.021515543857
 10
761.3546186708056
 20
2008.097695429834
 10
761.5424260209951
 20
2008.166419997246
 10
761.7328313950292
 20
2008.227579301444
 10
761.925530184927
 20
2008.28107550059
 10
762.1202141137319
 20
2008.326823012175
 10
762.3165717286878
 20
2008.36474864994
 10
762.5142888994984
 20
2008.394791740957
 10
762.7130493208674
 20
2008.416904222686
 10
762.9125350185211
 20
2008.431050719876
 10
763.1124268578976
 20
2008.437208601148
 10
763.166407443189
 20
2008.437499999998
1001
REVIT
1002
{
1070
     3
1000
939838
1002
}
  0
LWPOLYLINE
  5
8B
330
87
100
AcDbEntity
  8
M-PIPE
100
AcDbPolyline
 90
       41
 70
   128
 43
0.0
 10
873.1664074431893
 20
1938.437499999998
 10
873.1624079764943
 20
1938.237553329065
 10
873.1504159747025
 20
1938.037926530152
 10
873.1304506224587
 20
1937.838938963554
 10
873.1025438600674
 20
1937.640908966927
 10
873.0667403323955
 20
1937.444153346023
 10
873.0230973174494
 20
1937.248986867862
 10
872.9716846347432
 20
1937.055721757177
 10
872.9125845336016
 20
1936.864667196917
 10
872.8458915615791
 20
1936.676128833622
 10
872.7717124132039
 20
1936.490408288455
 10
872.6901657592891
 20
1936.307802674668
 10
872.6013820570859
 20
1936.128604122291
 10
872.5055033415776
 20
1935.953099310779
 10
872.4026829982564
 20
1935.781569010394
 10
872.2930855177377
 20
1935.614287633023
 10
872.1768862326108
 20
1935.451522793186
 10
872.0542710369439
 20
1935.293534879906
 10
871.9254360888939
 20
1935.140576640141
 10
871.7905874968938
 20
1934.992892774445
 10
871.6499409899252
 20
1934.8507195455
 10
871.503721572396
 20
1934.714284400143
 10
871.3521631641823
 20
1934.583805605503
 10
871.1955082264067
 20
1934.459491899816
 10
871.0340073735517
 20
1934.341542158493
 10
870.86791897253
 20
1934.230145075959
 10
870.6975087293534
 20
1934.125478863781
 10
870.5230492640581
 20
1934.027710965573
 10
870.344819674573
 20
1933.936997789115
 10
870.1631050902207
 20
1933.853484456139
 10
869.9781962155727
 20
1933.777304570162
 10
869.7903888653835
 20
1933.70858000275
 10
869.5999834913491
 20
1933.647420698552
 10
869.407284701451
 20
1933.593924499407
 10
869.2126007726464
 20
1933.548176987821
 10
869.0162431576906
 20
1933.510251350056
 10
868.81852598688
 20
1933.480208259039
 10
868.6197655655108
 20
1933.45809577731
 10
868.4202798678573
 20
1933.44394928012
 10
868.2203880284806
 20
1933.437791398848
 10
868.1664074431894
 20
1933.437499999998
1001
REVIT
1002
{
1070
     3
1000
939838
1002
}
  0
LWPOLYLINE
  5
8C
330
87
100
AcDbEntity
  8
M-PIPE
100
AcDbPolyline
 90
       41
 70
   128
 43
0.0
 10
868.1664074431894
 20
2008.437499999998
 10
868.3663541141225
 20
2008.433500533303
 10
868.5659809130353
 20
2008.421508531512
 10
868.764968479634
 20
2008.401543179267
 10
868.9629984762605
 20
2008.373636416877
 10
869.1597540971645
 20
2008.337832889204
 10
869.3549205753251
 20
2008.294189874258
 10
869.5481856860098
 20
2008.242777191552
 10
869.7392402462698
 20
2008.183677090411
 10
869.9277786095649
 20
2008.116984118388
 10
870.1134991547325
 20
2008.042804970013
 10
870.2961047685194
 20
2007.961258316098
 10
870.4753033208968
 20
2007.872474613895
 10
870.6508081324079
 20
2007.776595898386
 10
870.8223384327938
 20
2007.673775555065
 10
870.9896198101647
 20
2007.564178074547
 10
871.1523846500014
 20
2007.44797878942
 10
871.3103725632818
 20
2007.325363593753
 10
871.4633308030467
 20
2007.196528645703
 10
871.6110146687421
 20
2007.061680053702
 10
871.753187897687
 20
2006.921033546734
 10
871.8896230430436
 20
2006.774814129204
 10
872.0201018376842
 20
2006.623255720991
 10
872.1444155433712
 20
2006.466600783216
 10
872.2623652846944
 20
2006.30509993036
 10
872.373762367229
 20
2006.139011529339
 10
872.478428579406
 20
2005.968601286162
 10
872.576196477614
 20
2005.794141820867
 10
872.6669096540719
 20
2005.615912231382
 10
872.7504229870483
 20
2005.43419764703
 10
872.8266028730255
 20
2005.249288772381
 10
872.8953274404371
 20
2005.061481422192
 10
872.9564867446354
 20
2004.871076048158
 10
873.0099829437806
 20
2004.67837725826
 10
873.0557304553659
 20
2004.483693329456
 10
873.0936560931315
 20
2004.287335714499
 10
873.1236991841479
 20
2004.089618543689
 10
873.1458116658775
 20
2003.89085812232
 10
873.1599581630673
 20
2003.691372424666
 10
873.1661160443394
 20
2003.49148058529
 10
873.1664074431893
 20
2003.437499999998
1001
REVIT
1002
{
1070
     3
1000
939838
1002
}
  0
LINE
  5
8D
330
87
100
AcDbEntity
  8
M-PIPE
100
AcDbLine
 10
758.1664074431877
 20
1955.437499999997
 30
0.0
 11
758.1664074431877
 21
1986.437499999997
 31
0.0
1001
REVIT
1002
{
1070
     3
1000
939838
1002
}
  0
LINE
  5
8E
330
87
100
AcDbEntity
  8
M-PIPE
100
AcDbLine
 10
758.1664074431877
 20
1986.437499999997
 30
0.0
 11
758.1664074431877
 21
2003.437499999997
 31
0.0
1001
REVIT
1002
{
1070
     3
1000
939838
1002
}
  0
LINE
  5
8F
330
87
100
AcDbEntity
  8
M-PIPE
100
AcDbLine
 10
758.1664074431877
 20
1938.437499999997
 30
0.0
 11
758.1664074431877
 21
1955.437499999997
 31
0.0
1001
REVIT
1002
{
1070
     3
1000
939838
1002
}
  0
LINE
  5
90
330
87
100
AcDbEntity
  8
M-PIPE
100
AcDbLine
 10
873.1664074431876
 20
1986.437499999997
 30
0.0
 11
873.1664074431876
 21
1955.437499999997
 31
0.0
1001
REVIT
1002
{
1070
     3
1000
939838
1002
}
  0
LINE
  5
91
330
87
100
AcDbEntity
  8
M-PIPE
100
AcDbLine
 10
873.1664074431876
 20
1955.437499999997
 30
0.0
 11
873.1664074431876
 21
1938.437499999997
 31
0.0
1001
REVIT
1002
{
1070
     3
1000
939838
1002
}
  0
LINE
  5
92
330
87
100
AcDbEntity
  8
M-PIPE
100
AcDbLine
 10
873.1664074431876
 20
2003.437499999997
 30
0.0
 11
873.1664074431876
 21
1986.437499999997
 31
0.0
1001
REVIT
1002
{
1070
     3
1000
939838
1002
}
  0
LINE
  5
93
330
87
100
AcDbEntity
  8
M-PIPE
100
AcDbLine
 10
868.1664074431878
 20
1933.437499999998
 30
0.0
 11
763.1664074431877
 21
1933.437499999998
 31
0.0
1001
REVIT
1002
{
1070
     3
1000
939838
1002
}
  0
SPLINE
  5
94
330
87
100
AcDbEntity
  8
M-PIPE
100
AcDbSpline
210
0.0
220
0.0
230
1.0
 70
     8
 71
     3
 72
     9
 73
     5
 74
     0
 42
0.000000001
 43
0.0000000001
 40
0.0
 40
0.0
 40
0.0
 40
0.0
 40
0.5
 40
1.0
 40
1.0
 40
1.0
 40
1.0
 10
776.3364074431879
 20
2008.437499999997
 30
0.0
 10
776.5057453760271
 20
2008.437499999997
 30
0.0
 10
777.8719666725018
 20
2007.636027306417
 30
0.0
 10
781.2932788305681
 20
2005.897635319248
 30
0.0
 10
783.5177076249992
 20
2004.937499999997
 30
0.0
1001
REVIT
1002
{
1070
     3
1000
939838
1002
}
  0
SPLINE
  5
95
330
87
100
AcDbEntity
  8
M-PIPE
100
AcDbSpline
210
0.0
220
0.0
230
1.0
 70
     8
 71
     3
 72
     9
 73
     5
 74
     0
 42
0.000000001
 43
0.0000000001
 40
0.0
 40
0.0
 40
0.0
 40
0.0
 40
0.1428571428571428
 40
0.2263230841142437
 40
0.2263230841142437
 40
0.2263230841142437
 40
0.2263230841142437
 10
786.8990839667156
 20
2004.937499999997
 30
0.0
 10
788.8989994889799
 20
2003.877341842798
 30
0.0
 10
792.4360851500798
 20
2002.076811362202
 30
0.0
 10
796.682123248861
 20
2000.484831485618
 30
0.0
 10
798.3146858101356
 20
1999.951987243227
 30
0.0
1001
REVIT
1002
{
1070
     3
1000
939838
1002
}
  0
SPLINE
  5
96
330
87
100
AcDbEntity
  8
M-PIPE
100
AcDbSpline
210
0.0
220
0.0
230
1.0
 70
     8
 71
     3
 72
    11
 73
     7
 74
     0
 42
0.000000001
 43
0.0000000001
 40
0.7736708865340215
 40
0.7736708865340215
 40
0.7736708865340215
 40
0.7736708865340215
 40
0.7857142857142857
 40
0.8392857142857142
 40
0.8928571428571427
 40
1.0
 40
1.0
 40
1.0
 40
1.0
 10
833.0065182555047
 20
1999.949971395496
 30
0.0
 10
833.2425338099952
 20
2000.026849373575
 30
0.0
 10
834.5219036215173
 20
2000.45203545762
 30
0.0
 10
836.7736877667791
 20
2001.282590842865
 30
0.0
 10
840.4645996699709
 20
2002.878131974266
 30
0.0
 10
842.9307359035506
 20
2004.141547846367
 30
0.0
 10
844.4337309196603
 20
2004.937499999997
 30
0.0
1001
REVIT
1002
{
1070
     3
1000
939838
1002
}
  0
SPLINE
  5
97
330
87
100
AcDbEntity
  8
M-PIPE
100
AcDbSpline
210
0.0
220
0.0
230
1.0
 70
     8
 71
     3
 72
     9
 73
     5
 74
     0
 42
0.000000001
 43
0.0000000001
 40
0.0
 40
0.0
 40
0.0
 40
0.0
 40
0.5
 40
1.0
 40
1.0
 40
1.0
 40
1.0
 10
847.8151072613764
 20
2004.937499999997
 30
0.0
 10
850.0395360558076
 20
2005.897635319248
 30
0.0
 10
853.460848213874
 20
2007.636027306417
 30
0.0
 10
854.8270695103484
 20
2008.437499999997
 30
0.0
 10
854.9964074431878
 20
2008.437499999998
 30
0.0
1001
REVIT
1002
{
1070
     3
1000
939838
1002
}
  0
LINE
  5
98
330
87
100
AcDbEntity
  8
M-PIPE
100
AcDbLine
 10
854.9964074431878
 20
2008.437499999997
 30
0.0
 11
868.1664074431878
 21
2008.437499999997
 31
0.0
1001
REVIT
1002
{
1070
     3
1000
939838
1002
}
  0
LINE
  5
99
330
87
100
AcDbEntity
  8
M-PIPE
100
AcDbLine
 10
763.1664074431877
 20
2008.437499999997
 30
0.0
 11
776.3364074431879
 21
2008.437499999997
 31
0.0
1001
REVIT
1002
{
1070
     3
1000
939838
1002
}
  0
LINE
  5
9A
330
87
100
AcDbEntity
  8
M-PIPE
100
AcDbLine
 10
779.8364074431877
 20
2004.937499999997
 30
0.0
 11
782.8364074431874
 21
2004.937499999997
 31
0.0
1001
REVIT
1002
{
1070
     3
1000
939838
1002
}
  0
LINE
  5
9B
330
87
100
AcDbEntity
  8
M-PIPE
100
AcDbLine
 10
782.8364074431878
 20
2004.937499999997
 30
0.0
 11
786.8990839667154
 21
2004.937499999997
 31
0.0
1001
REVIT
1002
{
1070
     3
1000
939838
1002
}
  0
LINE
  5
9C
330
87
100
AcDbEntity
  8
M-PIPE
100
AcDbLine
 10
848.4964074431879
 20
2004.937499999997
 30
0.0
 11
851.4964074431878
 21
2004.937499999997
 31
0.0
1001
REVIT
1002
{
1070
     3
1000
939838
1002
}
  0
LINE
  5
9D
330
87
100
AcDbEntity
  8
M-PIPE
100
AcDbLine
 10
776.3364074431879
 20
2008.437499999997
 30
0.0
 11
779.8364074431877
 21
2004.937499999997
 31
0.0
1001
REVIT
1002
{
1070
     3
1000
939838
1002
}
  0
LINE
  5
9E
330
87
100
AcDbEntity
  8
M-PIPE
100
AcDbLine
 10
851.4964074431878
 20
2004.937499999997
 30
0.0
 11
854.9964074431878
 21
2008.437499999997
 31
0.0
1001
REVIT
1002
{
1070
     3
1000
939838
1002
}
  0
ARC
  5
9F
330
87
100
AcDbEntity
  8
M-PIPE
100
AcDbCircle
 10
813.5935058828536
 20
2022.331453678646
 30
0.0
 40
35.33480902739174
100
AcDbArc
 50
209.4893089680678
 51
245.8668605149201
1001
REVIT
1002
{
1070
     3
1000
939838
1002
}
  0
ARC
  5
A0
330
87
100
AcDbEntity
  8
M-PIPE
100
AcDbCircle
 10
817.739309003522
 20
2022.331453678646
 30
0.0
 40
35.33480902739191
100
AcDbArc
 50
294.1331394850794
 51
330.510691031931
1001
REVIT
1002
{
1070
     3
1000
939838
1002
}
  0
ARC
  5
A1
330
87
100
AcDbEntity
  8
M-PIPE
100
AcDbCircle
 10
763.1664074431877
 20
1938.437499999997
 30
0.0
 40
5.0
100
AcDbArc
 50
180.0
 51
269.9999999999997
1001
REVIT
1002
{
1070
     3
1000
939838
1002
}
  0
ARC
  5
A2
330
87
100
AcDbEntity
  8
M-PIPE
100
AcDbCircle
 10
763.1664074431877
 20
2003.437499999997
 30
0.0
 40
5.0
100
AcDbArc
 50
90.0
 51
180.0
1001
REVIT
1002
{
1070
     3
1000
939838
1002
}
  0
ARC
  5
A3
330
87
100
AcDbEntity
  8
M-PIPE
100
AcDbCircle
 10
868.1664074431878
 20
1938.437499999997
 30
0.0
 40
5.000000000000113
100
AcDbArc
 50
270.0000000000009
 51
0.0
1001
REVIT
1002
{
1070
     3
1000
939838
1002
}
  0
ARC
  5
A4
330
87
100
AcDbEntity
  8
M-PIPE
100
AcDbCircle
 10
868.1664074431878
 20
2003.437499999997
 30
0.0
 40
5.000000000000113
100
AcDbArc
 50
0.0
 51
90.0
1001
REVIT
1002
{
1070
     3
1000
939838
1002
}
  0
LINE
  5
A5
330
87
100
AcDbEntity
  8
M-PIPE
100
AcDbLine
 10
758.1664074431877
 20
1955.437499999997
 30
0.0
 11
783.1664074431877
 21
1955.437499999997
 31
0.0
1001
REVIT
1002
{
1070
     3
1000
939838
1002
}
  0
LINE
  5
A6
330
87
100
AcDbEntity
  8
M-PIPE
100
AcDbLine
 10
788.8767563551295
 20
1955.437499999997
 30
0.0
 11
842.4560585312459
 21
1955.437499999997
 31
0.0
1001
REVIT
1002
{
1070
     3
1000
939838
1002
}
  0
LINE
  5
A7
330
87
100
AcDbEntity
  8
M-PIPE
100
AcDbLine
 10
848.1664074431877
 20
1955.437499999997
 30
0.0
 11
873.1664074431876
 21
1955.437499999997
 31
0.0
1001
REVIT
1002
{
1070
     3
1000
939838
1002
}
  0
LINE
  5
A8
330
87
100
AcDbEntity
  8
M-PIPE
100
AcDbLine
 10
873.1664074431876
 20
1986.437499999997
 30
0.0
 11
848.1664074431877
 21
1986.437499999997
 31
0.0
1001
REVIT
1002
{
1070
     3
1000
939838
1002
}
  0
LINE
  5
A9
330
87
100
AcDbEntity
  8
M-PIPE
100
AcDbLine
 10
842.4560585312459
 20
1986.437499999997
 30
0.0
 11
832.1768827856658
 21
1986.437499999997
 31
0.0
1001
REVIT
1002
{
1070
     3
1000
939838
1002
}
  0
LINE
  5
AA
330
87
100
AcDbEntity
  8
M-PIPE
100
AcDbLine
 10
799.1559321007103
 20
1986.437499999997
 30
0.0
 11
788.8767563551298
 21
1986.437499999997
 31
0.0
1001
REVIT
1002
{
1070
     3
1000
939838
1002
}
  0
LINE
  5
AB
330
87
100
AcDbEntity
  8
M-PIPE
100
AcDbLine
 10
783.1664074431879
 20
1986.437499999997
 30
0.0
 11
758.1664074431877
 21
1986.437499999997
 31
0.0
1001
REVIT
1002
{
1070
     3
1000
939838
1002
}
  0
LINE
  5
AC
330
87
100
AcDbEntity
  8
M-PIPE
100
AcDbLine
 10
840.8356975674111
 20
2043.937499999994
 30
0.0
 11
840.8356975674111
 21
2073.937499999995
 31
0.0
1001
REVIT
1002
{
1070
     3
1000
938184
1002
}
  0
LINE
  5
AD
330
87
100
AcDbEntity
  8
M-PIPE
100
AcDbLine
 10
790.8876659205168
 20
2073.937499999995
 30
0.0
 11
790.8876659205168
 21
2043.937499999994
 31
0.0
1001
REVIT
1002
{
1070
     3
1000
938184
1002
}
  0
LINE
  5
AE
330
87
100
AcDbEntity
  8
M-PIPE
100
AcDbLine
 10
800.9116117615345
 20
2077.437499999994
 30
0.0
 11
794.4956828382171
 21
2077.437499999994
 31
0.0
1001
REVIT
1002
{
1070
     3
1000
938184
1002
}
  0
LWPOLYLINE
  5
AF
330
87
100
AcDbEntity
  8
M-PIPE
100
AcDbPolyline
 90
       41
 70
   128
 43
0.0
 10
790.8876659205168
 20
2073.937499999995
 10
790.8904655472032
 20
2074.077462669647
 10
790.8988599484575
 20
2074.217201428887
 10
790.912835695028
 20
2074.356492725506
 10
790.932370428702
 20
2074.495113723144
 10
790.9574328980724
 20
2074.632842657777
 10
790.9879830085345
 20
2074.76945919249
 10
791.023971886429
 20
2074.904744769969
 10
791.0653419572281
 20
2075.038482962151
 10
791.1120270376438
 20
2075.170459816457
 10
791.1639524415067
 20
2075.300464198075
 10
791.2210350992467
 20
2075.428288127726
 10
791.2831836907892
 20
2075.553727114389
 10
791.3502987916449
 20
2075.676580482447
 10
791.4222730319696
 20
2075.796651692717
 10
791.4989912683327
 20
2075.913748656877
 10
791.5803307679217
 20
2076.027684044763
 10
791.6661614048884
 20
2076.138275584059
 10
791.7563458685235
 20
2076.245346351894
 10
791.8507398829234
 20
2076.348725057882
 10
791.9491924378016
 20
2076.448246318143
 10
792.0515460300721
 20
2076.543750919892
 10
792.1576369158216
 20
2076.635086076141
 10
792.2672953722646
 20
2076.722105670122
 10
792.3803459692631
 20
2076.804670489048
 10
792.4966078499782
 20
2076.882648446822
 10
792.6158950202019
 20
2076.955914795346
 10
792.7380166459087
 20
2077.024352324091
 10
792.8627773585482
 20
2077.087851547612
 10
792.9899775675948
 20
2077.146310880696
 10
793.1194137798481
 20
2077.19963680088
 10
793.250878924981
 20
2077.247743998068
 10
793.3841626868049
 20
2077.290555511007
 10
793.5190518397335
 20
2077.328002850408
 10
793.6553305898967
 20
2077.360026108518
 10
793.7927809203658
 20
2077.386574054954
 10
793.9311829399332
 20
2077.407604218665
 10
794.0703152348916
 20
2077.423082955876
 10
794.2099552232491
 20
2077.432985503909
 10
794.3498795108127
 20
2077.4372960208
 10
794.3876659205167
 20
2077.437499999994
1001
REVIT
1002
{
1070
     3
1000
938184
1002
}
  0
LWPOLYLINE
  5
B0
330
87
100
AcDbEntity
  8
M-PIPE
100
AcDbPolyline
 90
       41
 70
   128
 43
0.0
 10
837.3904056723102
 20
2077.436405691985
 10
837.4756602370645
 20
2077.434700373308
 10
837.6153989963034
 20
2077.426305972053
 10
837.7546902929225
 20
2077.412330225483
 10
837.893311290561
 20
2077.392795491809
 10
838.0310402251939
 20
2077.367733022439
 10
838.1676567599061
 20
2077.337182911977
 10
838.3029423373855
 20
2077.301194034082
 10
838.4366805295677
 20
2077.259823963283
 10
838.5686573838741
 20
2077.213138882867
 10
838.6986617654914
 20
2077.161213479004
 10
838.8264856951421
 20
2077.104130821265
 10
838.9519246818064
 20
2077.041982229722
 10
839.0747780498644
 20
2076.974867128866
 10
839.1948492601343
 20
2076.902892888542
 10
839.3119462242939
 20
2076.826174652179
 10
839.4258816121798
 20
2076.74483515259
 10
839.5364731514757
 20
2076.659004515623
 10
839.6435439193114
 20
2076.568820051988
 10
839.7469226252981
 20
2076.474426037588
 10
839.8464438855596
 20
2076.37597348271
 10
839.9419484873092
 20
2076.273619890439
 10
840.0332836435577
 20
2076.167529004689
 10
840.1203032375386
 20
2076.057870548247
 10
840.2028680564647
 20
2075.944819951248
 10
840.280846014239
 20
2075.828558070533
 10
840.3541123627631
 20
2075.709270900309
 10
840.4225498915085
 20
2075.587149274602
 10
840.4860491150291
 20
2075.462388561963
 10
840.5445084481124
 20
2075.335188352916
 10
840.5978343682965
 20
2075.205752140663
 10
840.6459415654847
 20
2075.07428699553
 10
840.6887530784235
 20
2074.941003233707
 10
840.7262004178251
 20
2074.806114080778
 10
840.7582236759349
 20
2074.669835330614
 10
840.7847716223709
 20
2074.532385000146
 10
840.805801786082
 20
2074.393982980578
 10
840.8212805232931
 20
2074.254850685619
 10
840.8311830713259
 20
2074.115210697262
 10
840.8354935882162
 20
2073.975286409698
 10
840.8356975674111
 20
2073.937499999995
1001
REVIT
1002
{
1070
     3
1000
938184
1002
}
  0
LINE
  5
B1
330
87
100
AcDbEntity
  8
M-PIPE
100
AcDbLine
 10
837.2276806497108
 20
2077.437499999994
 30
0.0
 11
830.8117517263518
 21
2077.437499999994
 31
0.0
1001
REVIT
1002
{
1070
     3
1000
938184
1002
}
  0
LINE
  5
B2
330
87
100
AcDbEntity
  8
M-PIPE
100
AcDbLine
 10
840.8356691306257
 20
2043.937499999993
 30
0.0
 11
840.4336453317002
 21
2043.937499999993
 31
0.0
1001
REVIT
1002
{
1070
     3
1000
938184
1002
}
  0
LINE
  5
B3
330
87
100
AcDbEntity
  8
M-PIPE
100
AcDbLine
 10
840.4336453317002
 20
2043.937499999993
 30
0.0
 11
839.0870912859938
 21
2043.937499999993
 31
0.0
1001
REVIT
1002
{
1070
     3
1000
938184
1002
}
  0
LINE
  5
B4
330
87
100
AcDbEntity
  8
M-PIPE
100
AcDbLine
 10
792.6362722019303
 20
2043.937499999993
 30
0.0
 11
791.289718156225
 21
2043.937499999993
 31
0.0
1001
REVIT
1002
{
1070
     3
1000
938184
1002
}
  0
LINE
  5
B5
330
87
100
AcDbEntity
  8
M-PIPE
100
AcDbLine
 10
791.289718156225
 20
2043.937499999993
 30
0.0
 11
790.8876943572995
 21
2043.937499999993
 31
0.0
1001
REVIT
1002
{
1070
     3
1000
938184
1002
}
  0
LINE
  5
B6
330
87
100
AcDbEntity
  8
M-PIPE
100
AcDbLine
 10
840.4336453317002
 20
2073.937499999994
 30
0.0
 11
840.4336453317002
 21
2043.937499999993
 31
0.0
1001
REVIT
1002
{
1070
     3
1000
938184
1002
}
  0
LINE
  5
B7
330
87
100
AcDbEntity
  8
M-PIPE
100
AcDbLine
 10
798.1436816322371
 20
2073.937499999994
 30
0.0
 11
798.1436816322371
 21
2048.305307718065
 31
0.0
1001
REVIT
1002
{
1070
     3
1000
938184
1002
}
  0
LINE
  5
B8
330
87
100
AcDbEntity
  8
M-PIPE
100
AcDbLine
 10
792.6362722019303
 20
2043.937499999993
 30
0.0
 11
792.6362722019303
 21
2048.305307718065
 31
0.0
1001
REVIT
1002
{
1070
     3
1000
938184
1002
}
  0
LINE
  5
B9
330
87
100
AcDbEntity
  8
M-PIPE
100
AcDbLine
 10
791.289718156225
 20
2043.937499999993
 30
0.0
 11
791.289718156225
 21
2073.937499999994
 31
0.0
1001
REVIT
1002
{
1070
     3
1000
938184
1002
}
  0
LINE
  5
BA
330
87
100
AcDbEntity
  8
M-PIPE
100
AcDbLine
 10
833.5796818556541
 20
2048.305307718065
 30
0.0
 11
833.5796818556541
 21
2073.937499999994
 31
0.0
1001
REVIT
1002
{
1070
     3
1000
938184
1002
}
  0
LINE
  5
BB
330
87
100
AcDbEntity
  8
M-PIPE
100
AcDbLine
 10
839.0870912859938
 20
2048.305307718065
 30
0.0
 11
839.0870912859936
 21
2043.937499999993
 31
0.0
1001
REVIT
1002
{
1070
     3
1000
938184
1002
}
  0
LINE
  5
BC
330
87
100
AcDbEntity
  8
M-PIPE
100
AcDbLine
 10
839.0870912859938
 20
2043.937499999993
 30
0.0
 11
792.6362722019303
 21
2043.937499999993
 31
0.0
1001
REVIT
1002
{
1070
     3
1000
938184
1002
}
  0
LINE
  5
BD
330
87
100
AcDbEntity
  8
M-PIPE
100
AcDbLine
 10
839.0870912859938
 20
2048.305307718065
 30
0.0
 11
792.6362722019303
 21
2048.305307718065
 31
0.0
1001
REVIT
1002
{
1070
     3
1000
938184
1002
}
  0
SPLINE
  5
BE
330
87
100
AcDbEntity
  8
M-PIPE
100
AcDbSpline
210
0.0
220
0.0
230
1.0
 70
     8
 71
     3
 72
    15
 73
    11
 74
     0
 42
0.000000001
 43
0.0000000001
 40
0.0
 40
0.0
 40
0.0
 40
0.0
 40
0.1428571428571428
 40
0.2857142857142857
 40
0.4285714285714286
 40
0.5714285714285714
 40
0.6785714285714287
 40
0.7321428571428572
 40
0.7857142857142857
 40
1.0
 40
1.0
 40
1.0
 40
1.0
 10
794.4956828382158
 20
2077.437499999993
 30
0.0
 10
794.2642847383645
 20
2077.437499999993
 30
0.0
 10
793.8054867079269
 20
2077.385939470437
 30
0.0
 10
793.1407996171714
 20
2077.150042987134
 30
0.0
 10
792.5335591125985
 20
2076.757519368936
 30
0.0
 10
792.0555052935242
 20
2076.261092253167
 30
0.0
 10
791.7576993642425
 20
2075.795413788785
 30
0.0
 10
791.5880131645592
 20
2075.436597537096
 30
0.0
 10
791.3735916838141
 20
2074.870451062873
 30
0.0
 10
791.2905199737521
 20
2074.354135343971
 30
0.0
 10
791.289718156225
 20
2073.937499999993
 30
0.0
1001
REVIT
1002
{
1070
     3
1000
938184
1002
}
  0
SPLINE
  5
BF
330
87
100
AcDbEntity
  8
M-PIPE
100
AcDbSpline
210
0.0
220
0.0
230
1.0
 70
     8
 71
     3
 72
     8
 73
     4
 74
     0
 42
0.000000001
 43
0.0000000001
 40
0.0
 40
0.0
 40
0.0
 40
0.0
 40
0.0071879823410949
 40
0.0071879823410949
 40
0.0071879823410949
 40
0.0071879823410949
 10
800.9420353419631
 20
2077.437499999993
 30
0.0
 10
800.9317619784111
 20
2077.437499999993
 30
0.0
 10
800.9214933479285
 20
2077.437430725064
 30
0.0
 10
800.9112297399095
 20
2077.437292145402
 30
0.0
1001
REVIT
1002
{
1070
     3
1000
938184
1002
}
  0
SPLINE
  5
C0
330
87
100
AcDbEntity
  8
M-PIPE
100
AcDbSpline
210
0.0
220
0.0
230
1.0
 70
     8
 71
     3
 72
     8
 73
     4
 74
     0
 42
0.000000001
 43
0.0000000001
 40
-1.0
 40
-1.0
 40
-1.0
 40
-1.0
 40
-0.9930545138674593
 40
-0.9930545138674593
 40
-0.9930545138674593
 40
-0.9930545138674593
 10
830.7813281459205
 20
2077.437499999993
 30
0.0
 10
830.7917598664952
 20
2077.437499999993
 30
0.0
 10
830.8021826632222
 20
2077.437430753215
 30
0.0
 10
830.8125960644117
 20
2077.437292335899
 30
0.0
1001
REVIT
1002
{
1070
     3
1000
938184
1002
}
  0
SPLINE
  5
C1
330
87
100
AcDbEntity
  8
M-PIPE
100
AcDbSpline
210
0.0
220
0.0
230
1.0
 70
     8
 71
     3
 72
    14
 73
    10
 74
     0
 42
0.000000001
 43
0.0000000001
 40
-1.0
 40
-1.0
 40
-1.0
 40
-1.0
 40
-0.8333333333333332
 40
-0.6666666666666666
 40
-0.5
 40
-0.3333333333333333
 40
-0.25
 40
-0.1666666666666666
 40
0.0
 40
0.0
 40
0.0
 40
0.0
 10
837.2276806497094
 20
2077.437499999993
 30
0.0
 10
837.5237232005167
 20
2077.437499999993
 30
0.0
 10
838.0977228184573
 20
2077.357080604086
 30
0.0
 10
838.8670606864392
 20
2077.003410237739
 30
0.0
 10
839.5343395686886
 20
2076.440811924391
 30
0.0
 10
839.9619389575111
 20
2075.829789045378
 30
0.0
 10
840.2000150657496
 20
2075.280717333422
 30
0.0
 10
840.3749019590092
 20
2074.701043060263
 30
0.0
 10
840.4305619533893
 20
2074.242932619092
 30
0.0
 10
840.4336453317002
 20
2073.937499999993
 30
0.0
1001
REVIT
1002
{
1070
     3
1000
938184
1002
}
  0
SPLINE
  5
C2
330
87
100
AcDbEntity
  8
M-PIPE
100
AcDbSpline
210
0.0
220
0.0
230
1.0
 70
     8
 71
     3
 72
    10
 73
     6
 74
     0
 42
0.000000001
 43
0.0000000001
 40
0.0
 40
0.0
 40
0.0
 40
0.0
 40
0.1666666666666666
 40
0.25
 40
0.3333333333333333
 40
0.3333333333333333
 40
0.3333333333333333
 40
0.3333333333333333
 10
798.1436816322161
 20
2073.937499999993
 30
0.0
 10
798.1417291525746
 20
2074.235701056552
 30
0.0
 10
798.1836072390302
 20
2074.68571865107
 30
0.0
 10
798.330046265019
 20
2075.261489556972
 30
0.0
 10
798.4316528701025
 20
2075.535732507597
 30
0.0
 10
798.4906296967639
 20
2075.66867835127
 30
0.0
1001
REVIT
1002
{
1070
     3
1000
938184
1002
}
  0
SPLINE
  5
C3
330
87
100
AcDbEntity
  8
M-PIPE
100
AcDbSpline
210
0.0
220
0.0
230
1.0
 70
     8
 71
     3
 72
    11
 73
     7
 74
     0
 42
0.000000001
 43
0.0000000001
 40
0.3339187419626506
 40
0.3339187419626506
 40
0.3339187419626506
 40
0.3339187419626506
 40
0.5
 40
0.6666666666666666
 40
0.8333333333333332
 40
1.0
 40
1.0
 40
1.0
 40
1.0
 10
798.4918738259808
 20
2075.671479527723
 30
0.0
 10
798.6096419219145
 20
2075.936320207958
 30
0.0
 10
798.9105707937775
 20
2076.433618366838
 30
0.0
 10
799.5008712395523
 20
2077.005203877356
 30
0.0
 10
800.1685935740146
 20
2077.357769609808
 30
0.0
 10
800.660485588456
 20
2077.437499999993
 30
0.0
 10
800.9116117615333
 20
2077.437499999993
 30
0.0
1001
REVIT
1002
{
1070
     3
1000
938184
1002
}
  0
SPLINE
  5
C4
330
87
100
AcDbEntity
  8
M-PIPE
100
AcDbSpline
210
0.0
220
0.0
230
1.0
 70
     8
 71
     3
 72
    13
 73
     9
 74
     0
 42
0.000000001
 43
0.0000000001
 40
0.0
 40
0.0
 40
0.0
 40
0.0
 40
0.1428571428571428
 40
0.2857142857142857
 40
0.4285714285714286
 40
0.5714285714285714
 40
0.7857142857142857
 40
1.0
 40
1.0
 40
1.0
 40
1.0
 10
830.8117517263506
 20
2077.437499999993
 30
0.0
 10
831.0164801109662
 20
2077.437499999993
 30
0.0
 10
831.4221828995014
 20
2077.382831416092
 30
0.0
 10
832.0058905446463
 20
2077.13536301695
 30
0.0
 10
832.5326505551297
 20
2076.729295150165
 30
0.0
 10
833.0525556762212
 20
2076.087070184291
 30
0.0
 10
833.4697867932751
 20
2075.148915557546
 30
0.0
 10
833.5793093264962
 20
2074.342228942342
 30
0.0
 10
833.5796818556669
 20
2073.937499999994
 30
0.0
1001
REVIT
1002
{
1070
     3
1000
938184
1002
}
  0
LINE
  5
C5
330
87
100
AcDbEntity
  8
M-PIPE
100
AcDbLine
 10
797.6664074432058
 20
1999.571474596222
 30
0.0
 11
797.6664074432058
 21
1991.803525403771
 31
0.0
1001
REVIT
1002
{
1070
     3
1000
790271
1002
}
  0
LINE
  5
C6
330
87
100
AcDbEntity
  8
M-PIPE
100
AcDbLine
 10
833.6664074432061
 20
1991.803525403771
 30
0.0
 11
833.6664074432061
 21
1999.571474596222
 31
0.0
1001
REVIT
1002
{
1070
     3
1000
790271
1002
}
  0
LINE
  5
C7
330
87
100
AcDbEntity
  8
M-PIPE
100
AcDbLine
 10
799.1664074431724
 20
2000.437499999997
 30
0.0
 11
797.7464675492513
 21
1999.617697320008
 31
0.0
1001
REVIT
1002
{
1070
     3
1000
790271
1002
}
  0
LINE
  5
C8
330
87
100
AcDbEntity
  8
M-PIPE
100
AcDbLine
 10
797.730783543241
 20
1999.608642154916
 30
0.0
 11
797.6664074432029
 21
1999.57147459623
 31
0.0
1001
REVIT
1002
{
1070
     3
1000
790271
1002
}
  0
LINE
  5
C9
330
87
100
AcDbEntity
  8
M-PIPE
100
AcDbLine
 10
833.6664074432018
 20
1999.571474596214
 30
0.0
 11
833.6020313431705
 21
1999.608642154896
 31
0.0
1001
REVIT
1002
{
1070
     3
1000
790271
1002
}
  0
LINE
  5
CA
330
87
100
AcDbEntity
  8
M-PIPE
100
AcDbLine
 10
833.5863473371604
 20
1999.617697319989
 30
0.0
 11
832.166407443206
 21
2000.437499999996
 31
0.0
1001
REVIT
1002
{
1070
     3
1000
790271
1002
}
  0
LINE
  5
CB
330
87
100
AcDbEntity
  8
M-PIPE
100
AcDbLine
 10
797.666407443202
 20
1991.803525403764
 30
0.0
 11
797.730783543241
 21
1991.766357845077
 31
0.0
1001
REVIT
1002
{
1070
     3
1000
790271
1002
}
  0
LINE
  5
CC
330
87
100
AcDbEntity
  8
M-PIPE
100
AcDbLine
 10
797.7464675492513
 20
1991.757302679985
 30
0.0
 11
799.1664074431723
 21
1990.937499999997
 31
0.0
1001
REVIT
1002
{
1070
     3
1000
790271
1002
}
  0
LINE
  5
CD
330
87
100
AcDbEntity
  8
M-PIPE
100
AcDbLine
 10
832.166407443206
 20
1990.937499999996
 30
0.0
 11
833.5863473371604
 21
1991.757302680004
 31
0.0
1001
REVIT
1002
{
1070
     3
1000
790271
1002
}
  0
LINE
  5
CE
330
87
100
AcDbEntity
  8
M-PIPE
100
AcDbLine
 10
833.6020313431708
 20
1991.766357845096
 30
0.0
 11
833.6664074431999
 21
1991.803525403777
 31
0.0
1001
REVIT
1002
{
1070
     3
1000
790271
1002
}
  0
LINE
  5
CF
330
87
100
AcDbEntity
  8
M-PIPE
100
AcDbLine
 10
797.9859356873194
 20
1999.571474596232
 30
0.0
 11
797.9859356873194
 21
1991.803525403759
 31
0.0
1001
REVIT
1002
{
1070
     3
1000
790271
1002
}
  0
SPLINE
  5
D0
330
87
100
AcDbEntity
  8
M-PIPE
100
AcDbSpline
210
0.0
220
0.0
230
1.0
 70
     8
 71
     3
 72
     9
 73
     5
 74
     0
 42
0.000000001
 43
0.0000000001
 40
0.0
 40
0.0
 40
0.0
 40
0.0
 40
0.5
 40
1.0
 40
1.0
 40
1.0
 40
1.0
 10
797.9859356873194
 20
1991.803525403759
 30
0.0
 10
798.9861526545851
 20
1991.418645779048
 30
0.0
 10
800.9723829190342
 20
1991.033766154336
 30
0.0
 10
802.9302058433181
 20
1991.418645779047
 30
0.0
 10
803.9020154704187
 20
1991.803525403758
 30
0.0
1001
REVIT
1002
{
1070
     3
1000
790271
1002
}
  0
SPLINE
  5
D1
330
87
100
AcDbEntity
  8
M-PIPE
100
AcDbSpline
210
0.0
220
0.0
230
1.0
 70
     8
 71
     3
 72
     9
 73
     5
 74
     0
 42
0.000000001
 43
0.0000000001
 40
0.0
 40
0.0
 40
0.0
 40
0.0
 40
0.5
 40
1.0
 40
1.0
 40
1.0
 40
1.0
 10
803.9020154704187
 20
1999.571474596233
 30
0.0
 10
802.9302058433181
 20
1999.956354220944
 30
0.0
 10
800.9723829190342
 20
2000.341233845655
 30
0.0
 10
798.9861526545851
 20
1999.956354220943
 30
0.0
 10
797.9859356873194
 20
1999.571474596232
 30
0.0
1001
REVIT
1002
{
1070
     3
1000
790271
1002
}
  0
LINE
  5
D2
330
87
100
AcDbEntity
  8
M-PIPE
100
AcDbLine
 10
832.1664074432048
 20
1990.937499999995
 30
0.0
 11
832.0919968277314
 21
1990.937499999995
 31
0.0
1001
REVIT
1002
{
1070
     3
1000
790271
1002
}
  0
LINE
  5
D3
330
87
100
AcDbEntity
  8
M-PIPE
100
AcDbLine
 10
832.0404872418633
 20
1990.937499999995
 30
0.0
 11
831.8809242654319
 21
1990.937499999995
 31
0.0
1001
REVIT
1002
{
1070
     3
1000
790271
1002
}
  0
LINE
  5
D4
330
87
100
AcDbEntity
  8
M-PIPE
100
AcDbLine
 10
831.7595869327815
 20
1990.937499999995
 30
0.0
 11
831.4694340589271
 21
1990.937499999995
 31
0.0
1001
REVIT
1002
{
1070
     3
1000
790271
1002
}
  0
LINE
  5
D5
330
87
100
AcDbEntity
  8
M-PIPE
100
AcDbLine
 10
831.3397182569604
 20
1990.937499999995
 30
0.0
 11
830.9248929748722
 21
1990.937499999995
 31
0.0
1001
REVIT
1002
{
1070
     3
1000
790271
1002
}
  0
LINE
  5
D6
330
87
100
AcDbEntity
  8
M-PIPE
100
AcDbLine
 10
830.6204859293078
 20
1990.937499999995
 30
0.0
 11
830.2313980172375
 21
1990.937499999995
 31
0.0
1001
REVIT
1002
{
1070
     3
1000
790271
1002
}
  0
LINE
  5
D7
330
87
100
AcDbEntity
  8
M-PIPE
100
AcDbLine
 10
829.9558266056457
 20
1990.937499999995
 30
0.0
 11
829.3958742275103
 21
1990.937499999995
 31
0.0
1001
REVIT
1002
{
1070
     3
1000
790271
1002
}
  0
LINE
  5
D8
330
87
100
AcDbEntity
  8
M-PIPE
100
AcDbLine
 10
829.18241617397
 20
1990.937499999995
 30
0.0
 11
828.4267121712629
 21
1990.937499999995
 31
0.0
1001
REVIT
1002
{
1070
     3
1000
790271
1002
}
  0
LINE
  5
D9
330
87
100
AcDbEntity
  8
M-PIPE
100
AcDbLine
 10
828.3061407546639
 20
1990.937499999995
 30
0.0
 11
826.2724030030264
 21
1990.937499999995
 31
0.0
1001
REVIT
1002
{
1070
     3
1000
790271
1002
}
  0
LINE
  5
DA
330
87
100
AcDbEntity
  8
M-PIPE
100
AcDbLine
 10
826.1380303040175
 20
1990.937499999995
 30
0.0
 11
825.0322773268589
 21
1990.937499999995
 31
0.0
1001
REVIT
1002
{
1070
     3
1000
790271
1002
}
  0
LINE
  5
DB
330
87
100
AcDbEntity
  8
M-PIPE
100
AcDbLine
 10
824.839627291176
 20
1990.937499999995
 30
0.0
 11
823.9164074431963
 21
1990.937499999995
 31
0.0
1001
REVIT
1002
{
1070
     3
1000
790271
1002
}
  0
LINE
  5
DC
330
87
100
AcDbEntity
  8
M-PIPE
100
AcDbLine
 10
823.4512612928647
 20
1990.937499999995
 30
0.0
 11
821.986695285663
 21
1990.937499999995
 31
0.0
1001
REVIT
1002
{
1070
     3
1000
790271
1002
}
  0
LINE
  5
DD
330
87
100
AcDbEntity
  8
M-PIPE
100
AcDbLine
 10
821.3097398080671
 20
1990.937499999995
 30
0.0
 11
820.4604967518712
 21
1990.937499999995
 31
0.0
1001
REVIT
1002
{
1070
     3
1000
790271
1002
}
  0
LINE
  5
DE
330
87
100
AcDbEntity
  8
M-PIPE
100
AcDbLine
 10
819.9369216873838
 20
1990.937499999995
 30
0.0
 11
818.8878753957054
 21
1990.937499999995
 31
0.0
1001
REVIT
1002
{
1070
     3
1000
790271
1002
}
  0
LINE
  5
DF
330
87
100
AcDbEntity
  8
M-PIPE
100
AcDbLine
 10
818.5316023746951
 20
1990.937499999995
 30
0.0
 11
817.2845160339173
 21
1990.937499999995
 31
0.0
1001
REVIT
1002
{
1070
     3
1000
790271
1002
}
  0
LINE
  5
E0
330
87
100
AcDbEntity
  8
M-PIPE
100
AcDbLine
 10
817.1044771985256
 20
1990.937499999995
 30
0.0
 11
814.22833768785
 21
1990.937499999995
 31
0.0
1001
REVIT
1002
{
1070
     3
1000
790271
1002
}
  0
LINE
  5
E1
330
87
100
AcDbEntity
  8
M-PIPE
100
AcDbLine
 10
814.0482988524587
 20
1990.937499999995
 30
0.0
 11
812.8012125116805
 21
1990.937499999995
 31
0.0
1001
REVIT
1002
{
1070
     3
1000
790271
1002
}
  0
LINE
  5
E2
330
87
100
AcDbEntity
  8
M-PIPE
100
AcDbLine
 10
812.4449394906703
 20
1990.937499999995
 30
0.0
 11
811.3958931989918
 21
1990.937499999995
 31
0.0
1001
REVIT
1002
{
1070
     3
1000
790271
1002
}
  0
LINE
  5
E3
330
87
100
AcDbEntity
  8
M-PIPE
100
AcDbLine
 10
810.8723181345048
 20
1990.937499999995
 30
0.0
 11
809.3461196007126
 21
1990.937499999995
 31
0.0
1001
REVIT
1002
{
1070
     3
1000
790271
1002
}
  0
LINE
  5
E4
330
87
100
AcDbEntity
  8
M-PIPE
100
AcDbLine
 10
809.1681725465928
 20
1990.937499999995
 30
0.0
 11
807.8815535935113
 21
1990.937499999995
 31
0.0
1001
REVIT
1002
{
1070
     3
1000
790271
1002
}
  0
LINE
  5
E5
330
87
100
AcDbEntity
  8
M-PIPE
100
AcDbLine
 10
807.4164074431793
 20
1990.937499999995
 30
0.0
 11
806.4931875951996
 21
1990.937499999995
 31
0.0
1001
REVIT
1002
{
1070
     3
1000
790271
1002
}
  0
LINE
  5
E6
330
87
100
AcDbEntity
  8
M-PIPE
100
AcDbLine
 10
806.2023962433858
 20
1990.937499999995
 30
0.0
 11
803.0266741317117
 21
1990.937499999995
 31
0.0
1001
REVIT
1002
{
1070
     3
1000
790271
1002
}
  0
LINE
  5
E7
330
87
100
AcDbEntity
  8
M-PIPE
100
AcDbLine
 10
802.9061027151128
 20
1990.937499999995
 30
0.0
 11
802.1503987124056
 21
1990.937499999995
 31
0.0
1001
REVIT
1002
{
1070
     3
1000
790271
1002
}
  0
LINE
  5
E8
330
87
100
AcDbEntity
  8
M-PIPE
100
AcDbLine
 10
801.9369406588653
 20
1990.937499999995
 30
0.0
 11
801.2370469263071
 21
1990.937499999995
 31
0.0
1001
REVIT
1002
{
1070
     3
1000
790271
1002
}
  0
LINE
  5
E9
330
87
100
AcDbEntity
  8
M-PIPE
100
AcDbLine
 10
801.1014168691382
 20
1990.937499999995
 30
0.0
 11
800.7123289570678
 21
1990.937499999995
 31
0.0
1001
REVIT
1002
{
1070
     3
1000
790271
1002
}
  0
LINE
  5
EA
330
87
100
AcDbEntity
  8
M-PIPE
100
AcDbLine
 10
800.4079219115036
 20
1990.937499999995
 30
0.0
 11
799.9930966294148
 21
1990.937499999995
 31
0.0
1001
REVIT
1002
{
1070
     3
1000
790271
1002
}
  0
LINE
  5
EB
330
87
100
AcDbEntity
  8
M-PIPE
100
AcDbLine
 10
799.8633808274485
 20
1990.937499999995
 30
0.0
 11
799.5732279535949
 21
1990.937499999995
 31
0.0
1001
REVIT
1002
{
1070
     3
1000
790271
1002
}
  0
LINE
  5
EC
330
87
100
AcDbEntity
  8
M-PIPE
100
AcDbLine
 10
799.4518906209433
 20
1990.937499999995
 30
0.0
 11
799.2544672788278
 21
1990.937499999995
 31
0.0
1001
REVIT
1002
{
1070
     3
1000
790271
1002
}
  0
LINE
  5
ED
330
87
100
AcDbEntity
  8
M-PIPE
100
AcDbLine
 10
799.2408180586441
 20
1990.937499999995
 30
0.0
 11
799.1664074431708
 21
1990.937499999995
 31
0.0
1001
REVIT
1002
{
1070
     3
1000
790271
1002
}
  0
LINE
  5
EE
330
87
100
AcDbEntity
  8
M-PIPE
100
AcDbLine
 10
797.6664074432046
 20
1991.80352540377
 30
0.0
 11
797.9859356873194
 21
1991.80352540377
 31
0.0
1001
REVIT
1002
{
1070
     3
1000
790271
1002
}
  0
LINE
  5
EF
330
87
100
AcDbEntity
  8
M-PIPE
100
AcDbLine
 10
797.9859356873194
 20
1999.571474596221
 30
0.0
 11
797.6664074432046
 21
1999.571474596221
 31
0.0
1001
REVIT
1002
{
1070
     3
1000
790271
1002
}
  0
LINE
  5
F0
330
87
100
AcDbEntity
  8
M-PIPE
100
AcDbLine
 10
803.9020154704187
 20
1991.803525403758
 30
0.0
 11
803.9020154704187
 21
1999.571474596233
 31
0.0
1001
REVIT
1002
{
1070
     3
1000
790271
1002
}
  0
LINE
  5
F1
330
87
100
AcDbEntity
  8
M-PIPE
100
AcDbLine
 10
803.9020154704187
 20
1991.80352540377
 30
0.0
 11
809.7503276601049
 21
1991.80352540377
 31
0.0
1001
REVIT
1002
{
1070
     3
1000
790271
1002
}
  0
LINE
  5
F2
330
87
100
AcDbEntity
  8
M-PIPE
100
AcDbLine
 10
809.7503276601049
 20
1999.571474596221
 30
0.0
 11
803.9020154704187
 21
1999.571474596221
 31
0.0
1001
REVIT
1002
{
1070
     3
1000
790271
1002
}
  0
LINE
  5
F3
330
87
100
AcDbEntity
  8
M-PIPE
100
AcDbLine
 10
809.7503276601049
 20
1991.803525403761
 30
0.0
 11
809.7503276601049
 21
1999.571474596231
 31
0.0
1001
REVIT
1002
{
1070
     3
1000
790271
1002
}
  0
SPLINE
  5
F4
330
87
100
AcDbEntity
  8
M-PIPE
100
AcDbSpline
210
0.0
220
0.0
230
1.0
 70
     8
 71
     3
 72
     9
 73
     5
 74
     0
 42
0.000000001
 43
0.0000000001
 40
0.0
 40
0.0
 40
0.0
 40
0.0
 40
0.5
 40
1.0
 40
1.0
 40
1.0
 40
1.0
 10
809.7503276601049
 20
1991.803525403761
 30
0.0
 10
811.7507615946365
 20
1991.41864577905
 30
0.0
 10
815.7232221235345
 20
1991.033766154341
 30
0.0
 10
819.6388679721025
 20
1991.418645779054
 30
0.0
 10
821.5824872263038
 20
1991.803525403767
 30
0.0
1001
REVIT
1002
{
1070
     3
1000
790271
1002
}
  0
SPLINE
  5
F5
330
87
100
AcDbEntity
  8
M-PIPE
100
AcDbSpline
210
0.0
220
0.0
230
1.0
 70
     8
 71
     3
 72
     9
 73
     5
 74
     0
 42
0.000000001
 43
0.0000000001
 40
0.0
 40
0.0
 40
0.0
 40
0.0
 40
0.5
 40
1.0
 40
1.0
 40
1.0
 40
1.0
 10
821.5824872263038
 20
1999.571474596224
 30
0.0
 10
819.6388679721025
 20
1999.956354220937
 30
0.0
 10
815.7232221235345
 20
2000.34123384565
 30
0.0
 10
811.7507615946365
 20
1999.956354220941
 30
0.0
 10
809.7503276601049
 20
1999.571474596231
 30
0.0
1001
REVIT
1002
{
1070
     3
1000
790271
1002
}
  0
LINE
  5
F6
330
87
100
AcDbEntity
  8
M-PIPE
100
AcDbLine
 10
821.5824872263038
 20
1991.803525403767
 30
0.0
 11
821.5824872263038
 21
1999.571474596224
 31
0.0
1001
REVIT
1002
{
1070
     3
1000
790271
1002
}
  0
LINE
  5
F7
330
87
100
AcDbEntity
  8
M-PIPE
100
AcDbLine
 10
821.5824872263036
 20
1991.80352540377
 30
0.0
 11
827.4307994159897
 21
1991.80352540377
 31
0.0
1001
REVIT
1002
{
1070
     3
1000
790271
1002
}
  0
LINE
  5
F8
330
87
100
AcDbEntity
  8
M-PIPE
100
AcDbLine
 10
827.4307994159899
 20
1999.571474596221
 30
0.0
 11
821.5824872263036
 21
1999.571474596221
 31
0.0
1001
REVIT
1002
{
1070
     3
1000
790271
1002
}
  0
LINE
  5
F9
330
87
100
AcDbEntity
  8
M-PIPE
100
AcDbLine
 10
827.4307994159899
 20
1991.803525403771
 30
0.0
 11
827.4307994159899
 21
1999.57147459622
 31
0.0
1001
REVIT
1002
{
1070
     3
1000
790271
1002
}
  0
SPLINE
  5
FA
330
87
100
AcDbEntity
  8
M-PIPE
100
AcDbSpline
210
0.0
220
0.0
230
1.0
 70
     8
 71
     3
 72
     9
 73
     5
 74
     0
 42
0.000000001
 43
0.0000000001
 40
0.0
 40
0.0
 40
0.0
 40
0.0
 40
0.5
 40
1.0
 40
1.0
 40
1.0
 40
1.0
 10
827.4307994159899
 20
1991.803525403771
 30
0.0
 10
828.4310163832559
 20
1991.418645779061
 30
0.0
 10
830.417246647705
 20
1991.033766154353
 30
0.0
 10
832.3750695719891
 20
1991.418645779067
 30
0.0
 10
833.3468791990897
 20
1991.803525403778
 30
0.0
1001
REVIT
1002
{
1070
     3
1000
790271
1002
}
  0
SPLINE
  5
FB
330
87
100
AcDbEntity
  8
M-PIPE
100
AcDbSpline
210
0.0
220
0.0
230
1.0
 70
     8
 71
     3
 72
     9
 73
     5
 74
     0
 42
0.000000001
 43
0.0000000001
 40
0.0
 40
0.0
 40
0.0
 40
0.0
 40
0.5
 40
1.0
 40
1.0
 40
1.0
 40
1.0
 10
833.3468791990897
 20
1999.571474596212
 30
0.0
 10
832.3750695719891
 20
1999.956354220924
 30
0.0
 10
830.417246647705
 20
2000.341233845638
 30
0.0
 10
828.4310163832559
 20
1999.956354220929
 30
0.0
 10
827.4307994159899
 20
1999.57147459622
 30
0.0
1001
REVIT
1002
{
1070
     3
1000
790271
1002
}
  0
LINE
  5
FC
330
87
100
AcDbEntity
  8
M-PIPE
100
AcDbLine
 10
833.3468791990897
 20
1991.803525403778
 30
0.0
 11
833.3468791990897
 21
1999.571474596212
 31
0.0
1001
REVIT
1002
{
1070
     3
1000
790271
1002
}
  0
LINE
  5
FD
330
87
100
AcDbEntity
  8
M-PIPE
100
AcDbLine
 10
833.3468791990897
 20
1991.80352540377
 30
0.0
 11
833.6664074432047
 21
1991.80352540377
 31
0.0
1001
REVIT
1002
{
1070
     3
1000
790271
1002
}
  0
LINE
  5
FE
330
87
100
AcDbEntity
  8
M-PIPE
100
AcDbLine
 10
833.6664074432047
 20
1999.571474596221
 30
0.0
 11
833.3468791990897
 21
1999.571474596221
 31
0.0
1001
REVIT
1002
{
1070
     3
1000
790271
1002
}
  0
LINE
  5
FF
330
87
100
AcDbEntity
  8
P-SANR-FIXT
100
AcDbLine
 10
799.166407443189
 20
1990.937499999998
 30
0.0
 11
799.166407443189
 21
1983.437499999998
 31
0.0
  0
LINE
  5
100
330
87
100
AcDbEntity
  8
P-SANR-FIXT
100
AcDbLine
 10
832.166407443189
 20
1983.437499999998
 30
0.0
 11
832.166407443189
 21
1990.937499999998
 31
0.0
  0
LINE
  5
101
330
87
100
AcDbEntity
  8
P-SANR-FIXT
100
AcDbLine
 10
831.1664074431892
 20
1959.437499999998
 30
0.0
 11
832.666407443189
 21
1957.937499999998
 31
0.0
  0
LINE
  5
102
330
87
100
AcDbEntity
  8
P-SANR-FIXT
100
AcDbLine
 10
832.666407443189
 20
1983.937499999998
 30
0.0
 11
832.1664074431891
 21
1983.437499999998
 31
0.0
  0
LINE
  5
103
330
87
100
AcDbEntity
  8
P-SANR-FIXT
100
AcDbLine
 10
815.6664074431892
 20
1959.437499999998
 30
0.0
 11
831.1664074431892
 21
1959.437499999998
 31
0.0
  0
LINE
  5
104
330
87
100
AcDbEntity
  8
P-SANR-FIXT
100
AcDbLine
 10
800.1664074431891
 20
1959.437499999998
 30
0.0
 11
815.6664074431892
 21
1959.437499999998
 31
0.0
  0
LINE
  5
105
330
87
100
AcDbEntity
  8
P-SANR-FIXT
100
AcDbLine
 10
798.6664074431891
 20
1957.937499999998
 30
0.0
 11
800.1664074431891
 21
1959.437499999998
 31
0.0
  0
LINE
  5
106
330
87
100
AcDbEntity
  8
P-SANR-FIXT
100
AcDbLine
 10
799.166407443189
 20
1983.437499999998
 30
0.0
 11
798.6664074431891
 21
1983.937499999998
 31
0.0
  0
LINE
  5
107
330
87
100
AcDbEntity
  8
P-SANR-FIXT
100
AcDbLine
 10
798.6664074431891
 20
1983.937499999998
 30
0.0
 11
790.3097831161631
 21
1983.937499999998
 31
0.0
  0
LINE
  5
108
330
87
100
AcDbEntity
  8
P-SANR-FIXT
100
AcDbLine
 10
790.3097831161631
 20
1957.937499999998
 30
0.0
 11
798.6664074431891
 21
1957.937499999998
 31
0.0
  0
LINE
  5
109
330
87
100
AcDbEntity
  8
P-SANR-FIXT
100
AcDbLine
 10
790.3097831161631
 20
1983.937499999998
 30
0.0
 11
788.866407443189
 21
1986.437499999998
 31
0.0
  0
LINE
  5
10A
330
87
100
AcDbEntity
  8
P-SANR-FIXT
100
AcDbLine
 10
788.866407443189
 20
1955.437499999998
 30
0.0
 11
790.3097831161631
 21
1957.937499999998
 31
0.0
  0
LINE
  5
10B
330
87
100
AcDbEntity
  8
P-SANR-FIXT
100
AcDbLine
 10
783.166407443189
 20
1955.437499999998
 30
0.0
 11
788.866407443189
 21
1955.437499999998
 31
0.0
  0
LINE
  5
10C
330
87
100
AcDbEntity
  8
P-SANR-FIXT
100
AcDbLine
 10
788.866407443189
 20
1986.437499999998
 30
0.0
 11
783.166407443189
 21
1986.437499999998
 31
0.0
  0
LINE
  5
10D
330
87
100
AcDbEntity
  8
P-SANR-FIXT
100
AcDbLine
 10
848.166407443189
 20
1986.437499999998
 30
0.0
 11
842.4664074431891
 21
1986.437499999998
 31
0.0
  0
LINE
  5
10E
330
87
100
AcDbEntity
  8
P-SANR-FIXT
100
AcDbLine
 10
842.4664074431893
 20
1955.437499999998
 30
0.0
 11
848.1664074431892
 21
1955.437499999998
 31
0.0
  0
LINE
  5
10F
330
87
100
AcDbEntity
  8
P-SANR-FIXT
100
AcDbLine
 10
842.4664074431891
 20
1986.437499999998
 30
0.0
 11
841.0230317702152
 21
1983.937499999998
 31
0.0
  0
LINE
  5
110
330
87
100
AcDbEntity
  8
P-SANR-FIXT
100
AcDbLine
 10
841.0230317702152
 20
1957.937499999998
 30
0.0
 11
842.4664074431893
 21
1955.437499999998
 31
0.0
  0
LINE
  5
111
330
87
100
AcDbEntity
  8
P-SANR-FIXT
100
AcDbLine
 10
841.0230317702152
 20
1983.937499999998
 30
0.0
 11
832.666407443189
 21
1983.937499999998
 31
0.0
  0
LINE
  5
112
330
87
100
AcDbEntity
  8
P-SANR-FIXT
100
AcDbLine
 10
832.666407443189
 20
1957.937499999998
 30
0.0
 11
841.0230317702152
 21
1957.937499999998
 31
0.0
  0
LINE
  5
113
330
87
100
AcDbEntity
  8
P-SANR-FIXT
100
AcDbLine
 10
798.9797387278297
 20
2043.937499999994
 30
0.0
 11
798.9797387278297
 21
2037.934701883423
 31
0.0
  0
LINE
  5
114
330
87
100
AcDbEntity
  8
P-SANR-FIXT
100
AcDbLine
 10
798.9797387278297
 20
2023.934701883298
 30
0.0
 11
798.9797387278297
 21
2019.937499999993
 31
0.0
  0
LINE
  5
115
330
87
100
AcDbEntity
  8
P-SANR-FIXT
100
AcDbLine
 10
832.3530761585486
 20
2019.937499999993
 30
0.0
 11
832.3530761585486
 21
2043.937499999994
 31
0.0
  0
LINE
  5
116
330
87
100
AcDbEntity
  8
P-SANR-FIXT
100
AcDbLine
 10
789.3616817439642
 20
2019.937499999993
 30
0.0
 11
781.3616817439646
 21
2014.337499999993
 31
0.0
  0
LINE
  5
117
330
87
100
AcDbEntity
  8
P-SANR-FIXT
100
AcDbLine
 10
849.9711331424135
 20
2014.337499999993
 30
0.0
 11
841.971133142414
 21
2019.937499999993
 31
0.0
  0
LINE
  5
118
330
87
100
AcDbEntity
  8
P-SANR-FIXT
100
AcDbLine
 10
781.3616817439646
 20
2014.337499999994
 30
0.0
 11
781.3616817439646
 21
2007.93470188336
 31
0.0
  0
LINE
  5
119
330
87
100
AcDbEntity
  8
P-SANR-FIXT
100
AcDbLine
 10
849.9711331424135
 20
2007.93470188336
 30
0.0
 11
849.9711331424135
 21
2014.337499999994
 31
0.0
  0
LINE
  5
11A
330
87
100
AcDbEntity
  8
P-SANR-FIXT
100
AcDbLine
 10
781.3616817439646
 20
2007.93470188336
 30
0.0
 11
782.3588836273304
 21
2006.937499999994
 31
0.0
  0
LINE
  5
11B
330
87
100
AcDbEntity
  8
P-SANR-FIXT
100
AcDbLine
 10
848.9739312590478
 20
2006.937499999994
 30
0.0
 11
849.9711331424135
 21
2007.93470188336
 31
0.0
  0
LINE
  5
11C
330
87
100
AcDbEntity
  8
P-SANR-FIXT
100
AcDbLine
 10
786.5894459796728
 20
2006.937499999994
 30
0.0
 11
789.1596582299857
 21
2005.437500000015
 31
0.0
  0
LINE
  5
11D
330
87
100
AcDbEntity
  8
P-SANR-FIXT
100
AcDbLine
 10
842.1731566563925
 20
2005.437500000015
 30
0.0
 11
844.7433689067056
 21
2006.937499999994
 31
0.0
  0
LINE
  5
11E
330
87
100
AcDbEntity
  8
P-SANR-FIXT
100
AcDbLine
 10
797.3616817439951
 20
2005.437500000015
 30
0.0
 11
797.3616817439951
 21
2000.437499999997
 31
0.0
  0
LINE
  5
11F
330
87
100
AcDbEntity
  8
P-SANR-FIXT
100
AcDbLine
 10
833.971133142383
 20
2000.437499999997
 30
0.0
 11
833.971133142383
 21
2005.437500000015
 31
0.0
  0
LINE
  5
120
330
87
100
AcDbEntity
  8
P-SANR-FIXT
100
AcDbLine
 10
798.9797387278297
 20
2037.934701883423
 30
0.0
 11
789.8616817439641
 21
2037.934701883423
 31
0.0
  0
LINE
  5
121
330
87
100
AcDbEntity
  8
P-SANR-FIXT
100
AcDbLine
 10
789.8616817439641
 20
2023.934701883298
 30
0.0
 11
798.9797387278297
 21
2023.934701883298
 31
0.0
  0
LINE
  5
122
330
87
100
AcDbEntity
  8
P-SANR-FIXT
100
AcDbLine
 10
799.2458594530966
 20
1990.937499999997
 30
0.0
 11
799.258332646317
 21
1990.937499999997
 31
0.0
  0
LINE
  5
123
330
87
100
AcDbEntity
  8
P-SANR-FIXT
100
AcDbLine
 10
799.4518265051339
 20
1990.937499999997
 30
0.0
 11
799.573290358976
 21
1990.937499999997
 31
0.0
  0
LINE
  5
124
330
87
100
AcDbEntity
  8
P-SANR-FIXT
100
AcDbLine
 10
800.6948142543583
 20
1990.937499999997
 30
0.0
 11
801.2367224344645
 21
1990.937499999997
 31
0.0
  0
LINE
  5
125
330
87
100
AcDbEntity
  8
P-SANR-FIXT
100
AcDbLine
 10
801.3622199567709
 20
1990.937499999997
 30
0.0
 11
801.9471588401957
 21
1990.937499999997
 31
0.0
  0
LINE
  5
126
330
87
100
AcDbEntity
  8
P-SANR-FIXT
100
AcDbLine
 10
802.139705295081
 20
1990.937499999997
 30
0.0
 11
802.9117349627027
 21
1990.937499999997
 31
0.0
  0
LINE
  5
127
330
87
100
AcDbEntity
  8
P-SANR-FIXT
100
AcDbLine
 10
803.021041518974
 20
1990.937499999997
 30
0.0
 11
805.0550363435695
 21
1990.937499999997
 31
0.0
  0
LINE
  5
128
330
87
100
AcDbEntity
  8
P-SANR-FIXT
100
AcDbLine
 10
805.1989182544877
 20
1990.937499999997
 30
0.0
 11
806.1941497075054
 21
1990.937499999997
 31
0.0
  0
LINE
  5
129
330
87
100
AcDbEntity
  8
P-SANR-FIXT
100
AcDbLine
 10
806.4994985983643
 20
1990.937499999997
 30
0.0
 11
807.4073187965673
 21
1990.937499999997
 31
0.0
  0
LINE
  5
12A
330
87
100
AcDbEntity
  8
P-SANR-FIXT
100
AcDbLine
 10
807.8883612855587
 20
1990.937499999997
 30
0.0
 11
808.6848219597527
 21
1990.937499999997
 31
0.0
  0
LINE
  5
12B
330
87
100
AcDbEntity
  8
P-SANR-FIXT
100
AcDbLine
 10
809.1702328286563
 20
1990.937499999997
 30
0.0
 11
809.3521308091638
 21
1990.937499999997
 31
0.0
  0
LINE
  5
12C
330
87
100
AcDbEntity
  8
P-SANR-FIXT
100
AcDbLine
 10
810.0164393988261
 20
1990.937499999997
 30
0.0
 11
810.8767102684891
 21
1990.937499999997
 31
0.0
  0
LINE
  5
12D
330
87
100
AcDbEntity
  8
P-SANR-FIXT
100
AcDbLine
 10
811.3915241445729
 20
1990.937499999997
 30
0.0
 11
814.04912462775
 21
1990.937499999997
 31
0.0
  0
LINE
  5
12E
330
87
100
AcDbEntity
  8
P-SANR-FIXT
100
AcDbLine
 10
814.2278537266053
 20
1990.937499999997
 30
0.0
 11
818.5337333737617
 21
1990.937499999997
 31
0.0
  0
LINE
  5
12F
330
87
100
AcDbEntity
  8
P-SANR-FIXT
100
AcDbLine
 10
818.8853977564537
 20
1990.937499999997
 30
0.0
 11
819.9412907418023
 21
1990.937499999997
 31
0.0
  0
LINE
  5
130
330
87
100
AcDbEntity
  8
P-SANR-FIXT
100
AcDbLine
 10
820.4561046178865
 20
1990.937499999997
 30
0.0
 11
822.6479929266226
 21
1990.937499999997
 31
0.0
  0
LINE
  5
131
330
87
100
AcDbEntity
  8
P-SANR-FIXT
100
AcDbLine
 10
823.9254960898081
 20
1990.937499999997
 30
0.0
 11
825.0356359694013
 21
1990.937499999997
 31
0.0
  0
LINE
  5
132
330
87
100
AcDbEntity
  8
P-SANR-FIXT
100
AcDbLine
 10
825.1386651788701
 20
1990.937499999997
 30
0.0
 11
826.1338966318879
 21
1990.937499999997
 31
0.0
  0
LINE
  5
133
330
87
100
AcDbEntity
  8
P-SANR-FIXT
100
AcDbLine
 10
826.2777785428061
 20
1990.937499999997
 30
0.0
 11
828.3117733674012
 21
1990.937499999997
 31
0.0
  0
LINE
  5
134
330
87
100
AcDbEntity
  8
P-SANR-FIXT
100
AcDbLine
 10
828.4210799236729
 20
1990.937499999997
 30
0.0
 11
829.1931095912945
 21
1990.937499999997
 31
0.0
  0
LINE
  5
135
330
87
100
AcDbEntity
  8
P-SANR-FIXT
100
AcDbLine
 10
829.9705949296047
 20
1990.937499999997
 30
0.0
 11
830.638000632017
 21
1990.937499999997
 31
0.0
  0
LINE
  5
136
330
87
100
AcDbEntity
  8
P-SANR-FIXT
100
AcDbLine
 10
830.9104197296241
 20
1990.937499999997
 30
0.0
 11
830.98345801587
 21
1990.937499999997
 31
0.0
  0
LINE
  5
137
330
87
100
AcDbEntity
  8
P-SANR-FIXT
100
AcDbLine
 10
831.7595245274059
 20
1990.937499999997
 30
0.0
 11
831.8809883812395
 21
1990.937499999997
 31
0.0
  0
LINE
  5
138
330
87
100
AcDbEntity
  8
P-SANR-FIXT
100
AcDbLine
 10
832.0404666974498
 20
1990.937499999997
 30
0.0
 11
832.0869554332791
 21
1990.937499999997
 31
0.0
  0
SPLINE
  5
139
330
87
100
AcDbEntity
  8
P-SANR-FIXT
100
AcDbSpline
210
0.0
220
0.0
230
1.0
 70
     8
 71
     3
 72
     9
 73
     5
 74
     0
 42
0.000000001
 43
0.0000000001
 40
0.1904761904761905
 40
0.1904761904761905
 40
0.1904761904761905
 40
0.1904761904761905
 40
0.2142857142857143
 40
0.2380952380952381
 40
0.2380952380952381
 40
0.2380952380952381
 40
0.2380952380952381
 10
802.6666224844358
 20
1979.879754929886
 30
0.0
 10
802.7559819446008
 20
1979.870318842625
 30
0.0
 10
802.9376480556845
 20
1979.849086228099
 30
0.0
 10
803.1247211530274
 20
1979.821316324839
 30
0.0
 10
803.2193875472881
 20
1979.805250146353
 30
0.0
  0
SPLINE
  5
13A
330
87
100
AcDbEntity
  8
P-SANR-FIXT
100
AcDbSpline
210
0.0
220
0.0
230
1.0
 70
     8
 71
     3
 72
     9
 73
     5
 74
     0
 42
0.000000001
 43
0.0000000001
 40
0.2857142857142857
 40
0.2857142857142857
 40
0.2857142857142857
 40
0.2857142857142857
 40
0.3214285714285714
 40
0.3333333333333333
 40
0.3333333333333333
 40
0.3333333333333333
 40
0.3333333333333333
 10
803.800427374024
 20
1979.680837974409
 30
0.0
 10
803.9491331464315
 20
1979.642904763936
 30
0.0
 10
804.1511436935033
 20
1979.585881873874
 30
0.0
 10
804.358126495306
 20
1979.522003193064
 30
0.0
 10
804.4101355766812
 20
1979.505546797489
 30
0.0
  0
SPLINE
  5
13B
330
87
100
AcDbEntity
  8
P-SANR-FIXT
100
AcDbSpline
210
0.0
220
0.0
230
1.0
 70
     8
 71
     3
 72
     8
 73
     4
 74
     0
 42
0.000000001
 43
0.0000000001
 40
0.3809523809523809
 40
0.3809523809523809
 40
0.3809523809523809
 40
0.3809523809523809
 40
0.3859545431478071
 40
0.3859545431478071
 40
0.3859545431478071
 40
0.3859545431478071
 10
805.0437151638641
 20
1979.281088243294
 30
0.0
 10
805.0661060501248
 20
1979.272168744534
 30
0.0
 10
805.0885038702753
 20
1979.263126999903
 30
0.0
 10
805.1109038083746
 20
1979.253959682242
 30
0.0
  0
SPLINE
  5
13C
330
87
100
AcDbEntity
  8
P-SANR-FIXT
100
AcDbSpline
210
0.0
220
0.0
230
1.0
 70
     8
 71
     3
 72
     9
 73
     5
 74
     0
 42
0.000000001
 43
0.0000000001
 40
0.4642177275625496
 40
0.4642177275625496
 40
0.4642177275625496
 40
0.4642177275625496
 40
0.4642857142857144
 40
0.4761904761904762
 40
0.4761904761904762
 40
0.4761904761904762
 40
0.4761904761904762
 10
806.1644540648311
 20
1978.728436921473
 30
0.0
 10
806.1647612766792
 20
1978.728258123014
 30
0.0
 10
806.2188631207837
 20
1978.696767250409
 30
0.0
 10
806.2730564034712
 20
1978.664619974453
 30
0.0
 10
806.326960590958
 20
1978.631990854024
 30
0.0
  0
SPLINE
  5
13D
330
87
100
AcDbEntity
  8
P-SANR-FIXT
100
AcDbSpline
210
0.0
220
0.0
230
1.0
 70
     8
 71
     3
 72
     9
 73
     5
 74
     0
 42
0.000000001
 43
0.0000000001
 40
0.5238095238095238
 40
0.5238095238095238
 40
0.5238095238095238
 40
0.5238095238095238
 40
0.5357142857142857
 40
0.5373590748749875
 40
0.5373590748749875
 40
0.5373590748749875
 40
0.5373590748749875
 10
806.9698100316342
 20
1978.207693700179
 30
0.0
 10
807.0225910805842
 20
1978.16958920696
 30
0.0
 10
807.0823151960189
 20
1978.125462367489
 30
0.0
 10
807.1414639274257
 20
1978.08045166198
 30
0.0
 10
807.1486357826337
 20
1978.074974673293
 30
0.0
  0
SPLINE
  5
13E
330
87
100
AcDbEntity
  8
P-SANR-FIXT
100
AcDbSpline
210
0.0
220
0.0
230
1.0
 70
     8
 71
     3
 72
     8
 73
     4
 74
     0
 42
0.000000001
 43
0.0000000001
 40
0.6075468444319374
 40
0.6075468444319374
 40
0.6075468444319374
 40
0.6075468444319374
 40
0.6190476190476191
 40
0.6190476190476191
 40
0.6190476190476191
 40
0.6190476190476191
 10
808.0330247125401
 20
1977.295762960022
 30
0.0
 10
808.0795215212246
 20
1977.248892323148
 30
0.0
 10
808.1257812210603
 20
1977.201435508291
 30
0.0
 10
808.1716574543181
 20
1977.153373686795
 30
0.0
  0
SPLINE
  5
13F
330
87
100
AcDbEntity
  8
P-SANR-FIXT
100
AcDbSpline
210
0.0
220
0.0
230
1.0
 70
     8
 71
     3
 72
     8
 73
     4
 74
     0
 42
0.000000001
 43
0.0000000001
 40
0.6666666666666668
 40
0.6666666666666668
 40
0.6666666666666668
 40
0.6666666666666668
 40
0.6743495319145369
 40
0.6743495319145369
 40
0.6743495319145369
 40
0.6743495319145369
 10
808.7175313174153
 20
1976.526709431011
 30
0.0
 10
808.7455847678924
 20
1976.491528714761
 30
0.0
 10
808.7732676765858
 20
1976.456042156558
 30
0.0
 10
808.8006416109475
 20
1976.420279416441
 30
0.0
  0
SPLINE
  5
140
330
87
100
AcDbEntity
  8
P-SANR-FIXT
100
AcDbSpline
210
0.0
220
0.0
230
1.0
 70
     8
 71
     3
 72
     8
 73
     4
 74
     0
 42
0.000000001
 43
0.0000000001
 40
0.7142857142857143
 40
0.7142857142857143
 40
0.7142857142857143
 40
0.7142857142857143
 40
0.7619047619047621
 40
0.7619047619047621
 40
0.7619047619047621
 40
0.7619047619047621
 10
809.2111194560123
 20
1975.844364644915
 30
0.0
 10
809.3657219003601
 20
1975.607357250025
 30
0.0
 10
809.5207331014554
 20
1975.364370438386
 30
0.0
 10
809.6642008432359
 20
1975.113934785503
 30
0.0
  0
SPLINE
  5
141
330
87
100
AcDbEntity
  8
P-SANR-FIXT
100
AcDbSpline
210
0.0
220
0.0
230
1.0
 70
     8
 71
     3
 72
     8
 73
     4
 74
     0
 42
0.000000001
 43
0.0000000001
 40
0.8060182895612271
 40
0.8060182895612271
 40
0.8060182895612271
 40
0.8060182895612271
 40
0.8095238095238098
 40
0.8095238095238098
 40
0.8095238095238098
 40
0.8095238095238098
 10
809.9802137218571
 20
1974.38267508501
 30
0.0
 10
809.9883317434105
 20
1974.36309114765
 30
0.0
 10
809.9964530688348
 20
1974.343499745262
 30
0.0
 10
810.0045626642726
 20
1974.323897365544
 30
0.0
  0
SPLINE
  5
142
330
87
100
AcDbEntity
  8
P-SANR-FIXT
100
AcDbSpline
210
0.0
220
0.0
230
1.0
 70
     8
 71
     3
 72
     8
 73
     4
 74
     0
 42
0.000000001
 43
0.0000000001
 40
0.8571428571428571
 40
0.8571428571428571
 40
0.8571428571428571
 40
0.8571428571428571
 40
0.8710852583120328
 40
0.8710852583120328
 40
0.8710852583120328
 40
0.8710852583120328
 10
810.2908680536458
 20
1973.51017937735
 30
0.0
 10
810.3149436524219
 20
1973.42969778838
 30
0.0
 10
810.3357748125695
 20
1973.348325704864
 30
0.0
 10
810.3539726145653
 20
1973.266232027719
 30
0.0
  0
SPLINE
  5
143
330
87
100
AcDbEntity
  8
P-SANR-FIXT
100
AcDbSpline
210
0.0
220
0.0
230
1.0
 70
     8
 71
     3
 72
     8
 73
     4
 74
     0
 42
0.000000001
 43
0.0000000001
 40
0.9362472108817094
 40
0.9362472108817094
 40
0.9362472108817094
 40
0.9362472108817094
 40
0.9523809523809527
 40
0.9523809523809527
 40
0.9523809523809527
 40
0.9523809523809527
 10
810.588453185524
 20
1972.112818720945
 30
0.0
 10
810.6010932754017
 20
1972.015714139445
 30
0.0
 10
810.6099080626631
 20
1971.917309697679
 30
0.0
 10
810.6166366142915
 20
1971.818200250558
 30
0.0
  0
SPLINE
  5
144
330
87
100
AcDbEntity
  8
P-SANR-FIXT
100
AcDbSpline
210
0.0
220
0.0
230
1.0
 70
     8
 71
     3
 72
     8
 73
     4
 74
     0
 42
0.000000001
 43
0.0000000001
 40
0.5
 40
0.5
 40
0.5
 40
0.5
 40
1.0
 40
1.0
 40
1.0
 40
1.0
 10
810.634859089593
 20
1970.184588938789
 30
0.0
 10
810.6138654450793
 20
1969.934588938789
 30
0.0
 10
810.5824009531746
 20
1969.685559292525
 30
0.0
 10
810.5405271178373
 20
1969.437499999997
 30
0.0
  0
SPLINE
  5
145
330
87
100
AcDbEntity
  8
P-SANR-FIXT
100
AcDbSpline
210
0.0
220
0.0
230
1.0
 70
     8
 71
     3
 72
     8
 73
     4
 74
     0
 42
0.000000001
 43
0.0000000001
 40
0.0
 40
0.0
 40
0.0
 40
0.0
 40
0.5
 40
0.5
 40
0.5
 40
0.5
 10
820.7922877685385
 20
1969.437499999997
 30
0.0
 10
820.750413933201
 20
1969.685559292525
 30
0.0
 10
820.7189494412963
 20
1969.934588938789
 30
0.0
 10
820.6979557967825
 20
1970.184588938789
 30
0.0
  0
SPLINE
  5
146
330
87
100
AcDbEntity
  8
P-SANR-FIXT
100
AcDbSpline
210
0.0
220
0.0
230
1.0
 70
     8
 71
     3
 72
     8
 73
     4
 74
     0
 42
0.000000001
 43
0.0000000001
 40
0.0476190476190476
 40
0.0476190476190476
 40
0.0476190476190476
 40
0.0476190476190476
 40
0.063752789118287
 40
0.063752789118287
 40
0.063752789118287
 40
0.063752789118287
 10
820.7107205006014
 20
1971.819877598806
 30
0.0
 10
820.7202264008421
 20
1971.917938642512
 30
0.0
 10
820.7312684156212
 20
1972.015492704059
 30
0.0
 10
820.743857743694
 20
1972.112572482876
 30
0.0
  0
SPLINE
  5
147
330
87
100
AcDbEntity
  8
P-SANR-FIXT
100
AcDbSpline
210
0.0
220
0.0
230
1.0
 70
     8
 71
     3
 72
     8
 73
     4
 74
     0
 42
0.000000001
 43
0.0000000001
 40
0.1289147416879642
 40
0.1289147416879642
 40
0.1289147416879642
 40
0.1289147416879642
 40
0.1428571428571428
 40
0.1428571428571428
 40
0.1428571428571428
 40
0.1428571428571428
 10
820.9728564293602
 20
1973.267792198382
 30
0.0
 10
820.9946948414273
 20
1973.348836456307
 30
0.0
 10
821.0177225667777
 20
1973.42962514824
 30
0.0
 10
821.0419468327298
 20
1973.51017937735
 30
0.0
  0
SPLINE
  5
148
330
87
100
AcDbEntity
  8
P-SANR-FIXT
100
AcDbSpline
210
0.0
220
0.0
230
1.0
 70
     8
 71
     3
 72
     8
 73
     4
 74
     0
 42
0.000000001
 43
0.0000000001
 40
0.1904761904761905
 40
0.1904761904761905
 40
0.1904761904761905
 40
0.1904761904761905
 40
0.1939817104387656
 40
0.1939817104387656
 40
0.1939817104387656
 40
0.1939817104387656
 10
821.3303281857935
 20
1974.324756386667
 30
0.0
 10
821.3383487836869
 20
1974.344416270795
 30
0.0
 10
821.3464358135709
 20
1974.36404726649
 30
0.0
 10
821.3545885975161
 20
1974.38364833823
 30
0.0
  0
SPLINE
  5
149
330
87
100
AcDbEntity
  8
P-SANR-FIXT
100
AcDbSpline
210
0.0
220
0.0
230
1.0
 70
     8
 71
     3
 72
     8
 73
     4
 74
     0
 42
0.000000001
 43
0.0000000001
 40
0.2380952380952381
 40
0.2380952380952381
 40
0.2380952380952381
 40
0.2380952380952381
 40
0.2857142857142857
 40
0.2857142857142857
 40
0.2857142857142857
 40
0.2857142857142857
 10
821.6924136088998
 20
1975.107422797347
 30
0.0
 10
821.8244904044121
 20
1975.361372734558
 30
0.0
 10
821.9677409878503
 20
1975.607689690012
 30
0.0
 10
822.1216954303633
 20
1975.844364644915
 30
0.0
  0
SPLINE
  5
14A
330
87
100
AcDbEntity
  8
P-SANR-FIXT
100
AcDbSpline
210
0.0
220
0.0
230
1.0
 70
     8
 71
     3
 72
     8
 73
     4
 74
     0
 42
0.000000001
 43
0.0000000001
 40
0.3256504680854573
 40
0.3256504680854573
 40
0.3256504680854573
 40
0.3256504680854573
 40
0.3333333333333333
 40
0.3333333333333333
 40
0.3333333333333333
 40
0.3333333333333333
 10
822.5308790827265
 20
1976.419944782283
 30
0.0
 10
822.5584708385106
 20
1976.455608359629
 30
0.0
 10
822.5863135301571
 20
1976.491037822725
 30
0.0
 10
822.6144018302116
 20
1976.526236417627
 30
0.0
  0
SPLINE
  5
14B
330
87
100
AcDbEntity
  8
P-SANR-FIXT
100
AcDbSpline
210
0.0
220
0.0
230
1.0
 70
     8
 71
     3
 72
     8
 73
     4
 74
     0
 42
0.000000001
 43
0.0000000001
 40
0.3809523809523809
 40
0.3809523809523809
 40
0.3809523809523809
 40
0.3809523809523809
 40
0.3924531555680455
 40
0.3924531555680455
 40
0.3924531555680455
 40
0.3924531555680455
 10
823.1629944992024
 20
1977.154137038598
 30
0.0
 10
823.2089415554531
 20
1977.202364305129
 30
0.0
 10
823.2551956278461
 20
1977.249942788328
 30
0.0
 10
823.3016570411992
 20
1977.296798106077
 30
0.0
  0
SPLINE
  5
14C
330
87
100
AcDbEntity
  8
P-SANR-FIXT
100
AcDbSpline
210
0.0
220
0.0
230
1.0
 70
     8
 71
     3
 72
     8
 73
     4
 74
     0
 42
0.000000001
 43
0.0000000001
 40
0.4626409251249994
 40
0.4626409251249994
 40
0.4626409251249994
 40
0.4626409251249994
 40
0.4761904761904762
 40
0.4761904761904762
 40
0.4761904761904762
 40
0.4761904761904762
 10
824.1852595669465
 20
1978.075411417025
 30
0.0
 10
824.2444466956921
 20
1978.120556348881
 30
0.0
 10
824.3040288772943
 20
1978.164775524149
 30
0.0
 10
824.363955284525
 20
1978.208087969198
 30
0.0
  0
SPLINE
  5
14D
330
87
100
AcDbEntity
  8
P-SANR-FIXT
100
AcDbSpline
210
0.0
220
0.0
230
1.0
 70
     8
 71
     3
 72
     9
 73
     5
 74
     0
 42
0.000000001
 43
0.0000000001
 40
0.5238095238095238
 40
0.5238095238095238
 40
0.5238095238095238
 40
0.5238095238095238
 40
0.5357142857142857
 40
0.5357822724374377
 40
0.5357822724374377
 40
0.5357822724374377
 40
0.5357822724374377
 10
825.0057592711472
 20
1978.631935690161
 30
0.0
 10
825.0597017170079
 20
1978.664578762279
 30
0.0
 10
825.1139381314493
 20
1978.69674692621
 30
0.0
 10
825.1680537672738
 20
1978.728258356497
 30
0.0
 10
825.1683610566288
 20
1978.728437271575
 30
0.0
  0
SPLINE
  5
14E
330
87
100
AcDbEntity
  8
P-SANR-FIXT
100
AcDbSpline
210
0.0
220
0.0
230
1.0
 70
     8
 71
     3
 72
     8
 73
     4
 74
     0
 42
0.000000001
 43
0.0000000001
 40
0.6140454568521803
 40
0.6140454568521803
 40
0.6140454568521803
 40
0.6140454568521803
 40
0.6190476190476191
 40
0.6190476190476191
 40
0.6190476190476191
 40
0.6190476190476191
 10
826.2223515578334
 20
1979.253720097993
 30
0.0
 10
826.2447126100848
 20
1979.262906081916
 30
0.0
 10
826.2670652906219
 20
1979.271969655412
 30
0.0
 10
826.2894088112501
 20
1979.280912331006
 30
0.0
  0
SPLINE
  5
14F
330
87
100
AcDbEntity
  8
P-SANR-FIXT
100
AcDbSpline
210
0.0
220
0.0
230
1.0
 70
     8
 71
     3
 72
    10
 73
     6
 74
     0
 42
0.000000001
 43
0.0000000001
 40
0.6666666666666668
 40
0.6666666666666668
 40
0.6666666666666668
 40
0.6666666666666668
 40
0.6785714285714287
 40
0.7053571428571429
 40
0.7142857142857145
 40
0.7142857142857145
 40
0.7142857142857145
 40
0.7142857142857145
 10
826.9224867516676
 20
1979.505763209938
 30
0.0
 10
826.9745453588477
 20
1979.522185475875
 30
0.0
 10
827.1429345037695
 20
1979.573867478226
 30
0.0
 10
827.3462771963966
 20
1979.63129149644
 30
0.0
 10
827.4952750149932
 20
1979.67121871131
 30
0.0
 10
827.5323623856118
 20
1979.680880841051
 30
0.0
  0
SPLINE
  5
150
330
87
100
AcDbEntity
  8
P-SANR-FIXT
100
AcDbSpline
210
0.0
220
0.0
230
1.0
 70
     8
 71
     3
 72
     9
 73
     5
 74
     0
 42
0.000000001
 43
0.0000000001
 40
0.7619047619047621
 40
0.7619047619047621
 40
0.7619047619047621
 40
0.7619047619047621
 40
0.7857142857142857
 40
0.8095238095238098
 40
0.8095238095238098
 40
0.8095238095238098
 40
0.8095238095238098
 10
828.1134762868209
 20
1979.805157404894
 30
0.0
 10
828.2081542466681
 20
1979.82120252177
 30
0.0
 10
828.3950625325488
 20
1979.849077839689
 30
0.0
 10
828.5769810247403
 20
1979.870449422514
 30
0.0
 10
828.6664267448301
 20
1979.87987910228
 30
0.0
  0
LINE
  5
151
330
87
100
AcDbEntity
  8
P-SANR-FIXT
100
AcDbLine
 10
832.6664074431876
 20
1979.430637963923
 30
0.0
 11
832.6664074431876
 21
1979.410589008553
 31
0.0
  0
LINE
  5
152
330
87
100
AcDbEntity
  8
P-SANR-FIXT
100
AcDbLine
 10
832.6664074431876
 20
1962.464410991441
 30
0.0
 11
832.6664074431876
 21
1962.444362036071
 31
0.0
  0
LINE
  5
153
330
87
100
AcDbEntity
  8
P-SANR-FIXT
100
AcDbLine
 10
832.6664074431876
 20
1957.937499999997
 30
0.0
 11
832.6664074431876
 21
1962.452218625758
 31
0.0
  0
SPLINE
  5
154
330
87
100
AcDbEntity
  8
P-SANR-FIXT
100
AcDbSpline
210
0.0
220
0.0
230
1.0
 70
     8
 71
     3
 72
     8
 73
     4
 74
     0
 42
0.000000001
 43
0.0000000001
 40
-0.5587011480112832
 40
-0.5587011480112832
 40
-0.5587011480112832
 40
-0.5587011480112832
 40
-0.5
 40
-0.5
 40
-0.5
 40
-0.5
 10
831.9949160416401
 20
1962.243936662632
 30
0.0
 10
831.9654239689137
 20
1962.236037347834
 30
0.0
 10
831.9359269228167
 20
1962.228166434998
 30
0.0
 10
831.906572479812
 20
1962.220754012607
 30
0.0
  0
SPLINE
  5
155
330
87
100
AcDbEntity
  8
P-SANR-FIXT
100
AcDbSpline
210
0.0
220
0.0
230
1.0
 70
     8
 71
     3
 72
     9
 73
     5
 74
     0
 42
0.000000001
 43
0.0000000001
 40
0.0
 40
0.0
 40
0.0
 40
0.0
 40
0.5
 40
1.0
 40
1.0
 40
1.0
 40
1.0
 10
831.1664074431877
 20
1980.949992197247
 30
0.0
 10
831.4380823880611
 20
1981.723995913877
 30
0.0
 10
831.9341213280447
 20
1982.912584264298
 30
0.0
 10
832.1664074431877
 20
1983.382334449044
 30
0.0
 10
832.1664074431877
 20
1983.437499999998
 30
0.0
  0
SPLINE
  5
156
330
87
100
AcDbEntity
  8
P-SANR-FIXT
100
AcDbSpline
210
0.0
220
0.0
230
1.0
 70
     8
 71
     3
 72
     8
 73
     4
 74
     0
 42
0.000000001
 43
0.0000000001
 40
-0.5
 40
-0.5
 40
-0.5
 40
-0.5
 40
-0.4412988519887169
 40
-0.4412988519887169
 40
-0.4412988519887169
 40
-0.4412988519887169
 10
831.906572479812
 20
1979.654245987387
 30
0.0
 10
831.9359753218879
 20
1979.646689506274
 30
0.0
 10
831.9654848371481
 20
1979.638644373324
 30
0.0
 10
831.9950772081321
 20
1979.630220600852
 30
0.0
  0
LINE
  5
157
330
87
100
AcDbEntity
  8
P-SANR-FIXT
100
AcDbLine
 10
832.6664074431876
 20
1979.422781374235
 30
0.0
 11
832.6664074431876
 21
1983.937499999997
 31
0.0
  0
LINE
  5
158
330
87
100
AcDbEntity
  8
P-SANR-FIXT
100
AcDbLine
 10
820.7922877685385
 20
1969.437499999997
 30
0.0
 11
820.808102776797
 21
1969.437499999997
 31
0.0
  0
SPLINE
  5
159
330
87
100
AcDbEntity
  8
P-SANR-FIXT
100
AcDbSpline
210
0.0
220
0.0
230
1.0
 70
     8
 71
     3
 72
     8
 73
     4
 74
     0
 42
0.000000001
 43
0.0000000001
 40
-0.8608523732286052
 40
-0.8608523732286052
 40
-0.8608523732286052
 40
-0.8608523732286052
 40
-0.8591023429031569
 40
-0.8591023429031569
 40
-0.8591023429031569
 40
-0.8591023429031569
 10
830.5015704573964
 20
1979.901848929715
 30
0.0
 10
830.498689412013
 20
1979.896959577145
 30
0.0
 10
830.495807401623
 20
1979.892064254931
 30
0.0
 10
830.4929244401954
 20
1979.887162971647
 30
0.0
  0
LINE
  5
15A
330
87
100
AcDbEntity
  8
P-SANR-FIXT
100
AcDbLine
 10
831.1664074431877
 20
1962.052706715737
 30
0.0
 11
831.1664074431877
 21
1962.068110368245
 31
0.0
  0
LINE
  5
15B
330
87
100
AcDbEntity
  8
P-SANR-FIXT
100
AcDbLine
 10
831.1664074431877
 20
1979.808604727418
 30
0.0
 11
831.1664074431877
 21
1979.824626669513
 31
0.0
  0
LINE
  5
15C
330
87
100
AcDbEntity
  8
P-SANR-FIXT
100
AcDbLine
 10
831.1664074431877
 20
1962.063380325347
 30
0.0
 11
831.1664074431877
 21
1959.437499999997
 31
0.0
  0
SPLINE
  5
15D
330
87
100
AcDbEntity
  8
P-SANR-FIXT
100
AcDbSpline
210
0.0
220
0.0
230
1.0
 70
     8
 71
     3
 72
     8
 73
     4
 74
     0
 42
0.000000001
 43
0.0000000001
 40
0.0
 40
0.0
 40
0.0
 40
0.0
 40
0.0217083865484194
 40
0.0217083865484194
 40
0.0217083865484194
 40
0.0217083865484194
 10
831.1664074431877
 20
1962.063380325347
 30
0.0
 10
831.0569352412707
 20
1962.045838327406
 30
0.0
 10
830.9477757766929
 20
1962.030210503736
 30
0.0
 10
830.8389218454287
 20
1962.01647276665
 30
0.0
  0
SPLINE
  5
15E
330
87
100
AcDbEntity
  8
P-SANR-FIXT
100
AcDbSpline
210
0.0
220
0.0
230
1.0
 70
     8
 71
     3
 72
     8
 73
     4
 74
     0
 42
0.000000001
 43
0.0000000001
 40
0.0714285714285714
 40
0.0714285714285714
 40
0.0714285714285714
 40
0.0714285714285714
 40
0.1006256412635973
 40
0.1006256412635973
 40
0.1006256412635973
 40
0.1006256412635973
 10
830.0956970285877
 20
1961.951534911476
 30
0.0
 10
829.9511235963638
 20
1961.944532864107
 30
0.0
 10
829.8070730074627
 20
1961.940850065916
 30
0.0
 10
829.6636854787443
 20
1961.94035204386
 30
0.0
  0
SPLINE
  5
15F
330
87
100
AcDbEntity
  8
P-SANR-FIXT
100
AcDbSpline
210
0.0
220
0.0
230
1.0
 70
     8
 71
     3
 72
     9
 73
     5
 74
     0
 42
0.000000001
 43
0.0000000001
 40
0.1428571428571428
 40
0.1428571428571428
 40
0.1428571428571428
 40
0.1428571428571428
 40
0.1785714285714286
 40
0.2142857142857143
 40
0.2142857142857143
 40
0.2142857142857143
 40
0.2142857142857143
 10
829.0447884928786
 20
1961.958992892431
 30
0.0
 10
828.8708167373078
 20
1961.970528856499
 30
0.0
 10
828.522898056288
 20
1962.004988555948
 30
0.0
 10
828.1757569589665
 20
1962.062197549679
 30
0.0
 10
828.0039018963389
 20
1962.095283975658
 30
0.0
  0
SPLINE
  5
160
330
87
100
AcDbEntity
  8
P-SANR-FIXT
100
AcDbSpline
210
0.0
220
0.0
230
1.0
 70
     8
 71
     3
 72
     9
 73
     5
 74
     0
 42
0.000000001
 43
0.0000000001
 40
0.2618165351434005
 40
0.2618165351434005
 40
0.2618165351434005
 40
0.2618165351434005
 40
0.2678571428571428
 40
0.2857142857142857
 40
0.2857142857142857
 40
0.2857142857142857
 40
0.2857142857142857
 10
827.3294240577023
 20
1962.249367943998
 30
0.0
 10
827.301467043868
 20
1962.25672790481
 30
0.0
 10
827.191254675079
 20
1962.286182062675
 30
0.0
 10
827.0827409654684
 20
1962.316796568418
 30
0.0
 10
827.0023770581341
 20
1962.340817959377
 30
0.0
  0
SPLINE
  5
161
330
87
100
AcDbEntity
  8
P-SANR-FIXT
100
AcDbSpline
210
0.0
220
0.0
230
1.0
 70
     8
 71
     3
 72
     8
 73
     4
 74
     0
 42
0.000000001
 43
0.0000000001
 40
0.3454527939927776
 40
0.3454527939927776
 40
0.3454527939927776
 40
0.3454527939927776
 40
0.3571428571428571
 40
0.3571428571428571
 40
0.3571428571428571
 40
0.3571428571428571
 10
826.2173876707912
 20
1962.622097778816
 30
0.0
 10
826.167499744808
 20
1962.643045766851
 30
0.0
 10
826.1178765494205
 20
1962.664459081157
 30
0.0
 10
826.068528680836
 20
1962.686300027758
 30
0.0
  0
SPLINE
  5
162
330
87
100
AcDbEntity
  8
P-SANR-FIXT
100
AcDbSpline
210
0.0
220
0.0
230
1.0
 70
     8
 71
     3
 72
     8
 73
     4
 74
     0
 42
0.000000001
 43
0.0000000001
 40
0.4285714285714286
 40
0.4285714285714286
 40
0.4285714285714286
 40
0.4285714285714286
 40
0.4311559562849112
 40
0.4311559562849112
 40
0.4311559562849112
 40
0.4311559562849112
 10
825.1956521745002
 20
1963.126459907442
 30
0.0
 10
825.1855107468049
 20
1963.132205968376
 30
0.0
 10
825.1753829302298
 20
1963.137968022753
 30
0.0
 10
825.1652687472608
 20
1963.143746568637
 30
0.0
  0
SPLINE
  5
163
330
87
100
AcDbEntity
  8
P-SANR-FIXT
100
AcDbSpline
210
0.0
220
0.0
230
1.0
 70
     8
 71
     3
 72
     8
 73
     4
 74
     0
 42
0.000000001
 43
0.0000000001
 40
0.5
 40
0.5
 40
0.5
 40
0.5
 40
0.5191262032168043
 40
0.5191262032168043
 40
0.5191262032168043
 40
0.5191262032168043
 10
824.3861057430086
 20
1963.647236106869
 30
0.0
 10
824.3166812277015
 20
1963.697733651229
 30
0.0
 10
824.2478929495302
 20
1963.749037615892
 30
0.0
 10
824.1798581278125
 20
1963.801250765902
 30
0.0
  0
SPLINE
  5
164
330
87
100
AcDbEntity
  8
P-SANR-FIXT
100
AcDbSpline
210
0.0
220
0.0
230
1.0
 70
     8
 71
     3
 72
     8
 73
     4
 74
     0
 42
0.000000001
 43
0.0000000001
 40
0.5714285714285714
 40
0.5714285714285714
 40
0.5714285714285714
 40
0.5714285714285714
 40
0.6428571428571427
 40
0.6428571428571427
 40
0.6428571428571427
 40
0.6428571428571427
 10
823.64101570745
 20
1964.252093921762
 30
0.0
 10
823.4033898770658
 20
1964.46672222491
 30
0.0
 10
823.1813935013597
 20
1964.698012638844
 30
0.0
 10
822.9684175565816
 20
1964.940536596146
 30
0.0
  0
SPLINE
  5
165
330
87
100
AcDbEntity
  8
P-SANR-FIXT
100
AcDbSpline
210
0.0
220
0.0
230
1.0
 70
     8
 71
     3
 72
     8
 73
     4
 74
     0
 42
0.000000001
 43
0.0000000001
 40
0.6919766178663432
 40
0.6919766178663432
 40
0.6919766178663432
 40
0.6919766178663432
 40
0.7142857142857143
 40
0.7142857142857143
 40
0.7142857142857143
 40
0.7142857142857143
 10
822.532935852964
 20
1965.450134741594
 30
0.0
 10
822.47073485564
 20
1965.530935034331
 30
0.0
 10
822.4104124410601
 20
1965.61346687945
 30
0.0
 10
822.3499419912794
 20
1965.69638053074
 30
0.0
  0
SPLINE
  5
166
330
87
100
AcDbEntity
  8
P-SANR-FIXT
100
AcDbSpline
210
0.0
220
0.0
230
1.0
 70
     8
 71
     3
 72
     8
 73
     4
 74
     0
 42
0.000000001
 43
0.0000000001
 40
0.777446432565471
 40
0.777446432565471
 40
0.777446432565471
 40
0.777446432565471
 40
0.7857142857142855
 40
0.7857142857142855
 40
0.7857142857142855
 40
0.7857142857142855
 10
821.8733527543168
 20
1966.434195802824
 30
0.0
 10
821.8539961698605
 20
1966.467640135254
 30
0.0
 10
821.8346227819118
 20
1966.501114343553
 30
0.0
 10
821.81530360844
 20
1966.534655653257
 30
0.0
  0
SPLINE
  5
167
330
87
100
AcDbEntity
  8
P-SANR-FIXT
100
AcDbSpline
210
0.0
220
0.0
230
1.0
 70
     8
 71
     3
 72
     8
 73
     4
 74
     0
 42
0.000000001
 43
0.0000000001
 40
0.8571428571428571
 40
0.8571428571428571
 40
0.8571428571428571
 40
0.8571428571428571
 40
0.8608605553333925
 40
0.8608605553333925
 40
0.8608605553333925
 40
0.8608605553333925
 10
821.37252349853
 20
1967.44300588603
 30
0.0
 10
821.365707812577
 20
1967.459305851243
 30
0.0
 10
821.3590287863183
 20
1967.475682603383
 30
0.0
 10
821.3524793717681
 20
1967.492132182406
 30
0.0
  0
SPLINE
  5
168
330
87
100
AcDbEntity
  8
P-SANR-FIXT
100
AcDbSpline
210
0.0
220
0.0
230
1.0
 70
     8
 71
     3
 72
     8
 73
     4
 74
     0
 42
0.000000001
 43
0.0000000001
 40
0.9285714285714282
 40
0.9285714285714282
 40
0.9285714285714282
 40
0.9285714285714282
 40
0.9423303303453252
 40
0.9423303303453252
 40
0.9423303303453252
 40
0.9423303303453252
 10
821.0318982468276
 20
1968.411917656085
 30
0.0
 10
821.0133254881375
 20
1968.475983038538
 30
0.0
 10
820.9963554013619
 20
1968.540945885709
 30
0.0
 10
820.9804166869293
 20
1968.606486316429
 30
0.0
  0
LINE
  5
169
330
87
100
AcDbEntity
  8
P-SANR-FIXT
100
AcDbLine
 10
831.1664074431877
 20
1980.949992197247
 30
0.0
 11
831.1664074431877
 21
1979.811619674647
 31
0.0
  0
SPLINE
  5
16A
330
87
100
AcDbEntity
  8
P-SANR-FIXT
100
AcDbSpline
210
0.0
220
0.0
230
1.0
 70
     8
 71
     3
 72
     9
 73
     5
 74
     0
 42
0.000000001
 43
0.0000000001
 40
-1.0
 40
-1.0
 40
-1.0
 40
-1.0
 40
-0.5
 40
0.0
 40
0.0
 40
0.0
 40
0.0
 10
830.5086010138669
 20
1979.898008355526
 30
0.0
 10
830.6262222976783
 20
1980.091325046007
 30
0.0
 10
830.8534779863769
 20
1980.46134424404
 30
0.0
 10
831.0647599172257
 20
1980.794011708986
 30
0.0
 10
831.1664074431877
 20
1980.949992197247
 30
0.0
  0
SPLINE
  5
16B
330
87
100
AcDbEntity
  8
P-SANR-FIXT
100
AcDbSpline
210
0.0
220
0.0
230
1.0
 70
     8
 71
     3
 72
     9
 73
     5
 74
     0
 42
0.000000001
 43
0.0000000001
 40
0.0
 40
0.0
 40
0.0
 40
0.0
 40
0.5
 40
1.0
 40
1.0
 40
1.0
 40
1.0
 10
830.5086010138669
 20
1979.898008355526
 30
0.0
 10
830.6195010883001
 20
1979.887529945858
 30
0.0
 10
830.84003556762
 20
1979.862703807436
 30
0.0
 10
831.0580387078474
 20
1979.829993291276
 30
0.0
 10
831.1664074431877
 20
1979.811619674647
 30
0.0
  0
SPLINE
  5
16C
330
87
100
AcDbEntity
  8
P-SANR-FIXT
100
AcDbSpline
210
0.0
220
0.0
230
1.0
 70
     8
 71
     3
 72
     8
 73
     4
 74
     0
 42
0.000000001
 43
0.0000000001
 40
-0.1408976570968718
 40
-0.1408976570968718
 40
-0.1408976570968718
 40
-0.1408976570968718
 40
-0.1391476267714261
 40
-0.1391476267714261
 40
-0.1391476267714261
 40
-0.1391476267714261
 10
800.8391866519019
 20
1979.886971132342
 30
0.0
 10
800.836308910539
 20
1979.891873838505
 30
0.0
 10
800.833431439284
 20
1979.896777018294
 30
0.0
 10
800.8305543659853
 20
1979.901679844317
 30
0.0
  0
LINE
  5
16D
330
87
100
AcDbEntity
  8
P-SANR-FIXT
100
AcDbLine
 10
810.5247121095786
 20
1969.437499999997
 30
0.0
 11
810.5405271178371
 21
1969.437499999997
 31
0.0
  0
SPLINE
  5
16E
330
87
100
AcDbEntity
  8
P-SANR-FIXT
100
AcDbSpline
210
0.0
220
0.0
230
1.0
 70
     8
 71
     3
 72
     8
 73
     4
 74
     0
 42
0.000000001
 43
0.0000000001
 40
0.0575695158625455
 40
0.0575695158625455
 40
0.0575695158625455
 40
0.0575695158625455
 40
0.0714285714285714
 40
0.0714285714285714
 40
0.0714285714285714
 40
0.0714285714285714
 10
810.3546255125367
 20
1968.605085024558
 30
0.0
 10
810.337140034856
 20
1968.539745683037
 30
0.0
 10
810.3190277077684
 20
1968.474762911024
 30
0.0
 10
810.3002822468054
 20
1968.410140722192
 30
0.0
  0
SPLINE
  5
16F
330
87
100
AcDbEntity
  8
P-SANR-FIXT
100
AcDbSpline
210
0.0
220
0.0
230
1.0
 70
     8
 71
     3
 72
     8
 73
     4
 74
     0
 42
0.000000001
 43
0.0000000001
 40
0.1389398826680878
 40
0.1389398826680878
 40
0.1389398826680878
 40
0.1389398826680878
 40
0.1428571428571428
 40
0.1428571428571428
 40
0.1428571428571428
 40
0.1428571428571428
 10
809.9805411980387
 20
1967.491895960611
 30
0.0
 10
809.9734571644088
 20
1967.474650377212
 30
0.0
 10
809.9663201033816
 20
1967.45743516315
 30
0.0
 10
809.9591298730462
 20
1967.440250409058
 30
0.0
  0
SPLINE
  5
170
330
87
100
AcDbEntity
  8
P-SANR-FIXT
100
AcDbSpline
210
0.0
220
0.0
230
1.0
 70
     8
 71
     3
 72
     8
 73
     4
 74
     0
 42
0.000000001
 43
0.0000000001
 40
0.2142857142857143
 40
0.2142857142857143
 40
0.2142857142857143
 40
0.2142857142857143
 40
0.222311017213492
 40
0.222311017213492
 40
0.222311017213492
 40
0.222311017213492
 10
809.5153492633871
 20
1966.532086291132
 30
0.0
 10
809.4969361537211
 20
1966.499325233375
 30
0.0
 10
809.4783324651235
 20
1966.466711080631
 30
0.0
 10
809.4595418583704
 20
1966.434245974249
 30
0.0
  0
SPLINE
  5
171
330
87
100
AcDbEntity
  8
P-SANR-FIXT
100
AcDbSpline
210
0.0
220
0.0
230
1.0
 70
     8
 71
     3
 72
     8
 73
     4
 74
     0
 42
0.000000001
 43
0.0000000001
 40
0.2857142857142857
 40
0.2857142857142857
 40
0.2857142857142857
 40
0.2857142857142857
 40
0.3077843517030347
 40
0.3077843517030347
 40
0.3077843517030347
 40
0.3077843517030347
 10
808.9809855500737
 20
1965.693746848078
 30
0.0
 10
808.9218164173562
 20
1965.611309964289
 30
0.0
 10
808.8614523839677
 20
1965.530128237533
 30
0.0
 10
808.7999217891692
 20
1965.450199147851
 30
0.0
  0
SPLINE
  5
172
330
87
100
AcDbEntity
  8
P-SANR-FIXT
100
AcDbSpline
210
0.0
220
0.0
230
1.0
 70
     8
 71
     3
 72
     8
 73
     4
 74
     0
 42
0.000000001
 43
0.0000000001
 40
0.3571428571428571
 40
0.3571428571428571
 40
0.3571428571428571
 40
0.3571428571428571
 40
0.4285714285714286
 40
0.4285714285714286
 40
0.4285714285714286
 40
0.4285714285714286
 10
808.3699049448325
 20
1964.932695645078
 30
0.0
 10
808.1543358008373
 20
1964.692102203147
 30
0.0
 10
807.9272112857168
 20
1964.46457057723
 30
0.0
 10
807.6894921118839
 20
1964.250015340297
 30
0.0
  0
SPLINE
  5
173
330
87
100
AcDbEntity
  8
P-SANR-FIXT
100
AcDbSpline
210
0.0
220
0.0
230
1.0
 70
     8
 71
     3
 72
     8
 73
     4
 74
     0
 42
0.000000001
 43
0.0000000001
 40
0.4806285490855532
 40
0.4806285490855532
 40
0.4806285490855532
 40
0.4806285490855532
 40
0.5
 40
0.5
 40
0.5
 40
0.5
 10
807.1526669333279
 20
1963.801602549895
 30
0.0
 10
807.0839370797751
 20
1963.74854967065
 30
0.0
 10
807.0144011053496
 20
1963.696453054391
 30
0.0
 10
806.9440490047856
 20
1963.645313390719
 30
0.0
  0
SPLINE
  5
174
330
87
100
AcDbEntity
  8
P-SANR-FIXT
100
AcDbSpline
210
0.0
220
0.0
230
1.0
 70
     8
 71
     3
 72
     8
 73
     4
 74
     0
 42
0.000000001
 43
0.0000000001
 40
0.5685728026472699
 40
0.5685728026472699
 40
0.5685728026472699
 40
0.5685728026472699
 40
0.5714285714285714
 40
0.5714285714285714
 40
0.5714285714285714
 40
0.5714285714285714
 10
806.1676650562665
 20
1963.143819289652
 30
0.0
 10
806.1564860359133
 20
1963.1374252452
 30
0.0
 10
806.1452898482153
 20
1963.131050466726
 30
0.0
 10
806.1340764064997
 20
1963.124694227788
 30
0.0
  0
SPLINE
  5
175
330
87
100
AcDbEntity
  8
P-SANR-FIXT
100
AcDbSpline
210
0.0
220
0.0
230
1.0
 70
     8
 71
     3
 72
     8
 73
     4
 74
     0
 42
0.000000001
 43
0.0000000001
 40
0.6428571428571427
 40
0.6428571428571427
 40
0.6428571428571427
 40
0.6428571428571427
 40
0.6542634331475112
 40
0.6542634331475112
 40
0.6542634331475112
 40
0.6542634331475112
 10
805.2606664886578
 20
1962.684916012957
 30
0.0
 10
805.2124984050285
 20
1962.66365546163
 30
0.0
 10
805.1640693924239
 20
1962.64278611918
 30
0.0
 10
805.1153840405588
 20
1962.622341056024
 30
0.0
  0
SPLINE
  5
176
330
87
100
AcDbEntity
  8
P-SANR-FIXT
100
AcDbSpline
210
0.0
220
0.0
230
1.0
 70
     8
 71
     3
 72
    10
 73
     6
 74
     0
 42
0.000000001
 43
0.0000000001
 40
0.7142857142857141
 40
0.7142857142857141
 40
0.7142857142857141
 40
0.7142857142857141
 40
0.71875
 40
0.7321428571428572
 40
0.7378879157300979
 40
0.7378879157300979
 40
0.7378879157300979
 40
0.7378879157300979
 10
804.3263684118079
 20
1962.339590730748
 30
0.0
 10
804.3063010248129
 20
1962.333638332316
 30
0.0
 10
804.2258262939212
 20
1962.310068359368
 30
0.0
 10
804.118182988142
 20
1962.279877015617
 30
0.0
 10
804.0298994640515
 20
1962.256295217868
 30
0.0
 10
804.003312443735
 20
1962.249301064298
 30
0.0
  0
SPLINE
  5
177
330
87
100
AcDbEntity
  8
P-SANR-FIXT
100
AcDbSpline
210
0.0
220
0.0
230
1.0
 70
     8
 71
     3
 72
    12
 73
     8
 74
     0
 42
0.000000001
 43
0.0000000001
 40
0.7857142857142857
 40
0.7857142857142857
 40
0.7857142857142857
 40
0.7857142857142857
 40
0.8392857142857142
 40
0.8526785714285713
 40
0.8660714285714284
 40
0.8928571428571427
 40
0.9285714285714282
 40
0.9285714285714282
 40
0.9285714285714282
 40
0.9285714285714282
 10
803.3246547919938
 20
1962.094542417119
 30
0.0
 10
803.0669015117194
 20
1962.045066330625
 30
0.0
 10
802.7401749686815
 20
1961.996023636084
 30
0.0
 10
802.3491447522687
 20
1961.962325159435
 30
0.0
 10
802.0892306675637
 20
1961.946661468257
 30
0.0
 10
801.7184532012768
 20
1961.937826494092
 30
0.0
 10
801.411873453396
 20
1961.938673844781
 30
0.0
 10
801.235349957006
 20
1961.947630802717
 30
0.0
  0
SPLINE
  5
178
330
87
100
AcDbEntity
  8
P-SANR-FIXT
100
AcDbSpline
210
0.0
220
0.0
230
1.0
 70
     8
 71
     3
 72
     8
 73
     4
 74
     0
 42
0.000000001
 43
0.0000000001
 40
0.9782441029217151
 40
0.9782441029217151
 40
0.9782441029217151
 40
0.9782441029217151
 40
1.0
 40
1.0
 40
1.0
 40
1.0
 10
800.4938156188242
 20
1962.016413664634
 30
0.0
 10
800.3849716993748
 20
1962.030160597913
 30
0.0
 10
800.2758350007418
 20
1962.045803459352
 30
0.0
 10
800.1664074431879
 20
1962.063380325347
 30
0.0
  0
SPLINE
  5
179
330
87
100
AcDbEntity
  8
P-SANR-FIXT
100
AcDbSpline
210
0.0
220
0.0
230
1.0
 70
     8
 71
     3
 72
     9
 73
     5
 74
     0
 42
0.000000001
 43
0.0000000001
 40
-1.0
 40
-1.0
 40
-1.0
 40
-1.0
 40
-0.5
 40
0.0
 40
0.0
 40
0.0
 40
0.0
 10
800.1664074431879
 20
1980.949992197247
 30
0.0
 10
800.26805496915
 20
1980.794011708986
 30
0.0
 10
800.4793368999989
 20
1980.46134424404
 30
0.0
 10
800.7065925886973
 20
1980.091325046008
 30
0.0
 10
800.8242138725089
 20
1979.898008355526
 30
0.0
  0
SPLINE
  5
17A
330
87
100
AcDbEntity
  8
P-SANR-FIXT
100
AcDbSpline
210
0.0
220
0.0
230
1.0
 70
     8
 71
     3
 72
     9
 73
     5
 74
     0
 42
0.000000001
 43
0.0000000001
 40
0.0
 40
0.0
 40
0.0
 40
0.0
 40
0.5
 40
1.0
 40
1.0
 40
1.0
 40
1.0
 10
800.1664074431879
 20
1979.811619674647
 30
0.0
 10
800.2747761785283
 20
1979.829993291276
 30
0.0
 10
800.4927793187556
 20
1979.862703807436
 30
0.0
 10
800.7133137980757
 20
1979.887529945858
 30
0.0
 10
800.8242138725089
 20
1979.898008355526
 30
0.0
  0
LINE
  5
17B
330
87
100
AcDbEntity
  8
P-SANR-FIXT
100
AcDbLine
 10
800.1664074431879
 20
1962.052706715737
 30
0.0
 11
800.1664074431879
 21
1962.068110368246
 31
0.0
  0
LINE
  5
17C
330
87
100
AcDbEntity
  8
P-SANR-FIXT
100
AcDbLine
 10
800.1664074431879
 20
1979.808604727419
 30
0.0
 11
800.1664074431879
 21
1979.824626669513
 31
0.0
  0
LINE
  5
17D
330
87
100
AcDbEntity
  8
P-SANR-FIXT
100
AcDbLine
 10
800.1664074431879
 20
1962.063380325347
 30
0.0
 11
800.1664074431879
 21
1959.437499999997
 31
0.0
  0
SPLINE
  5
17E
330
87
100
AcDbEntity
  8
P-SANR-FIXT
100
AcDbSpline
210
0.0
220
0.0
230
1.0
 70
     8
 71
     3
 72
     8
 73
     4
 74
     0
 42
0.000000001
 43
0.0000000001
 40
-0.5
 40
-0.5
 40
-0.5
 40
-0.5
 40
-0.4412988519887038
 40
-0.4412988519887038
 40
-0.4412988519887038
 40
-0.4412988519887038
 10
799.4262424065635
 20
1962.220754012607
 30
0.0
 10
799.3968395644875
 20
1962.22831049372
 30
0.0
 10
799.3673300492273
 20
1962.23635562667
 30
0.0
 10
799.3377376782436
 20
1962.244779399142
 30
0.0
  0
SPLINE
  5
17F
330
87
100
AcDbEntity
  8
P-SANR-FIXT
100
AcDbSpline
210
0.0
220
0.0
230
1.0
 70
     8
 71
     3
 72
     8
 73
     4
 74
     0
 42
0.000000001
 43
0.0000000001
 40
-0.5587011480111848
 40
-0.5587011480111848
 40
-0.5587011480111848
 40
-0.5587011480111848
 40
-0.5
 40
-0.5
 40
-0.5
 40
-0.5
 10
799.3378988447357
 20
1979.631063337362
 30
0.0
 10
799.3673909174618
 20
1979.63896265216
 30
0.0
 10
799.3968879635588
 20
1979.646833564996
 30
0.0
 10
799.4262424065635
 20
1979.654245987387
 30
0.0
  0
LINE
  5
180
330
87
100
AcDbEntity
  8
P-SANR-FIXT
100
AcDbLine
 10
800.1664074431879
 20
1980.949992197247
 30
0.0
 11
800.1664074431879
 21
1979.811619674647
 31
0.0
  0
SPLINE
  5
181
330
87
100
AcDbEntity
  8
P-SANR-FIXT
100
AcDbSpline
210
0.0
220
0.0
230
1.0
 70
     8
 71
     3
 72
     9
 73
     5
 74
     0
 42
0.000000001
 43
0.0000000001
 40
0.0
 40
0.0
 40
0.0
 40
0.0
 40
0.5
 40
1.0
 40
1.0
 40
1.0
 40
1.0
 10
799.1664074431877
 20
1983.437499999998
 30
0.0
 10
799.1664074431877
 20
1983.382334449044
 30
0.0
 10
799.3986935583309
 20
1982.912584264298
 30
0.0
 10
799.8947324983145
 20
1981.723995913877
 30
0.0
 10
800.1664074431879
 20
1980.949992197247
 30
0.0
  0
LINE
  5
182
330
87
100
AcDbEntity
  8
P-SANR-FIXT
100
AcDbLine
 10
798.6664074431878
 20
1962.444362036071
 30
0.0
 11
798.6664074431878
 21
1962.464410991441
 31
0.0
  0
LINE
  5
183
330
87
100
AcDbEntity
  8
P-SANR-FIXT
100
AcDbLine
 10
798.6664074431878
 20
1979.410589008553
 30
0.0
 11
798.6664074431878
 21
1979.430637963923
 31
0.0
  0
LINE
  5
184
330
87
100
AcDbEntity
  8
P-SANR-FIXT
100
AcDbLine
 10
798.6664074431878
 20
1962.452218625758
 30
0.0
 11
798.6664074431878
 21
1957.937499999997
 31
0.0
  0
SPLINE
  5
185
330
87
100
AcDbEntity
  8
P-SANR-FIXT
100
AcDbSpline
210
0.0
220
0.0
230
1.0
 70
     8
 71
     3
 72
     8
 73
     4
 74
     0
 42
0.000000001
 43
0.0000000001
 40
0.0
 40
0.0
 40
0.0
 40
0.0
 40
0.2
 40
0.2
 40
0.2
 40
0.2
 10
798.6664074431878
 20
1962.452218625758
 30
0.0
 10
797.9623380042926
 20
1962.713617677565
 30
0.0
 10
797.3115037497578
 20
1963.031650543022
 30
0.0
 10
796.7120677887985
 20
1963.423877798359
 30
0.0
  0
SPLINE
  5
186
330
87
100
AcDbEntity
  8
P-SANR-FIXT
100
AcDbSpline
210
0.0
220
0.0
230
1.0
 70
     8
 71
     3
 72
     8
 73
     4
 74
     0
 42
0.000000001
 43
0.0000000001
 40
0.2609592837200569
 40
0.2609592837200569
 40
0.2609592837200569
 40
0.2609592837200569
 40
0.3
 40
0.3
 40
0.3
 40
0.3
 10
796.1784308624523
 20
1963.802862569914
 30
0.0
 10
796.0676348745639
 20
1963.888036582714
 30
0.0
 10
795.9588702801428
 20
1963.975902882771
 30
0.0
 10
795.8521705806155
 20
1964.06636719197
 30
0.0
  0
SPLINE
  5
187
330
87
100
AcDbEntity
  8
P-SANR-FIXT
100
AcDbSpline
210
0.0
220
0.0
230
1.0
 70
     8
 71
     3
 72
     8
 73
     4
 74
     0
 42
0.000000001
 43
0.0000000001
 40
0.370574441655671
 40
0.370574441655671
 40
0.370574441655671
 40
0.370574441655671
 40
0.4
 40
0.4
 40
0.4
 40
0.4
 10
795.2939196070826
 20
1964.581853834364
 30
0.0
 10
795.2192147064809
 20
1964.656889599371
 30
0.0
 10
795.1457312217122
 20
1964.733312365899
 30
0.0
 10
795.073465459001
 20
1964.811072330209
 30
0.0
  0
SPLINE
  5
188
330
87
100
AcDbEntity
  8
P-SANR-FIXT
100
AcDbSpline
210
0.0
220
0.0
230
1.0
 70
     8
 71
     3
 72
     8
 73
     4
 74
     0
 42
0.000000001
 43
0.0000000001
 40
0.4773883834516642
 40
0.4773883834516642
 40
0.4773883834516642
 40
0.4773883834516642
 40
0.5
 40
0.5
 40
0.5
 40
0.5
 10
794.5304233746878
 20
1965.451883400758
 30
0.0
 10
794.4803179302748
 20
1965.516887442937
 30
0.0
 10
794.4310561644649
 20
1965.582624662976
 30
0.0
 10
794.3826876481518
 20
1965.649084666285
 30
0.0
  0
SPLINE
  5
189
330
87
100
AcDbEntity
  8
P-SANR-FIXT
100
AcDbSpline
210
0.0
220
0.0
230
1.0
 70
     8
 71
     3
 72
     8
 73
     4
 74
     0
 42
0.000000001
 43
0.0000000001
 40
0.5853646640995827
 40
0.5853646640995827
 40
0.5853646640995827
 40
0.5853646640995827
 40
0.6
 40
0.6
 40
0.6
 40
0.6
 10
793.8750172439676
 20
1966.432104716983
 30
0.0
 10
793.848314026111
 20
1966.478579658429
 30
0.0
 10
793.82201493085
 20
1966.525369044007
 30
0.0
 10
793.7960862228821
 20
1966.572470729749
 30
0.0
  0
SPLINE
  5
18A
330
87
100
AcDbEntity
  8
P-SANR-FIXT
100
AcDbSpline
210
0.0
220
0.0
230
1.0
 70
     8
 71
     3
 72
     8
 73
     4
 74
     0
 42
0.000000001
 43
0.0000000001
 40
0.6913327085847577
 40
0.6913327085847577
 40
0.6913327085847577
 40
0.6913327085847577
 40
0.7
 40
0.7
 40
0.7
 40
0.7
 10
793.3536459609658
 20
1967.490384835097
 30
0.0
 10
793.341106619113
 20
1967.520481014558
 30
0.0
 10
793.3286879524492
 20
1967.55065759532
 30
0.0
 10
793.3164784694012
 20
1967.580938830094
 30
0.0
  0
SPLINE
  5
18B
330
87
100
AcDbEntity
  8
P-SANR-FIXT
100
AcDbSpline
210
0.0
220
0.0
230
1.0
 70
     8
 71
     3
 72
     8
 73
     4
 74
     0
 42
0.000000001
 43
0.0000000001
 40
0.7955444769763021
 40
0.7955444769763021
 40
0.7955444769763021
 40
0.7955444769763021
 40
0.8
 40
0.8
 40
0.8
 40
0.8
 10
792.9730865374623
 20
1968.607278012297
 30
0.0
 10
792.9687758616819
 20
1968.623541378337
 30
0.0
 10
792.9644697708853
 20
1968.639804306381
 30
0.0
 10
792.9601787052097
 20
1968.656070365693
 30
0.0
  0
SPLINE
  5
18C
330
87
100
AcDbEntity
  8
P-SANR-FIXT
100
AcDbSpline
210
0.0
220
0.0
230
1.0
 70
     8
 71
     3
 72
     8
 73
     4
 74
     0
 42
0.000000001
 43
0.0000000001
 40
0.8989123098144101
 40
0.8989123098144101
 40
0.8989123098144101
 40
0.8989123098144101
 40
0.9
 40
0.9
 40
0.9
 40
0.9
 10
792.7475058435708
 20
1969.762894456449
 30
0.0
 10
792.7469676303279
 20
1969.767033616505
 30
0.0
 10
792.7464373442433
 20
1969.771175137289
 30
0.0
 10
792.74591481534
 20
1969.775318968198
 30
0.0
  0
SPLINE
  5
18D
330
87
100
AcDbEntity
  8
P-SANR-FIXT
100
AcDbSpline
210
0.0
220
0.0
230
1.0
 70
     8
 71
     3
 72
     8
 73
     4
 74
     0
 42
0.000000001
 43
0.0000000001
 40
0.1
 40
0.1
 40
0.1
 40
0.1
 40
0.1010876901856124
 40
0.1010876901856124
 40
0.1010876901856124
 40
0.1010876901856124
 10
792.7444328387569
 20
1972.098284138923
 30
0.0
 10
792.744961013532
 20
1972.10242050124
 30
0.0
 10
792.7454919053866
 20
1972.106556074677
 30
0.0
 10
792.7460255160817
 20
1972.110690858993
 30
0.0
  0
SPLINE
  5
18E
330
87
100
AcDbEntity
  8
P-SANR-FIXT
100
AcDbSpline
210
0.0
220
0.0
230
1.0
 70
     8
 71
     3
 72
     8
 73
     4
 74
     0
 42
0.000000001
 43
0.0000000001
 40
0.2
 40
0.2
 40
0.2
 40
0.2
 40
0.2044555230237136
 40
0.2044555230237136
 40
0.2044555230237136
 40
0.2044555230237136
 10
792.9603783107511
 20
1973.218959345496
 30
0.0
 10
792.9646484923125
 20
1973.235301434463
 30
0.0
 10
792.9689670281502
 20
1973.251629865438
 30
0.0
 10
792.9733335207973
 20
1973.267944230995
 30
0.0
  0
SPLINE
  5
18F
330
87
100
AcDbEntity
  8
P-SANR-FIXT
100
AcDbSpline
210
0.0
220
0.0
230
1.0
 70
     8
 71
     3
 72
     8
 73
     4
 74
     0
 42
0.000000001
 43
0.0000000001
 40
0.3
 40
0.3
 40
0.3
 40
0.3
 40
0.3086672914152633
 40
0.3086672914152633
 40
0.3086672914152633
 40
0.3086672914152633
 10
793.3164784694012
 20
1974.2940611699
 30
0.0
 10
793.328623562002
 20
1974.324254326377
 30
0.0
 10
793.3409173890598
 20
1974.354361803037
 30
0.0
 10
793.3533595057816
 20
1974.3843817785
 30
0.0
  0
SPLINE
  5
190
330
87
100
AcDbEntity
  8
P-SANR-FIXT
100
AcDbSpline
210
0.0
220
0.0
230
1.0
 70
     8
 71
     3
 72
     8
 73
     4
 74
     0
 42
0.000000001
 43
0.0000000001
 40
0.4
 40
0.4
 40
0.4
 40
0.4
 40
0.4146353359004395
 40
0.4146353359004395
 40
0.4146353359004395
 40
0.4146353359004395
 10
793.7955692906497
 20
1975.302119889123
 30
0.0
 10
793.8217443639445
 20
1975.349384408198
 30
0.0
 10
793.8483311176873
 20
1975.396341492364
 30
0.0
 10
793.8753185272253
 20
1975.44299085136
 30
0.0
  0
SPLINE
  5
191
330
87
100
AcDbEntity
  8
P-SANR-FIXT
100
AcDbSpline
210
0.0
220
0.0
230
1.0
 70
     8
 71
     3
 72
     8
 73
     4
 74
     0
 42
0.000000001
 43
0.0000000001
 40
0.5
 40
0.5
 40
0.5
 40
0.5
 40
0.522611616548356
 40
0.522611616548356
 40
0.522611616548356
 40
0.522611616548356
 10
794.3857696223441
 20
1976.228359513604
 30
0.0
 10
794.4341068636709
 20
1976.294871364652
 30
0.0
 10
794.4833005335205
 20
1976.360582469546
 30
0.0
 10
794.5332824945067
 20
1976.425525415974
 30
0.0
  0
SPLINE
  5
192
330
87
100
AcDbEntity
  8
P-SANR-FIXT
100
AcDbSpline
210
0.0
220
0.0
230
1.0
 70
     8
 71
     3
 72
     8
 73
     4
 74
     0
 42
0.000000001
 43
0.0000000001
 40
0.6
 40
0.6
 40
0.6
 40
0.6
 40
0.629425558344329
 40
0.629425558344329
 40
0.629425558344329
 40
0.629425558344329
 10
795.0734197768086
 20
1977.064786901378
 30
0.0
 10
795.1452815687146
 20
1977.142256241027
 30
0.0
 10
795.2183085932029
 20
1977.218526673596
 30
0.0
 10
795.292604039846
 20
1977.293465518537
 30
0.0
  0
SPLINE
  5
193
330
87
100
AcDbEntity
  8
P-SANR-FIXT
100
AcDbSpline
210
0.0
220
0.0
230
1.0
 70
     8
 71
     3
 72
     8
 73
     4
 74
     0
 42
0.000000001
 43
0.0000000001
 40
0.7
 40
0.7
 40
0.7
 40
0.7
 40
0.7390407162799704
 40
0.7390407162799704
 40
0.7390407162799704
 40
0.7390407162799704
 10
795.8504889060224
 20
1977.807857082445
 30
0.0
 10
795.9573764985015
 20
1977.898474504635
 30
0.0
 10
796.0671293691212
 20
1977.98590216876
 30
0.0
 10
796.1785401657806
 20
1978.071033397219
 30
0.0
  0
SPLINE
  5
194
330
87
100
AcDbEntity
  8
P-SANR-FIXT
100
AcDbSpline
210
0.0
220
0.0
230
1.0
 70
     8
 71
     3
 72
     9
 73
     5
 74
     0
 42
0.000000001
 43
0.0000000001
 40
0.8
 40
0.8
 40
0.8
 40
0.8
 40
0.85
 40
1.0
 40
1.0
 40
1.0
 40
1.0
 10
796.7121276712665
 20
1978.451250504045
 30
0.0
 10
796.8619462364423
 20
1978.548901862572
 30
0.0
 10
797.4734942932409
 20
1978.92048402607
 30
0.0
 10
798.1383553640165
 20
1979.226732085381
 30
0.0
 10
798.6664074431878
 20
1979.422781374236
 30
0.0
  0
LINE
  5
195
330
87
100
AcDbEntity
  8
P-SANR-FIXT
100
AcDbLine
 10
798.6664074431878
 20
1983.937499999997
 30
0.0
 11
798.6664074431878
 21
1979.422781374236
 31
0.0
  0
LINE
  5
196
330
87
100
AcDbEntity
  8
P-SANR-FIXT
100
AcDbLine
 10
790.3097831161618
 20
1983.937499999997
 30
0.0
 11
790.3097831161618
 21
1957.937499999997
 31
0.0
  0
SPLINE
  5
197
330
87
100
AcDbEntity
  8
P-SANR-FIXT
100
AcDbSpline
210
0.0
220
0.0
230
1.0
 70
     8
 71
     3
 72
     9
 73
     5
 74
     0
 42
0.000000001
 43
0.0000000001
 40
-1.0
 40
-1.0
 40
-1.0
 40
-1.0
 40
-0.5
 40
0.0
 40
0.0
 40
0.0
 40
0.0
 10
788.866407443188
 20
1986.387889326891
 30
0.0
 10
789.443721167229
 20
1985.262024466107
 30
0.0
 10
790.02103489127
 20
1983.027481714018
 30
0.0
 10
789.443721167229
 20
1980.827312900891
 30
0.0
 10
788.866407443188
 20
1979.735821979067
 30
0.0
  0
SPLINE
  5
198
330
87
100
AcDbEntity
  8
P-SANR-FIXT
100
AcDbSpline
210
0.0
220
0.0
230
1.0
 70
     8
 71
     3
 72
     9
 73
     5
 74
     0
 42
0.000000001
 43
0.0000000001
 40
-1.0
 40
-1.0
 40
-1.0
 40
-1.0
 40
-0.5
 40
0.0
 40
0.0
 40
0.0
 40
0.0
 10
788.866407443188
 20
1977.589567347822
 30
0.0
 10
789.443721167229
 20
1975.337837626253
 30
0.0
 10
790.0210348912701
 20
1970.868752122075
 30
0.0
 10
789.443721167229
 20
1966.468414495819
 30
0.0
 10
788.866407443188
 20
1964.285432652172
 30
0.0
  0
SPLINE
  5
199
330
87
100
AcDbEntity
  8
P-SANR-FIXT
100
AcDbSpline
210
0.0
220
0.0
230
1.0
 70
     8
 71
     3
 72
     9
 73
     5
 74
     0
 42
0.000000001
 43
0.0000000001
 40
-1.0
 40
-1.0
 40
-1.0
 40
-1.0
 40
-0.5
 40
0.0
 40
0.0
 40
0.0
 40
0.0
 10
788.866407443188
 20
1962.139178020928
 30
0.0
 10
789.4437211672291
 20
1961.013313160143
 30
0.0
 10
790.0210348912702
 20
1958.778770408054
 30
0.0
 10
789.4437211672291
 20
1956.578601594926
 30
0.0
 10
788.866407443188
 20
1955.487110673103
 30
0.0
  0
LINE
  5
19A
330
87
100
AcDbEntity
  8
P-SANR-FIXT
100
AcDbLine
 10
788.8664074431877
 20
1955.487110673103
 30
0.0
 11
788.8664074431877
 21
1955.437499999997
 31
0.0
  0
LINE
  5
19B
330
87
100
AcDbEntity
  8
P-SANR-FIXT
100
AcDbLine
 10
788.866407443188
 20
1955.487110673103
 30
0.0
 11
783.1664074431879
 21
1955.487110673103
 31
0.0
  0
LINE
  5
19C
330
87
100
AcDbEntity
  8
P-SANR-FIXT
100
AcDbLine
 10
783.1664074431879
 20
1986.387889326891
 30
0.0
 11
788.866407443188
 21
1986.387889326891
 31
0.0
  0
LINE
  5
19D
330
87
100
AcDbEntity
  8
P-SANR-FIXT
100
AcDbLine
 10
788.866407443188
 20
1986.437499999997
 30
0.0
 11
788.866407443188
 21
1986.387889326891
 31
0.0
  0
LINE
  5
19E
330
87
100
AcDbEntity
  8
P-SANR-FIXT
100
AcDbLine
 10
783.1664074431879
 20
1962.139178020928
 30
0.0
 11
788.866407443188
 21
1962.139178020928
 31
0.0
  0
LINE
  5
19F
330
87
100
AcDbEntity
  8
P-SANR-FIXT
100
AcDbLine
 10
788.866407443188
 20
1964.285432652172
 30
0.0
 11
788.866407443188
 21
1962.139178020928
 31
0.0
  0
LINE
  5
1A0
330
87
100
AcDbEntity
  8
P-SANR-FIXT
100
AcDbLine
 10
788.866407443188
 20
1964.285432652172
 30
0.0
 11
783.1664074431879
 21
1964.285432652172
 31
0.0
  0
LINE
  5
1A1
330
87
100
AcDbEntity
  8
P-SANR-FIXT
100
AcDbLine
 10
783.1664074431879
 20
1977.589567347822
 30
0.0
 11
788.866407443188
 21
1977.589567347822
 31
0.0
  0
LINE
  5
1A2
330
87
100
AcDbEntity
  8
P-SANR-FIXT
100
AcDbLine
 10
788.866407443188
 20
1979.735821979067
 30
0.0
 11
788.866407443188
 21
1977.589567347822
 31
0.0
  0
LINE
  5
1A3
330
87
100
AcDbEntity
  8
P-SANR-FIXT
100
AcDbLine
 10
788.866407443188
 20
1979.735821979067
 30
0.0
 11
783.1664074431879
 21
1979.735821979067
 31
0.0
  0
LINE
  5
1A4
330
87
100
AcDbEntity
  8
P-SANR-FIXT
100
AcDbLine
 10
810.5405271178373
 20
1969.437499999997
 30
0.0
 11
820.7922877685385
 21
1969.437499999997
 31
0.0
  0
LINE
  5
1A5
330
87
100
AcDbEntity
  8
P-SANR-FIXT
100
AcDbLine
 10
783.1664074431879
 20
1955.487110673103
 30
0.0
 11
783.1664074431879
 21
1955.437499999997
 31
0.0
  0
LINE
  5
1A6
330
87
100
AcDbEntity
  8
P-SANR-FIXT
100
AcDbLine
 10
783.1664074431879
 20
1955.487110673103
 30
0.0
 11
783.1664074431879
 21
1962.139178020928
 31
0.0
  0
LINE
  5
1A7
330
87
100
AcDbEntity
  8
P-SANR-FIXT
100
AcDbLine
 10
783.1664074431879
 20
1964.285432652172
 30
0.0
 11
783.1664074431879
 21
1962.139178020928
 31
0.0
  0
LINE
  5
1A8
330
87
100
AcDbEntity
  8
P-SANR-FIXT
100
AcDbLine
 10
783.1664074431879
 20
1964.285432652172
 30
0.0
 11
783.1664074431879
 21
1977.589567347822
 31
0.0
  0
LINE
  5
1A9
330
87
100
AcDbEntity
  8
P-SANR-FIXT
100
AcDbLine
 10
783.1664074431879
 20
1979.735821979067
 30
0.0
 11
783.1664074431879
 21
1977.589567347822
 31
0.0
  0
LINE
  5
1AA
330
87
100
AcDbEntity
  8
P-SANR-FIXT
100
AcDbLine
 10
783.1664074431879
 20
1979.735821979067
 30
0.0
 11
783.1664074431879
 21
1986.387889326891
 31
0.0
  0
LINE
  5
1AB
330
87
100
AcDbEntity
  8
P-SANR-FIXT
100
AcDbLine
 10
783.1664074431879
 20
1986.437499999997
 30
0.0
 11
783.1664074431879
 21
1986.387889326891
 31
0.0
  0
LINE
  5
1AC
330
87
100
AcDbEntity
  8
P-SANR-FIXT
100
AcDbLine
 10
848.1664074431877
 20
1986.387889326892
 30
0.0
 11
848.1664074431877
 21
1979.735821979067
 31
0.0
  0
LINE
  5
1AD
330
87
100
AcDbEntity
  8
P-SANR-FIXT
100
AcDbLine
 10
848.1664074431877
 20
1977.589567347823
 30
0.0
 11
848.1664074431877
 21
1964.285432652171
 31
0.0
  0
LINE
  5
1AE
330
87
100
AcDbEntity
  8
P-SANR-FIXT
100
AcDbLine
 10
848.1664074431877
 20
1962.139178020928
 30
0.0
 11
848.1664074431877
 21
1955.487110673102
 31
0.0
  0
LINE
  5
1AF
330
87
100
AcDbEntity
  8
P-SANR-FIXT
100
AcDbLine
 10
848.1664074431877
 20
1979.735821979067
 30
0.0
 11
848.1664074431877
 21
1977.589567347823
 31
0.0
  0
LINE
  5
1B0
330
87
100
AcDbEntity
  8
P-SANR-FIXT
100
AcDbLine
 10
848.1664074431877
 20
1979.735821979067
 30
0.0
 11
842.4664074431879
 21
1979.735821979067
 31
0.0
  0
LINE
  5
1B1
330
87
100
AcDbEntity
  8
P-SANR-FIXT
100
AcDbLine
 10
842.4664074431879
 20
1977.589567347823
 30
0.0
 11
848.1664074431877
 21
1977.589567347823
 31
0.0
  0
LINE
  5
1B2
330
87
100
AcDbEntity
  8
P-SANR-FIXT
100
AcDbLine
 10
848.1664074431877
 20
1964.285432652172
 30
0.0
 11
848.1664074431877
 21
1962.139178020928
 31
0.0
  0
LINE
  5
1B3
330
87
100
AcDbEntity
  8
P-SANR-FIXT
100
AcDbLine
 10
848.1664074431877
 20
1964.285432652171
 30
0.0
 11
842.4664074431879
 21
1964.285432652171
 31
0.0
  0
LINE
  5
1B4
330
87
100
AcDbEntity
  8
P-SANR-FIXT
100
AcDbLine
 10
842.4664074431879
 20
1962.139178020928
 30
0.0
 11
848.1664074431877
 21
1962.139178020928
 31
0.0
  0
LINE
  5
1B5
330
87
100
AcDbEntity
  8
P-SANR-FIXT
100
AcDbLine
 10
842.4664074431879
 20
1986.387889326892
 30
0.0
 11
848.1664074431877
 21
1986.387889326892
 31
0.0
  0
LINE
  5
1B6
330
87
100
AcDbEntity
  8
P-SANR-FIXT
100
AcDbLine
 10
848.1664074431877
 20
1986.437499999997
 30
0.0
 11
848.1664074431877
 21
1986.387889326892
 31
0.0
  0
LINE
  5
1B7
330
87
100
AcDbEntity
  8
P-SANR-FIXT
100
AcDbLine
 10
848.1664074431877
 20
1955.487110673102
 30
0.0
 11
848.1664074431877
 21
1955.437499999997
 31
0.0
  0
LINE
  5
1B8
330
87
100
AcDbEntity
  8
P-SANR-FIXT
100
AcDbLine
 10
848.1664074431877
 20
1955.487110673102
 30
0.0
 11
842.4664074431879
 21
1955.487110673102
 31
0.0
  0
LINE
  5
1B9
330
87
100
AcDbEntity
  8
P-SANR-FIXT
100
AcDbLine
 10
842.4664074431877
 20
1955.487110673102
 30
0.0
 11
842.4664074431877
 21
1955.437499999997
 31
0.0
  0
SPLINE
  5
1BA
330
87
100
AcDbEntity
  8
P-SANR-FIXT
100
AcDbSpline
210
0.0
220
0.0
230
1.0
 70
     8
 71
     3
 72
     9
 73
     5
 74
     0
 42
0.000000001
 43
0.0000000001
 40
-1.0
 40
-1.0
 40
-1.0
 40
-1.0
 40
-0.5
 40
0.0
 40
0.0
 40
0.0
 40
0.0
 10
842.4664074431879
 20
1955.487110673102
 30
0.0
 10
841.8890937191466
 20
1956.578601594926
 30
0.0
 10
841.3117799951052
 20
1958.778770408054
 30
0.0
 10
841.8890937191466
 20
1961.013313160143
 30
0.0
 10
842.4664074431879
 20
1962.139178020928
 30
0.0
  0
LINE
  5
1BB
330
87
100
AcDbEntity
  8
P-SANR-FIXT
100
AcDbLine
 10
842.4664074431879
 20
1964.285432652172
 30
0.0
 11
842.4664074431879
 21
1962.139178020928
 31
0.0
  0
SPLINE
  5
1BC
330
87
100
AcDbEntity
  8
P-SANR-FIXT
100
AcDbSpline
210
0.0
220
0.0
230
1.0
 70
     8
 71
     3
 72
     9
 73
     5
 74
     0
 42
0.000000001
 43
0.0000000001
 40
-1.0
 40
-1.0
 40
-1.0
 40
-1.0
 40
-0.5
 40
0.0
 40
0.0
 40
0.0
 40
0.0
 10
842.4664074431879
 20
1964.285432652171
 30
0.0
 10
841.8890937191466
 20
1966.468414495819
 30
0.0
 10
841.3117799951052
 20
1970.868752122075
 30
0.0
 10
841.8890937191466
 20
1975.337837626253
 30
0.0
 10
842.4664074431879
 20
1977.589567347823
 30
0.0
  0
LINE
  5
1BD
330
87
100
AcDbEntity
  8
P-SANR-FIXT
100
AcDbLine
 10
842.4664074431879
 20
1979.735821979067
 30
0.0
 11
842.4664074431879
 21
1977.589567347823
 31
0.0
  0
SPLINE
  5
1BE
330
87
100
AcDbEntity
  8
P-SANR-FIXT
100
AcDbSpline
210
0.0
220
0.0
230
1.0
 70
     8
 71
     3
 72
     9
 73
     5
 74
     0
 42
0.000000001
 43
0.0000000001
 40
-1.0
 40
-1.0
 40
-1.0
 40
-1.0
 40
-0.5
 40
0.0
 40
0.0
 40
0.0
 40
0.0
 10
842.4664074431879
 20
1979.735821979067
 30
0.0
 10
841.8890937191466
 20
1980.82731290089
 30
0.0
 10
841.3117799951052
 20
1983.027481714018
 30
0.0
 10
841.8890937191466
 20
1985.262024466107
 30
0.0
 10
842.4664074431879
 20
1986.387889326892
 30
0.0
  0
LINE
  5
1BF
330
87
100
AcDbEntity
  8
P-SANR-FIXT
100
AcDbLine
 10
842.4664074431879
 20
1986.437499999997
 30
0.0
 11
842.4664074431879
 21
1986.387889326892
 31
0.0
  0
LINE
  5
1C0
330
87
100
AcDbEntity
  8
P-SANR-FIXT
100
AcDbLine
 10
841.0230317702138
 20
1983.937499999997
 30
0.0
 11
841.0230317702138
 21
1957.937499999997
 31
0.0
  0
SPLINE
  5
1C1
330
87
100
AcDbEntity
  8
P-SANR-FIXT
100
AcDbSpline
210
0.0
220
0.0
230
1.0
 70
     8
 71
     3
 72
     8
 73
     4
 74
     0
 42
0.000000001
 43
0.0000000001
 40
0.0
 40
0.0
 40
0.0
 40
0.0
 40
0.2
 40
0.2
 40
0.2
 40
0.2
 10
832.6664074431876
 20
1979.422781374235
 30
0.0
 10
833.370476882083
 20
1979.161382322429
 30
0.0
 10
834.021311136618
 20
1978.843349456972
 30
0.0
 10
834.6207470975773
 20
1978.451122201635
 30
0.0
  0
SPLINE
  5
1C2
330
87
100
AcDbEntity
  8
P-SANR-FIXT
100
AcDbSpline
210
0.0
220
0.0
230
1.0
 70
     8
 71
     3
 72
     8
 73
     4
 74
     0
 42
0.000000001
 43
0.0000000001
 40
0.2609592837200296
 40
0.2609592837200296
 40
0.2609592837200296
 40
0.2609592837200296
 40
0.3
 40
0.3
 40
0.3
 40
0.3
 10
835.1543840239234
 20
1978.07213743008
 30
0.0
 10
835.2651800118115
 20
1977.986963417281
 30
0.0
 10
835.3739446062329
 20
1977.899097117223
 30
0.0
 10
835.4806443057603
 20
1977.808632808024
 30
0.0
  0
SPLINE
  5
1C3
330
87
100
AcDbEntity
  8
P-SANR-FIXT
100
AcDbSpline
210
0.0
220
0.0
230
1.0
 70
     8
 71
     3
 72
     8
 73
     4
 74
     0
 42
0.000000001
 43
0.0000000001
 40
0.370574441655671
 40
0.370574441655671
 40
0.370574441655671
 40
0.370574441655671
 40
0.4
 40
0.4
 40
0.4
 40
0.4
 10
836.0388952792931
 20
1977.293146165631
 30
0.0
 10
836.113600179895
 20
1977.218110400623
 30
0.0
 10
836.1870836646636
 20
1977.141687634095
 30
0.0
 10
836.2593494273747
 20
1977.063927669785
 30
0.0
  0
SPLINE
  5
1C4
330
87
100
AcDbEntity
  8
P-SANR-FIXT
100
AcDbSpline
210
0.0
220
0.0
230
1.0
 70
     8
 71
     3
 72
     8
 73
     4
 74
     0
 42
0.000000001
 43
0.0000000001
 40
0.477388383451644
 40
0.477388383451644
 40
0.477388383451644
 40
0.477388383451644
 40
0.5
 40
0.5
 40
0.5
 40
0.5
 10
836.8023915116877
 20
1976.423116599237
 30
0.0
 10
836.8524969561008
 20
1976.358112557057
 30
0.0
 10
836.9017587219108
 20
1976.292375337019
 30
0.0
 10
836.950127238224
 20
1976.225915333709
 30
0.0
  0
SPLINE
  5
1C5
330
87
100
AcDbEntity
  8
P-SANR-FIXT
100
AcDbSpline
210
0.0
220
0.0
230
1.0
 70
     8
 71
     3
 72
     8
 73
     4
 74
     0
 42
0.000000001
 43
0.0000000001
 40
0.5853646640995645
 40
0.5853646640995645
 40
0.5853646640995645
 40
0.5853646640995645
 40
0.6
 40
0.6
 40
0.6
 40
0.6
 10
837.4577976424081
 20
1975.442895283011
 30
0.0
 10
837.4845008602646
 20
1975.396420341565
 30
0.0
 10
837.5107999555256
 20
1975.349630955987
 30
0.0
 10
837.5367286634936
 20
1975.302529270245
 30
0.0
  0
SPLINE
  5
1C6
330
87
100
AcDbEntity
  8
P-SANR-FIXT
100
AcDbSpline
210
0.0
220
0.0
230
1.0
 70
     8
 71
     3
 72
     8
 73
     4
 74
     0
 42
0.000000001
 43
0.0000000001
 40
0.691332708584733
 40
0.691332708584733
 40
0.691332708584733
 40
0.691332708584733
 40
0.7
 40
0.7
 40
0.7
 40
0.7
 10
837.9791689254098
 20
1974.384615164897
 30
0.0
 10
837.9917082672625
 20
1974.354518985436
 30
0.0
 10
838.0041269339264
 20
1974.324342404674
 30
0.0
 10
838.0163364169746
 20
1974.2940611699
 30
0.0
  0
SPLINE
  5
1C7
330
87
100
AcDbEntity
  8
P-SANR-FIXT
100
AcDbSpline
210
0.0
220
0.0
230
1.0
 70
     8
 71
     3
 72
     8
 73
     4
 74
     0
 42
0.000000001
 43
0.0000000001
 40
0.7955444769762864
 40
0.7955444769762864
 40
0.7955444769762864
 40
0.7955444769762864
 40
0.8
 40
0.8
 40
0.8
 40
0.8
 10
838.3597283489132
 20
1973.267721987698
 30
0.0
 10
838.3640390246936
 20
1973.251458621657
 30
0.0
 10
838.3683451154904
 20
1973.235195693613
 30
0.0
 10
838.372636181166
 20
1973.218929634301
 30
0.0
  0
SPLINE
  5
1C8
330
87
100
AcDbEntity
  8
P-SANR-FIXT
100
AcDbSpline
210
0.0
220
0.0
230
1.0
 70
     8
 71
     3
 72
     8
 73
     4
 74
     0
 42
0.000000001
 43
0.0000000001
 40
0.8989123098143874
 40
0.8989123098143874
 40
0.8989123098143874
 40
0.8989123098143874
 40
0.9
 40
0.9
 40
0.9
 40
0.9
 10
838.5853090428048
 20
1972.112105543546
 30
0.0
 10
838.5858472560476
 20
1972.10796638349
 30
0.0
 10
838.5863775421324
 20
1972.103824862706
 30
0.0
 10
838.5869000710357
 20
1972.099681031796
 30
0.0
  0
SPLINE
  5
1C9
330
87
100
AcDbEntity
  8
P-SANR-FIXT
100
AcDbSpline
210
0.0
220
0.0
230
1.0
 70
     8
 71
     3
 72
     8
 73
     4
 74
     0
 42
0.000000001
 43
0.0000000001
 40
0.1
 40
0.1
 40
0.1
 40
0.1
 40
0.1010876901856086
 40
0.1010876901856086
 40
0.1010876901856086
 40
0.1010876901856086
 10
838.5883820476188
 20
1969.776715861071
 30
0.0
 10
838.5878538728436
 20
1969.772579498753
 30
0.0
 10
838.5873229809888
 20
1969.768443925317
 30
0.0
 10
838.5867893702938
 20
1969.764309141001
 30
0.0
  0
SPLINE
  5
1CA
330
87
100
AcDbEntity
  8
P-SANR-FIXT
100
AcDbSpline
210
0.0
220
0.0
230
1.0
 70
     8
 71
     3
 72
     8
 73
     4
 74
     0
 42
0.000000001
 43
0.0000000001
 40
0.2
 40
0.2
 40
0.2
 40
0.2
 40
0.2044555230237058
 40
0.2044555230237058
 40
0.2044555230237058
 40
0.2044555230237058
 10
838.3724365756243
 20
1968.656040654497
 30
0.0
 10
838.3681663940629
 20
1968.639698565532
 30
0.0
 10
838.3638478582255
 20
1968.623370134556
 30
0.0
 10
838.3594813655783
 20
1968.607055768998
 30
0.0
  0
SPLINE
  5
1CB
330
87
100
AcDbEntity
  8
P-SANR-FIXT
100
AcDbSpline
210
0.0
220
0.0
230
1.0
 70
     8
 71
     3
 72
     8
 73
     4
 74
     0
 42
0.000000001
 43
0.0000000001
 40
0.3
 40
0.3
 40
0.3
 40
0.3
 40
0.3086672914152591
 40
0.3086672914152591
 40
0.3086672914152591
 40
0.3086672914152591
 10
838.0163364169742
 20
1967.580938830094
 30
0.0
 10
838.0041913243736
 20
1967.550745673617
 30
0.0
 10
837.9918974973158
 20
1967.520638196957
 30
0.0
 10
837.979455380594
 20
1967.490618221494
 30
0.0
  0
SPLINE
  5
1CC
330
87
100
AcDbEntity
  8
P-SANR-FIXT
100
AcDbSpline
210
0.0
220
0.0
230
1.0
 70
     8
 71
     3
 72
     8
 73
     4
 74
     0
 42
0.000000001
 43
0.0000000001
 40
0.4
 40
0.4
 40
0.4
 40
0.4
 40
0.4146353359004264
 40
0.4146353359004264
 40
0.4146353359004264
 40
0.4146353359004264
 10
837.5372455957259
 20
1966.572880110871
 30
0.0
 10
837.5110705224312
 20
1966.525615591796
 30
0.0
 10
837.4844837686884
 20
1966.47865850763
 30
0.0
 10
837.4574963591504
 20
1966.432009148634
 30
0.0
  0
SPLINE
  5
1CD
330
87
100
AcDbEntity
  8
P-SANR-FIXT
100
AcDbSpline
210
0.0
220
0.0
230
1.0
 70
     8
 71
     3
 72
     8
 73
     4
 74
     0
 42
0.000000001
 43
0.0000000001
 40
0.5
 40
0.5
 40
0.5
 40
0.5
 40
0.522611616548356
 40
0.522611616548356
 40
0.522611616548356
 40
0.522611616548356
 10
836.9470452640314
 20
1965.64664048639
 30
0.0
 10
836.8987080227046
 20
1965.580128635342
 30
0.0
 10
836.8495143528551
 20
1965.514417530448
 30
0.0
 10
836.7995323918689
 20
1965.44947458402
 30
0.0
  0
SPLINE
  5
1CE
330
87
100
AcDbEntity
  8
P-SANR-FIXT
100
AcDbSpline
210
0.0
220
0.0
230
1.0
 70
     8
 71
     3
 72
     8
 73
     4
 74
     0
 42
0.000000001
 43
0.0000000001
 40
0.6
 40
0.6
 40
0.6
 40
0.6
 40
0.629425558344329
 40
0.629425558344329
 40
0.629425558344329
 40
0.629425558344329
 10
836.259395109567
 20
1964.810213098616
 30
0.0
 10
836.1875333176611
 20
1964.732743758967
 30
0.0
 10
836.1145062931727
 20
1964.656473326398
 30
0.0
 10
836.0402108465297
 20
1964.581534481457
 30
0.0
  0
SPLINE
  5
1CF
330
87
100
AcDbEntity
  8
P-SANR-FIXT
100
AcDbSpline
210
0.0
220
0.0
230
1.0
 70
     8
 71
     3
 72
     8
 73
     4
 74
     0
 42
0.000000001
 43
0.0000000001
 40
0.7
 40
0.7
 40
0.7
 40
0.7
 40
0.7390407162799627
 40
0.7390407162799627
 40
0.7390407162799627
 40
0.7390407162799627
 10
835.4823259803533
 20
1964.067142917549
 30
0.0
 10
835.3754383878742
 20
1963.976525495359
 30
0.0
 10
835.2656855172545
 20
1963.889097831234
 30
0.0
 10
835.154274720595
 20
1963.803966602776
 30
0.0
  0
SPLINE
  5
1D0
330
87
100
AcDbEntity
  8
P-SANR-FIXT
100
AcDbSpline
210
0.0
220
0.0
230
1.0
 70
     8
 71
     3
 72
     9
 73
     5
 74
     0
 42
0.000000001
 43
0.0000000001
 40
0.8
 40
0.8
 40
0.8
 40
0.8
 40
0.85
 40
1.0
 40
1.0
 40
1.0
 40
1.0
 10
834.6206872151089
 20
1963.423749495949
 30
0.0
 10
834.4708686499332
 20
1963.326098137422
 30
0.0
 10
833.8593205931346
 20
1962.954515973924
 30
0.0
 10
833.1944595223591
 20
1962.648267914613
 30
0.0
 10
832.6664074431876
 20
1962.452218625758
 30
0.0
  0
ARC
  5
1D1
330
87
100
AcDbEntity
  8
P-SANR-FIXT
100
AcDbCircle
 10
801.6664074431876
 20
1970.937499999997
 30
0.0
 40
9.0
100
AcDbArc
 50
180.0
 51
0.0
  0
ARC
  5
1D2
330
87
100
AcDbEntity
  8
P-SANR-FIXT
100
AcDbCircle
 10
801.6664074431876
 20
1970.937499999997
 30
0.0
 40
9.0
100
AcDbArc
 50
0.0
 51
180.0
  0
ARC
  5
1D3
330
87
100
AcDbEntity
  8
P-SANR-FIXT
100
AcDbCircle
 10
829.6664074431877
 20
1970.937499999997
 30
0.0
 40
9.0
100
AcDbArc
 50
180.0
 51
359.9999999999982
  0
ARC
  5
1D4
330
87
100
AcDbEntity
  8
P-SANR-FIXT
100
AcDbCircle
 10
829.6664074431877
 20
1970.937499999997
 30
0.0
 40
9.0
100
AcDbArc
 50
0.0
 51
180.0
  0
LINE
  5
1D5
330
87
100
AcDbEntity
  8
P-SANR-FIXT
100
AcDbLine
 10
833.9711331423817
 20
2000.437499999996
 30
0.0
 11
797.3616817439938
 21
2000.437499999996
 31
0.0
  0
SPLINE
  5
1D6
330
87
100
AcDbEntity
  8
P-SANR-FIXT
100
AcDbSpline
210
0.0
220
0.0
230
1.0
 70
     8
 71
     3
 72
    25
 73
    21
 74
     0
 42
0.000000001
 43
0.0000000001
 40
0.0
 40
0.0
 40
0.0
 40
0.0
 40
0.1111111111111111
 40
0.2222222222222222
 40
0.2777777777777778
 40
0.3333333333333333
 40
0.3611111111111111
 40
0.3888888888888888
 40
0.4444444444444445
 40
0.4791666666666666
 40
0.5138888888888889
 40
0.5486111111111111
 40
0.5833333333333333
 40
0.6180555555555555
 40
0.6527777777777777
 40
0.6875
 40
0.7222222222222223
 40
0.7916666666666668
 40
0.861111111111111
 40
1.0
 40
1.0
 40
1.0
 40
1.0
 10
798.9797387278285
 20
2037.934701883422
 30
0.0
 10
798.9797387278285
 20
2037.922464802361
 30
0.0
 10
799.1070577452721
 20
2037.644330078829
 30
0.0
 10
799.5074314725775
 20
2036.601095110707
 30
0.0
 10
799.8655243490876
 20
2035.459714486314
 30
0.0
 10
800.0818554586496
 20
2034.631393908579
 30
0.0
 10
800.2293094498536
 20
2033.919308991648
 30
0.0
 10
800.3637071106133
 20
2033.155376144056
 30
0.0
 10
800.4680331825193
 20
2032.31613215697
 30
0.0
 10
800.5158775038792
 20
2031.406035483068
 30
0.0
 10
800.5196891899043
 20
2030.618535962808
 30
0.0
 10
800.4865063148589
 20
2029.84922179533
 30
0.0
 10
800.4154030882979
 20
2029.111520640543
 30
0.0
 10
800.3075432908243
 20
2028.37345540678
 30
0.0
 10
800.1755186248054
 20
2027.672679750192
 30
0.0
 10
800.0293110746442
 20
2027.033117023454
 30
0.0
 10
799.8084905774605
 20
2026.2171101124
 30
0.0
 10
799.5305091894199
 20
2025.351902269534
 30
0.0
 10
799.1298103451496
 20
2024.274249777471
 30
0.0
 10
798.9797387278285
 20
2023.950222739911
 30
0.0
 10
798.9797387278285
 20
2023.934701883296
 30
0.0
  0
LINE
  5
1D7
330
87
100
AcDbEntity
  8
P-SANR-FIXT
100
AcDbLine
 10
789.3616817439629
 20
2019.937499999993
 30
0.0
 11
841.9711331424126
 21
2019.937499999993
 31
0.0
  0
LINE
  5
1D8
330
87
100
AcDbEntity
  8
P-SANR-FIXT
100
AcDbLine
 10
781.3616817439633
 20
2014.337499999993
 30
0.0
 11
849.9711331424121
 21
2014.337499999993
 31
0.0
  0
LINE
  5
1D9
330
87
100
AcDbEntity
  8
P-SANR-FIXT
100
AcDbLine
 10
781.3616817439632
 20
2007.934701883359
 30
0.0
 11
849.9711331424123
 21
2007.934701883359
 31
0.0
  0
LINE
  5
1DA
330
87
100
AcDbEntity
  8
P-SANR-FIXT
100
AcDbLine
 10
782.3588836273292
 20
2006.937499999993
 30
0.0
 11
848.9739312590465
 21
2006.937499999993
 31
0.0
  0
LINE
  5
1DB
330
87
100
AcDbEntity
  8
P-SANR-FIXT
100
AcDbLine
 10
789.1596582299842
 20
2005.437500000014
 30
0.0
 11
842.1731566563913
 21
2005.437500000014
 31
0.0
  0
LINE
  5
1DC
330
87
100
AcDbEntity
  8
P-SANR-FIXT
100
AcDbLine
 10
789.861681743963
 20
2023.934701883296
 30
0.0
 11
789.861681743963
 21
2037.934701883422
 31
0.0
  0
ENDBLK
  5
1DE
330
87
100
AcDbEntity
  8
0
100
AcDbBlockEnd
  0
BLOCK
  5
217
330
1E0
100
AcDbEntity
  8
0
100
AcDbBlockBegin
  2
Automatic flow rate regulator valve_Caleffi_121 DN15 - 1_2__-V1-Est - Idraulica
 70
     0
 10
0.0
 20
0.0
 30
0.0
  3
Automatic flow rate regulator valve_Caleffi_121 DN15 - 1_2__-V1-Est - Idraulica
  1

  0
LINE
  5
1E1
330
1E0
100
AcDbEntity
  8
M-PIPE
100
AcDbLine
 10
868.1664074431891
 20
1844.247075844248
 30
0.0
 11
763.1664074431889
 21
1844.247075844249
 31
0.0
1001
REVIT
1002
{
1070
     3
1000
939838
1002
}
  0
LWPOLYLINE
  5
1E2
330
1E0
100
AcDbEntity
  8
M-PIPE
100
AcDbPolyline
 90
       41
 70
   128
 43
0.0
 10
758.1664074431889
 20
1839.247075844249
 10
758.1704069098837
 20
1839.447022515182
 10
758.1823989116757
 20
1839.646649314095
 10
758.2023642639195
 20
1839.845636880694
 10
758.2302710263107
 20
1840.043666877321
 10
758.2660745539826
 20
1840.240422498224
 10
758.3097175689287
 20
1840.435588976385
 10
758.361130251635
 20
1840.62885408707
 10
758.4202303527765
 20
1840.819908647329
 10
758.4869233247991
 20
1841.008447010625
 10
758.5611024731743
 20
1841.194167555793
 10
758.6426491270891
 20
1841.376773169579
 10
758.7314328292925
 20
1841.555971721956
 10
758.8273115448004
 20
1841.731476533468
 10
758.9301318881219
 20
1841.903006833853
 10
759.0397293686403
 20
1842.070288211224
 10
759.1559286537673
 20
1842.233053051061
 10
759.2785438494342
 20
1842.391040964341
 10
759.4073787974844
 20
1842.543999204106
 10
759.5422273894842
 20
1842.691683069802
 10
759.6828738964529
 20
1842.833856298747
 10
759.8290933139822
 20
1842.970291444103
 10
759.9806517221959
 20
1843.100770238744
 10
760.1373066599714
 20
1843.225083944431
 10
760.2988075128266
 20
1843.343033685754
 10
760.4648959138481
 20
1843.454430768289
 10
760.6353061570249
 20
1843.559096980466
 10
760.8097656223202
 20
1843.656864878674
 10
760.9879952118054
 20
1843.747578055132
 10
761.1697097961576
 20
1843.831091388108
 10
761.3546186708055
 20
1843.907271274085
 10
761.5424260209949
 20
1843.975995841496
 10
761.732831395029
 20
1844.037155145695
 10
761.9255301849269
 20
1844.09065134484
 10
762.1202141137318
 20
1844.136398856425
 10
762.3165717286877
 20
1844.174324494191
 10
762.5142888994981
 20
1844.204367585208
 10
762.7130493208673
 20
1844.226480066937
 10
762.9125350185209
 20
1844.240626564127
 10
763.1124268578974
 20
1844.246784445399
 10
763.1664074431889
 20
1844.247075844249
1001
REVIT
1002
{
1070
     3
1000
939838
1002
}
  0
LWPOLYLINE
  5
1E3
330
1E0
100
AcDbEntity
  8
M-PIPE
100
AcDbPolyline
 90
       41
 70
   128
 43
0.0
 10
868.1664074431893
 20
1844.247075844248
 10
868.3663541141223
 20
1844.243076377553
 10
868.5659809130353
 20
1844.231084375762
 10
868.7649684796339
 20
1844.211119023518
 10
868.9629984762605
 20
1844.183212261127
 10
869.1597540971645
 20
1844.147408733455
 10
869.3549205753249
 20
1844.103765718509
 10
869.5481856860098
 20
1844.052353035802
 10
869.7392402462698
 20
1843.993252934661
 10
869.9277786095647
 20
1843.926559962638
 10
870.1134991547325
 20
1843.852380814263
 10
870.2961047685192
 20
1843.770834160348
 10
870.4753033208968
 20
1843.682050458145
 10
870.6508081324079
 20
1843.586171742637
 10
870.8223384327936
 20
1843.483351399315
 10
870.9896198101644
 20
1843.373753918797
 10
871.1523846500012
 20
1843.25755463367
 10
871.3103725632818
 20
1843.134939438003
 10
871.4633308030467
 20
1843.006104489953
 10
871.611014668742
 20
1842.871255897953
 10
871.7531878976869
 20
1842.730609390984
 10
871.8896230430436
 20
1842.584389973455
 10
872.020101837684
 20
1842.432831565242
 10
872.144415543371
 20
1842.276176627466
 10
872.2623652846943
 20
1842.114675774611
 10
872.3737623672287
 20
1841.948587373589
 10
872.4784285794058
 20
1841.778177130413
 10
872.576196477614
 20
1841.603717665117
 10
872.6669096540717
 20
1841.425488075632
 10
872.7504229870481
 20
1841.24377349128
 10
872.8266028730253
 20
1841.058864616632
 10
872.8953274404368
 20
1840.871057266442
 10
872.9564867446352
 20
1840.680651892408
 10
873.0099829437804
 20
1840.48795310251
 10
873.0557304553657
 20
1840.293269173706
 10
873.0936560931315
 20
1840.09691155875
 10
873.1236991841477
 20
1839.899194387939
 10
873.1458116658775
 20
1839.70043396657
 10
873.1599581630671
 20
1839.500948268916
 10
873.166116044339
 20
1839.30105642954
 10
873.1664074431892
 20
1839.247075844249
1001
REVIT
1002
{
1070
     3
1000
939838
1002
}
  0
SPLINE
  5
1E4
330
1E0
100
AcDbEntity
  8
M-PIPE
100
AcDbSpline
210
0.0
220
0.0
230
1.0
 70
     8
 71
     3
 72
     9
 73
     5
 74
     0
 42
0.000000001
 43
0.0000000001
 40
0.0
 40
0.0
 40
0.0
 40
0.0
 40
0.5
 40
1.0
 40
1.0
 40
1.0
 40
1.0
 10
776.3364074431875
 20
1806.747075844248
 30
0.0
 10
776.5057453760268
 20
1809.914582177398
 30
0.0
 10
777.8719666725013
 20
1815.790331323538
 30
0.0
 10
781.2932788305678
 20
1820.502773562987
 30
0.0
 10
783.5177076249989
 20
1822.566367863805
 30
0.0
1001
REVIT
1002
{
1070
     3
1000
939838
1002
}
  0
LINE
  5
1E5
330
1E0
100
AcDbEntity
  8
M-PIPE
100
AcDbLine
 10
783.5177076249989
 20
1822.566367863805
 30
0.0
 11
785.2636907676235
 21
1822.566367863805
 31
0.0
1001
REVIT
1002
{
1070
     3
1000
939838
1002
}
  0
LINE
  5
1E6
330
1E0
100
AcDbEntity
  8
M-PIPE
100
AcDbLine
 10
846.0691241187515
 20
1822.566367863804
 30
0.0
 11
847.8151072613762
 21
1822.566367863804
 31
0.0
1001
REVIT
1002
{
1070
     3
1000
939838
1002
}
  0
SPLINE
  5
1E7
330
1E0
100
AcDbEntity
  8
M-PIPE
100
AcDbSpline
210
0.0
220
0.0
230
1.0
 70
     8
 71
     3
 72
     9
 73
     5
 74
     0
 42
0.000000001
 43
0.0000000001
 40
0.0
 40
0.0
 40
0.0
 40
0.0
 40
0.5
 40
1.0
 40
1.0
 40
1.0
 40
1.0
 10
847.8151072613762
 20
1822.566367863804
 30
0.0
 10
850.0395360558073
 20
1820.502773562987
 30
0.0
 10
853.4608482138734
 20
1815.790331323537
 30
0.0
 10
854.8270695103481
 20
1809.914582177398
 30
0.0
 10
854.9964074431875
 20
1806.747075844248
 30
0.0
1001
REVIT
1002
{
1070
     3
1000
939838
1002
}
  0
LINE
  5
1E8
330
1E0
100
AcDbEntity
  8
M-PIPE
100
AcDbLine
 10
854.9964074431875
 20
1806.747075844248
 30
0.0
 11
868.1664074431875
 21
1806.747075844248
 31
0.0
1001
REVIT
1002
{
1070
     3
1000
939838
1002
}
  0
LINE
  5
1E9
330
1E0
100
AcDbEntity
  8
M-PIPE
100
AcDbLine
 10
763.1664074431872
 20
1806.747075844248
 30
0.0
 11
776.3364074431875
 21
1806.747075844248
 31
0.0
1001
REVIT
1002
{
1070
     3
1000
939838
1002
}
  0
ARC
  5
1EA
330
1E0
100
AcDbEntity
  8
M-PIPE
100
AcDbCircle
 10
815.6664074431873
 20
1806.747075844248
 30
0.0
 40
35.82999999999998
100
AcDbArc
 50
153.799755277629
 51
179.9999999999993
1001
REVIT
1002
{
1070
     3
1000
939838
1002
}
  0
LINE
  5
1EB
330
1E0
100
AcDbEntity
  8
M-PIPE
100
AcDbLine
 10
779.8364074431873
 20
1806.747075844248
 30
0.0
 11
781.361681743963
 21
1806.747075844248
 31
0.0
1001
REVIT
1002
{
1070
     3
1000
939838
1002
}
  0
ARC
  5
1EC
330
1E0
100
AcDbEntity
  8
M-PIPE
100
AcDbCircle
 10
815.6664074431873
 20
1806.747075844248
 30
0.0
 40
35.83000000000006
100
AcDbArc
 50
359.9999999999992
 51
26.20024472236943
1001
REVIT
1002
{
1070
     3
1000
939838
1002
}
  0
LINE
  5
1ED
330
1E0
100
AcDbEntity
  8
M-PIPE
100
AcDbLine
 10
849.9711331424119
 20
1806.747075844248
 30
0.0
 11
851.4964074431874
 21
1806.747075844248
 31
0.0
1001
REVIT
1002
{
1070
     3
1000
939838
1002
}
  0
LINE
  5
1EE
330
1E0
100
AcDbEntity
  8
M-PIPE
100
AcDbLine
 10
776.3364074431875
 20
1806.747075844248
 30
0.0
 11
779.8364074431873
 21
1806.747075844248
 31
0.0
1001
REVIT
1002
{
1070
     3
1000
939838
1002
}
  0
LINE
  5
1EF
330
1E0
100
AcDbEntity
  8
M-PIPE
100
AcDbLine
 10
851.4964074431874
 20
1806.747075844248
 30
0.0
 11
854.9964074431875
 21
1806.747075844248
 31
0.0
1001
REVIT
1002
{
1070
     3
1000
939838
1002
}
  0
LINE
  5
1F0
330
1E0
100
AcDbEntity
  8
M-PIPE
100
AcDbLine
 10
758.1664074431873
 20
1806.747075844248
 30
0.0
 11
763.1664074431872
 21
1806.747075844248
 31
0.0
1001
REVIT
1002
{
1070
     3
1000
939838
1002
}
  0
LINE
  5
1F1
330
1E0
100
AcDbEntity
  8
M-PIPE
100
AcDbLine
 10
868.1664074431875
 20
1806.747075844248
 30
0.0
 11
873.1664074431876
 21
1806.747075844248
 31
0.0
1001
REVIT
1002
{
1070
     3
1000
939838
1002
}
  0
LINE
  5
1F2
330
1E0
100
AcDbEntity
  8
M-PIPE
100
AcDbLine
 10
791.2897181562262
 20
1802.559891515779
 30
0.0
 11
798.1436816322172
 21
1798.602753857899
 31
0.0
1001
REVIT
1002
{
1070
     3
1000
938184
1002
}
  0
LWPOLYLINE
  5
1F3
330
1E0
100
AcDbEntity
  8
M-PIPE
100
AcDbPolyline
 90
       11
 70
   128
 43
0.0
 10
791.3032929984722
 20
1811.00276870734
 10
791.1503574360961
 20
1810.13621953624
 10
791.0321969302497
 20
1809.264247720738
 10
790.9490005125364
 20
1808.388248229725
 10
790.9009012794768
 20
1807.509622475521
 10
790.8879761795831
 20
1806.629776071899
 10
790.9102458902585
 20
1805.750116585415
 10
790.9676747847156
 20
1804.872051283598
 10
791.0601709889748
 20
1803.99698488362
 10
791.1875865288408
 20
1803.12631730505
 10
791.2897181562262
 20
1802.559891515779
1001
REVIT
1002
{
1070
     3
1000
938184
1002
}
  0
LINE
  5
1F4
330
1E0
100
AcDbEntity
  8
M-PIPE
100
AcDbLine
 10
798.1825481000482
 20
1814.974508492059
 30
0.0
 11
791.3032929984722
 21
1811.00276870734
 31
0.0
1001
REVIT
1002
{
1070
     3
1000
938184
1002
}
  0
LWPOLYLINE
  5
1F5
330
1E0
100
AcDbEntity
  8
M-PIPE
100
AcDbPolyline
 90
       58
 70
   128
 43
0.0
 10
833.5408153878358
 20
1814.974508492083
 10
833.1976459785359
 20
1815.674903838189
 10
832.8267427246025
 20
1816.361015826532
 10
832.4286989921201
 20
1817.031746824293
 10
832.004151566149
 20
1817.686023804958
 10
831.5537796320056
 20
1818.322800064929
 10
831.0783036887103
 20
1818.941056898028
 10
830.5784843963431
 20
1819.53980522521
 10
830.0551213591491
 20
1820.118087176878
 10
829.5090518463432
 20
1820.67497762527
 10
828.9411494526571
 20
1821.209585664465
 10
828.3523227007746
 20
1821.721056035644
 10
827.743513587889
 20
1822.208570495321
 10
827.1156960787092
 20
1822.671349124357
 10
826.4698745473216
 20
1823.108651575669
 10
825.8070821704093
 20
1823.519778258618
 10
825.1283792743869
 20
1823.904071458216
 10
824.4348516391058
 20
1824.260916387321
 10
823.7276087608378
 20
1824.589742170169
 10
823.0077820773177
 20
1824.890022755653
 10
822.2765231576845
 20
1825.161277758893
 10
821.5350018602157
 20
1825.403073229749
 10
820.7844044608046
 20
1825.615022347048
 10
820.0259317551713
 20
1825.796786037414
 10
819.2607971378462
 20
1825.948073517719
 10
818.4902246609965
 20
1826.068642760265
 10
817.7154470762056
 20
1826.158300879986
 10
816.937703862332
 20
1826.216904443016
 10
816.1582392426081
 20
1826.244359696155
 10
815.3783001941485
 20
1826.240622716855
 10
814.5991344530527
 20
1826.205699483486
 10
813.8219885182934
 20
1826.139645865771
 10
813.0481056575838
 20
1826.042567535408
 10
812.2787239184146
 20
1825.914619797017
 10
811.5150741474428
 20
1825.756007339684
 10
810.7583780213985
 20
1825.566983909507
 10
810.0098460926638
 20
1825.34785190365
 10
809.2706758526459
 20
1825.098961886578
 10
808.5420498160479
 20
1824.820712029224
 10
807.8251336290964
 20
1824.513547472002
 10
807.1210742047563
 20
1824.17795961268
 10
806.4309978879155
 20
1823.814485320244
 10
805.7560086534724
 20
1823.423706076026
 10
805.0971863402121
 20
1823.006247043452
 10
804.4555849232947
 20
1822.562776067925
 10
803.8322308281195
 20
1822.0940026084
 10
803.2281212882635
 20
1821.600676602415
 10
802.6442227501208
 20
1821.083587266341
 10
802.081469326794
 20
1820.543561832811
 10
801.5407613037128
 20
1819.981464227317
 10
801.0229636983691
 20
1819.398193686121
 10
800.5289048764741
 20
1818.794683317665
 10
800.0593752267489
 20
1818.171898609796
 10
799.6151258964726
 20
1817.530835885193
 10
799.1968675898049
 20
1816.872520707463
 10
798.8052694308134
 20
1816.198006240457
 10
798.4409578930153
 20
1815.508371563433
 10
798.1825481000482
 20
1814.974508492059
1001
REVIT
1002
{
1070
     3
1000
938184
1002
}
  0
LINE
  5
1F6
330
1E0
100
AcDbEntity
  8
M-PIPE
100
AcDbLine
 10
840.4200704894551
 20
1811.00276870734
 30
0.0
 11
833.5408153878368
 21
1814.974508492083
 31
0.0
1001
REVIT
1002
{
1070
     3
1000
938184
1002
}
  0
LWPOLYLINE
  5
1F7
330
1E0
100
AcDbEntity
  8
M-PIPE
100
AcDbPolyline
 90
       11
 70
   128
 43
0.0
 10
840.4336453317014
 20
1802.559891515778
 10
840.5837935561548
 20
1803.426927998787
 10
840.6991494663722
 20
1804.299275272612
 10
840.7795285175058
 20
1805.175537767708
 10
840.8248021202204
 20
1806.054313651009
 10
840.8348978464092
 20
1806.934197068563
 10
840.809799545064
 20
1807.8137803946
 10
840.749547368113
 20
1808.691656483434
 10
840.654237706186
 20
1809.566420920592
 10
840.5240230344109
 20
1810.436674269582
 10
840.4200704894551
 20
1811.00276870734
1001
REVIT
1002
{
1070
     3
1000
938184
1002
}
  0
LINE
  5
1F8
330
1E0
100
AcDbEntity
  8
M-PIPE
100
AcDbLine
 10
833.5796818556682
 20
1798.602753857875
 30
0.0
 11
840.4336453317014
 21
1802.559891515778
 31
0.0
1001
REVIT
1002
{
1070
     3
1000
938184
1002
}
  0
LWPOLYLINE
  5
1F9
330
1E0
100
AcDbEntity
  8
M-PIPE
100
AcDbPolyline
 90
       58
 70
   128
 43
0.0
 10
798.143681632216
 20
1798.602753857899
 10
798.4835217217156
 20
1797.900737050482
 10
798.8511631601077
 20
1797.212871760543
 10
799.246017799517
 20
1796.540258425808
 10
799.6674539567513
 20
1795.88397308413
 10
800.1147974238609
 20
1795.245065652055
 10
800.5873325467264
 20
1794.624558245181
 10
801.0843033699535
 20
1794.023443542992
 10
801.6049148462396
 20
1793.442683200781
 10
802.1483341082806
 20
1792.883206311206
 10
802.7136918011803
 20
1792.345907917941
 10
803.3000834732341
 20
1791.831647583799
 10
803.9065710228559
 20
1791.341248015609
 10
804.5321841993441
 20
1790.87549374807
 10
805.1759221550728
 20
1790.435129888654
 10
805.8367550466368
 20
1790.020860925595
 10
806.5136256823796
 20
1789.633349600863
 10
807.205451213675
 20
1789.273215849912
 10
807.911124867255
 20
1788.94103580992
 10
808.6295177158094
 20
1788.637340898089
 10
809.3594804840293
 20
1788.362616961492
 10
810.0998453872028
 20
1788.117303499825
 10
810.8494279994211
 20
1787.901792962295
 10
811.6070291484067
 20
1787.716430119789
 10
812.3714368339342
 20
1787.561511513313
 10
813.1414281667723
 20
1787.43728497959
 10
813.9157713250437
 20
1787.343949254573
 10
814.6932275248799
 20
1787.281653655512
 10
815.4725530022099
 20
1787.250497842077
 10
816.252501002517
 20
1787.250531656922
 10
817.0318237753804
 20
1787.281755045952
 10
817.8092745706107
 20
1787.344118058404
 10
818.5836096327827
 20
1787.437520926762
 10
819.3535901909793
 20
1787.561814226361
 10
820.1179844405617
 20
1787.716799114437
 10
820.875569513792
 20
1787.90222764823
 10
821.6251334361633
 20
1788.117803181642
 10
822.3654770652975
 20
1788.363180839807
 10
823.0954160093201
 20
1788.637968070815
 10
823.8137825216323
 20
1788.941725273717
 10
824.519427369058
 20
1789.273966501785
 10
825.2112216703705
 20
1789.634160239928
 10
825.888058702263
 20
1790.021730255003
 10
826.5488556698688
 20
1790.436056517663
 10
827.1925554390017
 20
1790.876476194272
 10
827.8181282273468
 20
1791.342284707299
 10
828.4245732518911
 20
1791.83273686249
 10
829.010920329963
 20
1792.347048041022
 10
829.5762314313186
 20
1792.884395454722
 10
830.1196021787893
 20
1793.443919462357
 10
830.6401632950914
 20
1794.024724944873
 10
831.1370819934865
 20
1794.625882737397
 10
831.6095633100605
 20
1795.2464311157
 10
832.0568513754974
 20
1795.885377334754
 10
832.4782306243092
 20
1796.54169921691
 10
832.8730269395872
 20
1797.214346787165
 10
833.2406087314456
 20
1797.902243952895
 10
833.5796818556682
 20
1798.602753857875
1001
REVIT
1002
{
1070
     3
1000
938184
1002
}
  0
ARC
  5
1FA
330
1E0
100
AcDbEntity
  8
M-PIPE
100
AcDbCircle
 10
815.8616817439618
 20
1806.746614861186
 30
0.0
 40
23.74999999999996
100
AcDbArc
 50
192.0647594055349
 51
347.9352405944632
1001
REVIT
1002
{
1070
     3
1000
938184
1002
}
  0
ARC
  5
1FB
330
1E0
100
AcDbEntity
  8
M-PIPE
100
AcDbCircle
 10
815.8616817439618
 20
1806.746614861186
 30
0.0
 40
23.75000000000012
100
AcDbArc
 50
12.23833361823308
 51
167.7616663817692
1001
REVIT
1002
{
1070
     3
1000
938184
1002
}
  0
SPLINE
  5
1FC
330
1E0
100
AcDbEntity
  8
M-PIPE
100
AcDbSpline
210
0.0
220
0.0
230
1.0
 70
     8
 71
     3
 72
    15
 73
    11
 74
     0
 42
0.000000001
 43
0.0000000001
 40
0.0
 40
0.0
 40
0.0
 40
0.0
 40
0.1428571428571428
 40
0.2857142857142857
 40
0.4285714285714286
 40
0.5714285714285714
 40
0.6785714285714287
 40
0.7321428571428572
 40
0.7857142857142857
 40
1.0
 40
1.0
 40
1.0
 40
1.0
 10
794.4956828382155
 20
1804.750378827946
 30
0.0
 10
794.264284738364
 20
1804.601438299937
 30
0.0
 10
793.8054867079265
 20
1804.296272388559
 30
0.0
 10
793.1407996171709
 20
1803.850161701237
 30
0.0
 10
792.5335591125981
 20
1803.433826944164
 30
0.0
 10
792.0555052935237
 20
1803.100927087768
 30
0.0
 10
791.7576993642421
 20
1802.892182588431
 30
0.0
 10
791.5880131645588
 20
1802.77147768491
 30
0.0
 10
791.3735916838136
 20
1802.620002432276
 30
0.0
 10
791.2905199737516
 20
1802.559428586213
 30
0.0
 10
791.2897181562247
 20
1802.559891515778
 30
0.0
1001
REVIT
1002
{
1070
     3
1000
938184
1002
}
  0
SPLINE
  5
1FD
330
1E0
100
AcDbEntity
  8
M-PIPE
100
AcDbSpline
210
0.0
220
0.0
230
1.0
 70
     8
 71
     3
 72
    13
 73
     9
 74
     0
 42
0.000000001
 43
0.0000000001
 40
-1.0
 40
-1.0
 40
-1.0
 40
-1.0
 40
-0.8333333333333332
 40
-0.6666666666666666
 40
-0.5
 40
-0.3333333333333333
 40
-0.1666666666666666
 40
0.0
 40
0.0
 40
0.0
 40
0.0
 10
794.5029420242012
 20
1808.80863504933
 30
0.0
 10
794.2075305186285
 20
1808.990762346778
 30
0.0
 10
793.6346940835045
 20
1809.365369350638
 30
0.0
 10
792.866924955768
 20
1809.908022452503
 30
0.0
 10
792.2006767128494
 20
1810.369990529333
 30
0.0
 10
791.6895374179128
 20
1810.724525134968
 30
0.0
 10
791.3812870315177
 20
1810.954937752058
 30
0.0
 10
791.306364887792
 20
1811.004542263466
 30
0.0
 10
791.3032929984709
 20
1811.002768707339
 30
0.0
1001
REVIT
1002
{
1070
     3
1000
938184
1002
}
  0
SPLINE
  5
1FE
330
1E0
100
AcDbEntity
  8
M-PIPE
100
AcDbSpline
210
0.0
220
0.0
230
1.0
 70
     8
 71
     3
 72
    13
 73
     9
 74
     0
 42
0.000000001
 43
0.0000000001
 40
0.0
 40
0.0
 40
0.0
 40
0.0
 40
0.1428571428571428
 40
0.2857142857142857
 40
0.4285714285714286
 40
0.5714285714285714
 40
0.7857142857142857
 40
1.0
 40
1.0
 40
1.0
 40
1.0
 10
800.9420353419626
 20
1812.526247309676
 30
0.0
 10
800.7378579671565
 20
1812.699570141935
 30
0.0
 10
800.33324228049
 20
1813.051541316989
 30
0.0
 10
799.7511668913134
 20
1813.561481701823
 30
0.0
 10
799.2259771365495
 20
1814.029065366163
 30
0.0
 10
798.7077504731841
 20
1814.495441292518
 30
0.0
 10
798.2920180554139
 20
1814.874013056775
 30
0.0
 10
798.1829150569702
 20
1814.974720354737
 30
0.0
 10
798.1825481000468
 20
1814.974508492058
 30
0.0
1001
REVIT
1002
{
1070
     3
1000
938184
1002
}
  0
SPLINE
  5
1FF
330
1E0
100
AcDbEntity
  8
M-PIPE
100
AcDbSpline
210
0.0
220
0.0
230
1.0
 70
     8
 71
     3
 72
    11
 73
     7
 74
     0
 42
0.000000001
 43
0.0000000001
 40
-1.0
 40
-1.0
 40
-1.0
 40
-1.0
 40
-0.8333333333333332
 40
-0.6666666666666666
 40
-0.5
 40
-0.3333333333333333
 40
-0.3333333333333333
 40
-0.3333333333333333
 40
-0.3333333333333333
 10
830.7813281459202
 20
1812.5262473097
 30
0.0
 10
831.0316518903787
 20
1812.732349118094
 30
0.0
 10
831.5220221901725
 20
1813.152961183979
 30
0.0
 10
832.187639846682
 20
1813.756280193845
 30
0.0
 10
832.7769362402321
 20
1814.276215019543
 30
0.0
 10
833.0764245210767
 20
1814.538373641012
 30
0.0
 10
833.1945770106747
 20
1814.645233594863
 30
0.0
1001
REVIT
1002
{
1070
     3
1000
938184
1002
}
  0
SPLINE
  5
200
330
1E0
100
AcDbEntity
  8
M-PIPE
100
AcDbSpline
210
0.0
220
0.0
230
1.0
 70
     8
 71
     3
 72
     9
 73
     5
 74
     0
 42
0.000000001
 43
0.0000000001
 40
-0.3309321679349961
 40
-0.3309321679349961
 40
-0.3309321679349961
 40
-0.3309321679349961
 40
-0.1666666666666666
 40
0.0
 40
0.0
 40
0.0
 40
0.0
 10
833.1996640126444
 20
1814.649837096241
 30
0.0
 10
833.315217629031
 20
1814.754469085632
 30
0.0
 10
833.486260619736
 20
1814.917778506877
 30
0.0
 10
833.542690510486
 20
1814.973425889516
 30
0.0
 10
833.5408153878356
 20
1814.974508492083
 30
0.0
1001
REVIT
1002
{
1070
     3
1000
938184
1002
}
  0
SPLINE
  5
201
330
1E0
100
AcDbEntity
  8
M-PIPE
100
AcDbSpline
210
0.0
220
0.0
230
1.0
 70
     8
 71
     3
 72
    15
 73
    11
 74
     0
 42
0.000000001
 43
0.0000000001
 40
0.0
 40
0.0
 40
0.0
 40
0.0
 40
0.1428571428571428
 40
0.2857142857142857
 40
0.4285714285714286
 40
0.5714285714285714
 40
0.6785714285714287
 40
0.7321428571428572
 40
0.7857142857142857
 40
1.0
 40
1.0
 40
1.0
 40
1.0
 10
837.2204214637232
 20
1808.80863504933
 30
0.0
 10
837.4514508924301
 20
1808.957927359247
 30
0.0
 10
837.9095118170962
 20
1809.263767239485
 30
0.0
 10
838.5730644460155
 20
1809.710786169022
 30
0.0
 10
839.1791613492733
 20
1810.127848941733
 30
0.0
 10
839.6562010840572
 20
1810.461220127487
 30
0.0
 10
839.9532998917521
 20
1810.670201309016
 30
0.0
 10
840.1225687825755
 20
1810.791019595752
 30
0.0
 10
840.3364329876239
 20
1810.942625284155
 30
0.0
 10
840.4192765448977
 20
1811.003227091443
 30
0.0
 10
840.4200704894536
 20
1811.002768707339
 30
0.0
1001
REVIT
1002
{
1070
     3
1000
938184
1002
}
  0
SPLINE
  5
202
330
1E0
100
AcDbEntity
  8
M-PIPE
100
AcDbSpline
210
0.0
220
0.0
230
1.0
 70
     8
 71
     3
 72
    14
 73
    10
 74
     0
 42
0.000000001
 43
0.0000000001
 40
-1.0
 40
-1.0
 40
-1.0
 40
-1.0
 40
-0.8333333333333332
 40
-0.6666666666666666
 40
-0.5
 40
-0.3333333333333333
 40
-0.25
 40
-0.1666666666666666
 40
0.0
 40
0.0
 40
0.0
 40
0.0
 10
837.227680649709
 20
1804.750378827946
 30
0.0
 10
837.5237232005163
 20
1804.568615864633
 30
0.0
 10
838.0977228184569
 20
1804.194679261827
 30
0.0
 10
838.8670606864387
 20
1803.652937105427
 30
0.0
 10
839.5343395686882
 20
1803.191544881331
 30
0.0
 10
839.9619389575105
 20
1802.897111587428
 30
0.0
 10
840.2000150657491
 20
1802.72197934106
 30
0.0
 10
840.3749019590089
 20
1802.595667860801
 30
0.0
 10
840.4305619533888
 20
1802.55811132648
 30
0.0
 10
840.4336453316998
 20
1802.559891515778
 30
0.0
1001
REVIT
1002
{
1070
     3
1000
938184
1002
}
  0
SPLINE
  5
203
330
1E0
100
AcDbEntity
  8
M-PIPE
100
AcDbSpline
210
0.0
220
0.0
230
1.0
 70
     8
 71
     3
 72
    14
 73
    10
 74
     0
 42
0.000000001
 43
0.0000000001
 40
0.0
 40
0.0
 40
0.0
 40
0.0
 40
0.1666666666666666
 40
0.25
 40
0.3333333333333333
 40
0.5
 40
0.6666666666666666
 40
0.8333333333333332
 40
1.0
 40
1.0
 40
1.0
 40
1.0
 10
798.1436816322158
 20
1798.602753857898
 30
0.0
 10
798.1417291525742
 20
1798.603881122545
 30
0.0
 10
798.1836072390296
 20
1798.646074053938
 30
0.0
 10
798.3300462650186
 20
1798.783203237585
 30
0.0
 10
798.5332594751855
 20
1798.972880686674
 30
0.0
 10
798.9098788496874
 20
1799.299613638282
 30
0.0
 10
799.5008712395519
 20
1799.818673341037
 30
0.0
 10
800.1685935740143
 20
1800.420829032955
 30
0.0
 10
800.6604855884557
 20
1800.84053266317
 30
0.0
 10
800.9116117615329
 20
1801.046140536967
 30
0.0
1001
REVIT
1002
{
1070
     3
1000
938184
1002
}
  0
SPLINE
  5
204
330
1E0
100
AcDbEntity
  8
M-PIPE
100
AcDbSpline
210
0.0
220
0.0
230
1.0
 70
     8
 71
     3
 72
    13
 73
     9
 74
     0
 42
0.000000001
 43
0.0000000001
 40
0.0
 40
0.0
 40
0.0
 40
0.0
 40
0.1428571428571428
 40
0.2857142857142857
 40
0.4285714285714286
 40
0.5714285714285714
 40
0.7857142857142857
 40
1.0
 40
1.0
 40
1.0
 40
1.0
 10
830.81175172635
 20
1801.046140536942
 30
0.0
 10
831.0164801109658
 20
1800.873291018102
 30
0.0
 10
831.4221828995009
 20
1800.522220708393
 30
0.0
 10
832.005890544646
 20
1800.01348563745
 30
0.0
 10
832.5326505551291
 20
1799.546856691174
 30
0.0
 10
833.0525556762209
 20
1799.081271066378
 30
0.0
 10
833.4697867932746
 20
1798.70316291621
 30
0.0
 10
833.5793093264957
 20
1798.602538778057
 30
0.0
 10
833.5796818556666
 20
1798.602753857874
 30
0.0
1001
REVIT
1002
{
1070
     3
1000
938184
1002
}
  0
LINE
  5
205
330
1E0
100
AcDbEntity
  8
P-SANR-FIXT
100
AcDbLine
 10
793.1706674826755
 20
1813.747075844312
 30
0.0
 11
789.861681743964
 21
1813.747075844312
 31
0.0
  0
LINE
  5
206
330
1E0
100
AcDbEntity
  8
P-SANR-FIXT
100
AcDbLine
 10
789.8616817439639
 20
1799.747075844186
 30
0.0
 11
793.1719784195496
 21
1799.747075844186
 31
0.0
  0
LINE
  5
207
330
1E0
100
AcDbEntity
  8
P-SANR-FIXT
100
AcDbLine
 10
783.1664074431873
 20
1792.747075844248
 30
0.0
 11
784.3695704302955
 21
1792.747075844248
 31
0.0
  0
LINE
  5
208
330
1E0
100
AcDbEntity
  8
P-SANR-FIXT
100
AcDbLine
 10
783.8563015511826
 20
1793.986216533347
 30
0.0
 11
783.1664074431874
 21
1793.986216533347
 31
0.0
  0
LINE
  5
209
330
1E0
100
AcDbEntity
  8
P-SANR-FIXT
100
AcDbLine
 10
789.8616817439625
 20
1806.747075844248
 30
0.0
 11
789.8616817439625
 21
1813.747075844311
 31
0.0
  0
LINE
  5
20A
330
1E0
100
AcDbEntity
  8
P-SANR-FIXT
100
AcDbLine
 10
783.1664074431874
 20
1793.986216533347
 30
0.0
 11
783.1664074431873
 21
1792.747075844248
 31
0.0
  0
LINE
  5
20B
330
1E0
100
AcDbEntity
  8
P-SANR-FIXT
100
AcDbLine
 10
783.1664074431874
 20
1793.986216533347
 30
0.0
 11
783.1664074431874
 21
1795.85179445045
 31
0.0
  0
LINE
  5
20C
330
1E0
100
AcDbEntity
  8
P-SANR-FIXT
100
AcDbLine
 10
848.1664074431874
 20
1795.851794450448
 30
0.0
 11
848.1664074431874
 21
1793.986216533346
 31
0.0
  0
LINE
  5
20D
330
1E0
100
AcDbEntity
  8
P-SANR-FIXT
100
AcDbLine
 10
848.1664074431874
 20
1793.986216533346
 30
0.0
 11
848.1664074431872
 21
1792.747075844247
 31
0.0
  0
LINE
  5
20E
330
1E0
100
AcDbEntity
  8
P-SANR-FIXT
100
AcDbLine
 10
848.1664074431874
 20
1793.986216533346
 30
0.0
 11
847.4765133351919
 21
1793.986216533346
 31
0.0
  0
LINE
  5
20F
330
1E0
100
AcDbEntity
  8
P-SANR-FIXT
100
AcDbLine
 10
846.9632444560792
 20
1792.747075844247
 30
0.0
 11
848.1664074431872
 21
1792.747075844247
 31
0.0
  0
ARC
  5
210
330
1E0
100
AcDbEntity
  8
P-SANR-FIXT
100
AcDbCircle
 10
815.6664074431873
 20
1806.747075844248
 30
0.0
 40
26.30472569922504
100
AcDbArc
 50
359.9999999999992
 51
164.5560620437431
  0
ARC
  5
211
330
1E0
100
AcDbEntity
  8
P-SANR-FIXT
100
AcDbCircle
 10
815.6664074431873
 20
1806.747075844248
 30
0.0
 40
26.30472569922489
100
AcDbArc
 50
169.0328588972056
 51
179.9999999999995
  0
ARC
  5
212
330
1E0
100
AcDbEntity
  8
P-SANR-FIXT
100
AcDbCircle
 10
815.6664074431873
 20
1806.747075844248
 30
0.0
 40
26.30472569922486
100
AcDbArc
 50
179.9999999999999
 51
190.9671411027913
  0
ARC
  5
213
330
1E0
100
AcDbEntity
  8
P-SANR-FIXT
100
AcDbCircle
 10
815.6664074431873
 20
1806.747075844248
 30
0.0
 40
26.30472569922476
100
AcDbArc
 50
195.443937956255
 51
0.0
  0
ARC
  5
214
330
1E0
100
AcDbEntity
  8
P-SANR-FIXT
100
AcDbCircle
 10
815.6664074431873
 20
1806.747075844248
 30
0.0
 40
34.30472569922455
100
AcDbArc
 50
359.9999999999992
 51
179.9999999999991
  0
ARC
  5
215
330
1E0
100
AcDbEntity
  8
P-SANR-FIXT
100
AcDbCircle
 10
815.6664074431873
 20
1806.747075844248
 30
0.0
 40
34.30472569922436
100
AcDbArc
 50
179.9999999999997
 51
359.9999999999993
  0
LINE
  5
216
330
1E0
100
AcDbEntity
  8
P-SANR-FIXT
100
AcDbLine
 10
789.8616817439625
 20
1799.747075844185
 30
0.0
 11
789.8616817439625
 21
1806.747075844248
 31
0.0
  0
ENDBLK
  5
218
330
1E0
100
AcDbEntity
  8
0
100
AcDbBlockEnd
  0
BLOCK
  5
2B6
330
21A
100
AcDbEntity
  8
0
100
AcDbBlockBegin
  2
Automatic flow rate regulator valve_Caleffi_121 DN15 - 1_2__-V2-Est - Idraulica
 70
     0
 10
0.0
 20
0.0
 30
0.0
  3
Automatic flow rate regulator valve_Caleffi_121 DN15 - 1_2__-V2-Est - Idraulica
  1

  0
LWPOLYLINE
  5
21B
330
21A
100
AcDbEntity
  8
M-PIPE
100
AcDbPolyline
 90
       41
 70
   128
 43
0.0
 10
1032.8631568289
 20
1970.998183850012
 10
1032.893152829113
 20
1969.498583818013
 10
1032.983092842552
 20
1968.001382826168
 10
1033.13283298438
 20
1966.508976076677
 10
1033.342133702314
 20
1965.023751101978
 10
1033.610660159854
 20
1963.548083945197
 10
1033.937982771949
 20
1962.084335358994
 10
1034.323577892246
 20
1960.634847028858
 10
1034.766828650808
 20
1959.201937826907
 10
1035.267025940977
 20
1957.787900102196
 10
1035.823369553792
 20
1956.394996013438
 10
1036.434969458152
 20
1955.025453910037
 10
1037.100847224677
 20
1953.681464767206
 10
1037.819937590988
 20
1952.365178680872
 10
1038.591090165897
 20
1951.078701427979
 10
1039.413071269787
 20
1949.824091097698
 10
1040.284565908239
 20
1948.603354798922
 10
1041.20417987574
 20
1947.418445449319
 10
1042.170441986117
 20
1946.271258651082
 10
1043.181806426116
 20
1945.163629658366
 10
1044.236655228382
 20
1944.09733044128
 10
1045.333300859851
 20
1943.074066851105
 10
1046.469988921454
 20
1942.0954758913
 10
1047.644900954771
 20
1941.163123098648
 10
1048.856157351183
 20
1940.278500038724
 10
1050.101820358845
 20
1939.443021919716
 10
1051.379897182671
 20
1938.658025328387
 10
1052.688343172385
 20
1937.924766091826
 10
1054.025065093523
 20
1937.244417268393
 10
1055.387924476165
 20
1936.618067271071
 10
1056.774741036025
 20
1936.046718126241
 10
1058.183296162446
 20
1935.531283870654
 10
1059.611336467702
 20
1935.072589089166
 10
1061.056577391936
 20
1934.671367595577
 10
1062.516706857972
 20
1934.328261258687
 10
1063.989388970141
 20
1934.043818975445
 10
1065.47226775122
 20
1933.818495792824
 10
1066.962970911489
 20
1933.65265217985
 10
1068.459113643891
 20
1933.546553450927
 10
1069.958302439215
 20
1933.500369341388
 10
1070.3631568289
 20
1933.498183850012
1001
REVIT
1002
{
1070
     3
1000
939838
1002
}
  0
LWPOLYLINE
  5
21C
330
21A
100
AcDbEntity
  8
M-PIPE
100
AcDbPolyline
 90
       41
 70
   128
 43
0.0
 10
1070.3631568289
 20
2008.498183850012
 10
1068.863556796901
 20
2008.468187849799
 10
1067.366355805056
 20
2008.378247836361
 10
1065.873949055565
 20
2008.228507694532
 10
1064.388724080866
 20
2008.019206976598
 10
1062.913056924085
 20
2007.750680519059
 10
1061.449308337882
 20
2007.423357906963
 10
1059.999820007746
 20
2007.037762786666
 10
1058.566910805796
 20
2006.594512028104
 10
1057.152873081084
 20
2006.094314737935
 10
1055.759968992325
 20
2005.53797112512
 10
1054.390426888925
 20
2004.926371220761
 10
1053.046437746094
 20
2004.260493454236
 10
1051.73015165976
 20
2003.541403087924
 10
1050.443674406867
 20
2002.770250513015
 10
1049.189064076586
 20
2001.948269409125
 10
1047.96832777781
 20
2001.076774770673
 10
1046.783418428207
 20
2000.157160803172
 10
1045.63623162997
 20
1999.190898692796
 10
1044.528602637254
 20
1998.179534252796
 10
1043.462303420168
 20
1997.12468545053
 10
1042.439039829993
 20
1996.028039819061
 10
1041.460448870189
 20
1994.891351757459
 10
1040.528096077536
 20
1993.716439724142
 10
1039.643473017612
 20
1992.505183327729
 10
1038.807994898604
 20
1991.259520320067
 10
1038.022998307275
 20
1989.981443496241
 10
1037.289739070714
 20
1988.672997506527
 10
1036.609390247281
 20
1987.336275585388
 10
1035.983040249959
 20
1985.973416202747
 10
1035.411691105129
 20
1984.586599642887
 10
1034.896256849542
 20
1983.178044516466
 10
1034.437562068054
 20
1981.75000421121
 10
1034.036340574465
 20
1980.304763286975
 10
1033.693234237576
 20
1978.84463382094
 10
1033.408791954333
 20
1977.371951708771
 10
1033.183468771712
 20
1975.889072927692
 10
1033.017625158739
 20
1974.398369767423
 10
1032.911526429816
 20
1972.902227035021
 10
1032.865342320276
 20
1971.403038239697
 10
1032.8631568289
 20
1970.998183850012
1001
REVIT
1002
{
1070
     3
1000
939838
1002
}
  0
ARC
  5
21D
330
21A
100
AcDbEntity
  8
M-PIPE
100
AcDbCircle
 10
1070.363156828898
 20
1970.998183850011
 30
0.0
 40
15.50000000000023
100
AcDbArc
 50
90.00000000000083
 51
269.9999999999997
1001
REVIT
1002
{
1070
     3
1000
939838
1002
}
  0
LINE
  5
21E
330
21A
100
AcDbEntity
  8
M-PIPE
100
AcDbLine
 10
1070.363156828898
 20
1986.498183850011
 30
0.0
 11
1070.363156828898
 21
2003.498183850011
 31
0.0
1001
REVIT
1002
{
1070
     3
1000
939838
1002
}
  0
LINE
  5
21F
330
21A
100
AcDbEntity
  8
M-PIPE
100
AcDbLine
 10
1070.363156828898
 20
1938.498183850011
 30
0.0
 11
1070.363156828898
 21
1955.498183850011
 31
0.0
1001
REVIT
1002
{
1070
     3
1000
939838
1002
}
  0
SPLINE
  5
220
330
21A
100
AcDbEntity
  8
M-PIPE
100
AcDbSpline
210
0.0
220
0.0
230
1.0
 70
     8
 71
     3
 72
     8
 73
     4
 74
     0
 42
0.000000001
 43
0.0000000001
 40
0.0
 40
0.0
 40
0.0
 40
0.0
 40
0.25
 40
0.25
 40
0.25
 40
0.25
 10
1070.363156828898
 20
2008.498183850011
 30
0.0
 10
1068.779403662323
 20
2008.498183850011
 30
0.0
 10
1067.253058435768
 20
2008.397999763314
 30
0.0
 10
1065.791770520057
 20
2008.218444905343
 30
0.0
1001
REVIT
1002
{
1070
     3
1000
939838
1002
}
  0
SPLINE
  5
221
330
21A
100
AcDbEntity
  8
M-PIPE
100
AcDbSpline
210
0.0
220
0.0
230
1.0
 70
     8
 71
     3
 72
     8
 73
     4
 74
     0
 42
0.000000001
 43
0.0000000001
 40
0.3333333333333333
 40
0.3333333333333333
 40
0.3333333333333333
 40
0.3333333333333333
 40
0.4166666666666666
 40
0.4166666666666666
 40
0.4166666666666666
 40
0.4166666666666666
 10
1064.352451684658
 20
2008.013203987148
 30
0.0
 10
1063.880096202972
 20
2007.936485282187
 30
0.0
 10
1063.408182872165
 20
2007.855967121779
 30
0.0
 10
1062.947599626136
 20
2007.766047386051
 30
0.0
1001
REVIT
1002
{
1070
     3
1000
939838
1002
}
  0
SPLINE
  5
222
330
21A
100
AcDbEntity
  8
M-PIPE
100
AcDbSpline
210
0.0
220
0.0
230
1.0
 70
     8
 71
     3
 72
     8
 73
     4
 74
     0
 42
0.000000001
 43
0.0000000001
 40
0.5
 40
0.5
 40
0.5
 40
0.5
 40
0.8333333333333333
 40
0.8333333333333333
 40
0.8333333333333333
 40
0.8333333333333333
 10
1061.610728076281
 20
2007.462481333034
 30
0.0
 10
1059.846029512016
 20
2007.039170552909
 30
0.0
 10
1058.297202619913
 20
2006.477736569707
 30
0.0
 10
1056.791550062241
 20
2005.88867794589
 30
0.0
1001
REVIT
1002
{
1070
     3
1000
939838
1002
}
  0
SPLINE
  5
223
330
21A
100
AcDbEntity
  8
M-PIPE
100
AcDbSpline
210
0.0
220
0.0
230
1.0
 70
     8
 71
     3
 72
     8
 73
     4
 74
     0
 42
0.000000001
 43
0.0000000001
 40
0.9166666666666667
 40
0.9166666666666667
 40
0.9166666666666667
 40
0.9166666666666667
 40
1.0
 40
1.0
 40
1.0
 40
1.0
 10
1055.600039194232
 20
2005.470009850564
 30
0.0
 10
1055.239858099028
 20
2005.315702864049
 30
0.0
 10
1054.887797192811
 20
2005.15820640322
 30
0.0
 10
1054.543864809342
 20
2004.998183850011
 30
0.0
1001
REVIT
1002
{
1070
     3
1000
939838
1002
}
  0
SPLINE
  5
224
330
21A
100
AcDbEntity
  8
M-PIPE
100
AcDbSpline
210
0.0
220
0.0
230
1.0
 70
     8
 71
     3
 72
     8
 73
     4
 74
     0
 42
0.000000001
 43
0.0000000001
 40
0.0
 40
0.0
 40
0.0
 40
0.0
 40
0.0006380783660899
 40
0.0006380783660899
 40
0.0006380783660899
 40
0.0006380783660899
 10
1054.543864809342
 20
2004.998183850011
 30
0.0
 10
1054.533687462077
 20
2004.993448602118
 30
0.0
 10
1054.523518512916
 20
2004.988711830984
 30
0.0
 10
1054.513357955477
 20
2004.983973550818
 30
0.0
1001
REVIT
1002
{
1070
     3
1000
939838
1002
}
  0
SPLINE
  5
225
330
21A
100
AcDbEntity
  8
M-PIPE
100
AcDbSpline
210
0.0
220
0.0
230
1.0
 70
     8
 71
     3
 72
     9
 73
     5
 74
     0
 42
0.000000001
 43
0.0000000001
 40
0.0476190476190476
 40
0.0476190476190476
 40
0.0476190476190476
 40
0.0476190476190476
 40
0.1428571428571428
 40
0.2857142857142857
 40
0.2857142857142857
 40
0.2857142857142857
 40
0.2857142857142857
 10
1052.402960080418
 20
2003.918480144058
 30
0.0
 10
1051.065699190809
 20
2003.189584206211
 30
0.0
 10
1048.163721058508
 20
2001.341545131804
 30
0.0
 10
1046.232254348518
 20
1999.724398281343
 30
0.0
 10
1045.383226434671
 20
1998.966971408637
 30
0.0
1001
REVIT
1002
{
1070
     3
1000
939838
1002
}
  0
SPLINE
  5
226
330
21A
100
AcDbEntity
  8
M-PIPE
100
AcDbSpline
210
0.0
220
0.0
230
1.0
 70
     8
 71
     3
 72
    10
 73
     6
 74
     0
 42
0.000000001
 43
0.0000000001
 40
0.3333333333333333
 40
0.3333333333333333
 40
0.3333333333333333
 40
0.3333333333333333
 40
0.4285714285714286
 40
0.5714285714285714
 40
0.6666666666666668
 40
0.6666666666666668
 40
0.6666666666666668
 40
0.6666666666666668
 10
1044.636103869996
 20
1998.282774069088
 30
0.0
 10
1044.204893284329
 20
1997.876894177984
 30
0.0
 10
1043.455969647235
 20
1997.120719472517
 30
0.0
 10
1043.455514764303
 20
1997.121311015699
 30
0.0
 10
1044.210325565014
 20
1997.881175399241
 30
0.0
 10
1044.641387863771
 20
1998.286641278658
 30
0.0
1001
REVIT
1002
{
1070
     3
1000
939838
1002
}
  0
SPLINE
  5
227
330
21A
100
AcDbEntity
  8
M-PIPE
100
AcDbSpline
210
0.0
220
0.0
230
1.0
 70
     8
 71
     3
 72
    12
 73
     8
 74
     0
 42
0.000000001
 43
0.0000000001
 40
0.7142857142857145
 40
0.7142857142857145
 40
0.7142857142857145
 40
0.7142857142857145
 40
0.7321428571428572
 40
0.7857142857142857
 40
0.8392857142857142
 40
0.8928571428571427
 40
0.9440750161837026
 40
0.9440750161837026
 40
0.9440750161837026
 40
0.9440750161837026
 10
1045.384523433725
 20
1998.968146709688
 30
0.0
 10
1045.48993950604
 20
1999.062286307438
 30
0.0
 10
1045.931387760713
 20
1999.451944644403
 30
0.0
 10
1046.842461254493
 20
2000.223656310275
 30
0.0
 10
1048.311545991004
 20
2001.342096947773
 30
0.0
 10
1049.977022536303
 20
2002.526708685241
 30
0.0
 10
1051.426156547868
 20
2003.322189780514
 30
0.0
 10
1052.155990460673
 20
2003.712873453907
 30
0.0
1001
REVIT
1002
{
1070
     3
1000
939838
1002
}
  0
LINE
  5
228
330
21A
100
AcDbEntity
  8
M-PIPE
100
AcDbLine
 10
1070.363156828898
 20
1933.498183850011
 30
0.0
 11
1070.363156828898
 21
1938.498183850011
 31
0.0
1001
REVIT
1002
{
1070
     3
1000
939838
1002
}
  0
LINE
  5
229
330
21A
100
AcDbEntity
  8
M-PIPE
100
AcDbLine
 10
1070.363156828898
 20
2003.498183850011
 30
0.0
 11
1070.363156828898
 21
2008.498183850011
 31
0.0
1001
REVIT
1002
{
1070
     3
1000
939838
1002
}
  0
LINE
  5
22A
330
21A
100
AcDbEntity
  8
M-PIPE
100
AcDbLine
 10
1050.863617811946
 20
2073.998183850009
 30
0.0
 11
1050.863617811946
 21
2048.36599156808
 31
0.0
1001
REVIT
1002
{
1070
     3
1000
938184
1002
}
  0
LINE
  5
22B
330
21A
100
AcDbEntity
  8
M-PIPE
100
AcDbLine
 10
1089.863617811946
 20
2048.36599156808
 30
0.0
 11
1089.863617811946
 21
2073.998183850009
 31
0.0
1001
REVIT
1002
{
1070
     3
1000
938184
1002
}
  0
LINE
  5
22C
330
21A
100
AcDbEntity
  8
M-PIPE
100
AcDbLine
 10
1094.113617811963
 20
2043.998183850009
 30
0.0
 11
1094.113617811963
 21
2048.36599156808
 31
0.0
1001
REVIT
1002
{
1070
     3
1000
938184
1002
}
  0
LINE
  5
22D
330
21A
100
AcDbEntity
  8
M-PIPE
100
AcDbLine
 10
1046.613617811962
 20
2048.36599156808
 30
0.0
 11
1046.613617811962
 21
2043.998183850008
 31
0.0
1001
REVIT
1002
{
1070
     3
1000
938184
1002
}
  0
LINE
  5
22E
330
21A
100
AcDbEntity
  8
M-PIPE
100
AcDbLine
 10
1076.064092136182
 20
2077.498183850009
 30
0.0
 11
1072.359853845203
 21
2077.498183850009
 31
0.0
1001
REVIT
1002
{
1070
     3
1000
938184
1002
}
  0
LINE
  5
22F
330
21A
100
AcDbEntity
  8
M-PIPE
100
AcDbLine
 10
1068.301597623819
 20
2077.498183850009
 30
0.0
 11
1064.583985363472
 21
2077.498183850009
 31
0.0
1001
REVIT
1002
{
1070
     3
1000
938184
1002
}
  0
LWPOLYLINE
  5
230
330
21A
100
AcDbEntity
  8
M-PIPE
100
AcDbPolyline
 90
       41
 70
   128
 43
0.0
 10
1050.863617811975
 20
2073.998183850009
 10
1050.866417438661
 20
2074.138146519661
 10
1050.874811839916
 20
2074.277885278901
 10
1050.888787586486
 20
2074.417176575519
 10
1050.90832232016
 20
2074.555797573159
 10
1050.933384789531
 20
2074.693526507791
 10
1050.963934899993
 20
2074.830143042504
 10
1050.999923777887
 20
2074.965428619983
 10
1051.041293848686
 20
2075.099166812165
 10
1051.087978929102
 20
2075.231143666471
 10
1051.139904332965
 20
2075.361148048089
 10
1051.196986990705
 20
2075.48897197774
 10
1051.259135582247
 20
2075.614410964404
 10
1051.326250683103
 20
2075.737264332461
 10
1051.398224923428
 20
2075.857335542732
 10
1051.474943159791
 20
2075.974432506891
 10
1051.55628265938
 20
2076.088367894777
 10
1051.642113296346
 20
2076.198959434073
 10
1051.732297759982
 20
2076.306030201909
 10
1051.826691774381
 20
2076.409408907895
 10
1051.92514432926
 20
2076.508930168157
 10
1052.02749792153
 20
2076.604434769906
 10
1052.13358880728
 20
2076.695769926155
 10
1052.243247263723
 20
2076.782789520136
 10
1052.356297860721
 20
2076.865354339062
 10
1052.472559741436
 20
2076.943332296836
 10
1052.59184691166
 20
2077.01659864536
 10
1052.713968537366
 20
2077.085036174106
 10
1052.838729250006
 20
2077.148535397626
 10
1052.965929459053
 20
2077.20699473071
 10
1053.095365671306
 20
2077.260320650894
 10
1053.226830816439
 20
2077.308427848082
 10
1053.360114578263
 20
2077.351239361021
 10
1053.495003731191
 20
2077.388686700423
 10
1053.631282481355
 20
2077.420709958532
 10
1053.768732811824
 20
2077.447257904969
 10
1053.907134831391
 20
2077.46828806868
 10
1054.04626712635
 20
2077.48376680589
 10
1054.185907114707
 20
2077.493669353923
 10
1054.32583140227
 20
2077.497979870813
 10
1054.363617811975
 20
2077.498183850009
1001
REVIT
1002
{
1070
     3
1000
938184
1002
}
  0
LWPOLYLINE
  5
231
330
21A
100
AcDbEntity
  8
M-PIPE
100
AcDbPolyline
 90
       41
 70
   128
 43
0.0
 10
1086.363617811975
 20
2077.498183850009
 10
1086.503580481628
 20
2077.495384223322
 10
1086.643319240867
 20
2077.486989822068
 10
1086.782610537486
 20
2077.473014075497
 10
1086.921231535125
 20
2077.453479341823
 10
1087.058960469758
 20
2077.428416872453
 10
1087.19557700447
 20
2077.397866761991
 10
1087.330862581949
 20
2077.361877884096
 10
1087.464600774131
 20
2077.320507813297
 10
1087.596577628438
 20
2077.273822732882
 10
1087.726582010055
 20
2077.221897329018
 10
1087.854405939706
 20
2077.164814671278
 10
1087.97984492637
 20
2077.102666079736
 10
1088.102698294428
 20
2077.035550978881
 10
1088.222769504698
 20
2076.963576738555
 10
1088.339866468857
 20
2076.886858502192
 10
1088.453801856744
 20
2076.805519002604
 10
1088.564393396039
 20
2076.719688365637
 10
1088.671464163875
 20
2076.629503902001
 10
1088.774842869862
 20
2076.535109887602
 10
1088.874364130123
 20
2076.436657332723
 10
1088.969868731873
 20
2076.334303740453
 10
1089.061203888121
 20
2076.228212854704
 10
1089.148223482102
 20
2076.118554398261
 10
1089.230788301028
 20
2076.005503801262
 10
1089.308766258803
 20
2075.889241920547
 10
1089.382032607326
 20
2075.769954750323
 10
1089.450470136072
 20
2075.647833124617
 10
1089.513969359593
 20
2075.523072411977
 10
1089.572428692676
 20
2075.395872202931
 10
1089.62575461286
 20
2075.266435990677
 10
1089.673861810048
 20
2075.134970845544
 10
1089.716673322987
 20
2075.00168708372
 10
1089.754120662389
 20
2074.866797930792
 10
1089.786143920498
 20
2074.730519180629
 10
1089.812691866935
 20
2074.593068850159
 10
1089.833722030646
 20
2074.454666830592
 10
1089.849200767857
 20
2074.315534535633
 10
1089.859103315889
 20
2074.175894547276
 10
1089.86341383278
 20
2074.035970259712
 10
1089.863617811975
 20
2073.998183850009
1001
REVIT
1002
{
1070
     3
1000
938184
1002
}
  0
LINE
  5
232
330
21A
100
AcDbEntity
  8
M-PIPE
100
AcDbLine
 10
1075.327774498135
 20
2043.998183850007
 30
0.0
 11
1074.550341157368
 21
2043.998183850007
 31
0.0
1001
REVIT
1002
{
1070
     3
1000
938184
1002
}
  0
LINE
  5
233
330
21A
100
AcDbEntity
  8
M-PIPE
100
AcDbLine
 10
1074.550341157368
 20
2043.998183850007
 30
0.0
 11
1066.107463965807
 21
2043.998183850007
 31
0.0
1001
REVIT
1002
{
1070
     3
1000
938184
1002
}
  0
LINE
  5
234
330
21A
100
AcDbEntity
  8
M-PIPE
100
AcDbLine
 10
1066.107463965807
 20
2043.998183850007
 30
0.0
 11
1065.329123992994
 21
2043.998183850007
 31
0.0
1001
REVIT
1002
{
1070
     3
1000
938184
1002
}
  0
LINE
  5
235
330
21A
100
AcDbEntity
  8
M-PIPE
100
AcDbLine
 10
1078.50747881526
 20
2073.998183850008
 30
0.0
 11
1078.50747881526
 21
2048.365991568079
 31
0.0
1001
REVIT
1002
{
1070
     3
1000
938184
1002
}
  0
LINE
  5
236
330
21A
100
AcDbEntity
  8
M-PIPE
100
AcDbLine
 10
1062.135724181096
 20
2048.365991568079
 30
0.0
 11
1062.135724181096
 21
2073.998183850008
 31
0.0
1001
REVIT
1002
{
1070
     3
1000
938184
1002
}
  0
LINE
  5
237
330
21A
100
AcDbEntity
  8
M-PIPE
100
AcDbLine
 10
1065.329123992994
 20
2048.365991568079
 30
0.0
 11
1065.329123992994
 21
2043.998183850007
 31
0.0
1001
REVIT
1002
{
1070
     3
1000
938184
1002
}
  0
LINE
  5
238
330
21A
100
AcDbEntity
  8
M-PIPE
100
AcDbLine
 10
1066.107463965807
 20
2043.998183850007
 30
0.0
 11
1066.107463965807
 21
2073.998183850008
 31
0.0
1001
REVIT
1002
{
1070
     3
1000
938184
1002
}
  0
LINE
  5
239
330
21A
100
AcDbEntity
  8
M-PIPE
100
AcDbLine
 10
1075.327774498135
 20
2043.998183850007
 30
0.0
 11
1075.327774498135
 21
2048.365991568079
 31
0.0
1001
REVIT
1002
{
1070
     3
1000
938184
1002
}
  0
LINE
  5
23A
330
21A
100
AcDbEntity
  8
M-PIPE
100
AcDbLine
 10
1074.550341157368
 20
2043.998183850007
 30
0.0
 11
1074.550341157368
 21
2073.998183850008
 31
0.0
1001
REVIT
1002
{
1070
     3
1000
938184
1002
}
  0
LINE
  5
23B
330
21A
100
AcDbEntity
  8
M-PIPE
100
AcDbLine
 10
1094.11361781196
 20
2043.998183850008
 30
0.0
 11
1075.327774498135
 21
2043.998183850007
 31
0.0
1001
REVIT
1002
{
1070
     3
1000
938184
1002
}
  0
LINE
  5
23C
330
21A
100
AcDbEntity
  8
M-PIPE
100
AcDbLine
 10
1065.329123992994
 20
2043.998183850007
 30
0.0
 11
1046.61361781196
 21
2043.998183850007
 31
0.0
1001
REVIT
1002
{
1070
     3
1000
938184
1002
}
  0
LINE
  5
23D
330
21A
100
AcDbEntity
  8
M-PIPE
100
AcDbLine
 10
1094.11361781196
 20
2048.365991568079
 30
0.0
 11
1075.327774498135
 21
2048.365991568079
 31
0.0
1001
REVIT
1002
{
1070
     3
1000
938184
1002
}
  0
LINE
  5
23E
330
21A
100
AcDbEntity
  8
M-PIPE
100
AcDbLine
 10
1065.329123992994
 20
2048.365991568079
 30
0.0
 11
1046.61361781196
 21
2048.365991568078
 31
0.0
1001
REVIT
1002
{
1070
     3
1000
938184
1002
}
  0
SPLINE
  5
23F
330
21A
100
AcDbEntity
  8
M-PIPE
100
AcDbSpline
210
0.0
220
0.0
230
1.0
 70
     8
 71
     3
 72
    15
 73
    11
 74
     0
 42
0.000000001
 43
0.0000000001
 40
0.0
 40
0.0
 40
0.0
 40
0.0
 40
0.1428571428571428
 40
0.2857142857142857
 40
0.4285714285714286
 40
0.5714285714285714
 40
0.6785714285714287
 40
0.7321428571428572
 40
0.7857142857142857
 40
1.0
 40
1.0
 40
1.0
 40
1.0
 10
1072.359853845201
 20
2077.498183850007
 30
0.0
 10
1072.508794373209
 20
2077.498183850007
 30
0.0
 10
1072.813960284587
 20
2077.44662332045
 30
0.0
 10
1073.260070971909
 20
2077.210726837148
 30
0.0
 10
1073.676405728983
 20
2076.81820321895
 30
0.0
 10
1074.009305585378
 20
2076.321776103181
 30
0.0
 10
1074.218050084716
 20
2075.856097638799
 30
0.0
 10
1074.338754988237
 20
2075.497281387111
 30
0.0
 10
1074.490230240871
 20
2074.931134912887
 30
0.0
 10
1074.550804086934
 20
2074.414819193985
 30
0.0
 10
1074.550341157368
 20
2073.998183850008
 30
0.0
1001
REVIT
1002
{
1070
     3
1000
938184
1002
}
  0
SPLINE
  5
240
330
21A
100
AcDbEntity
  8
M-PIPE
100
AcDbSpline
210
0.0
220
0.0
230
1.0
 70
     8
 71
     3
 72
    13
 73
     9
 74
     0
 42
0.000000001
 43
0.0000000001
 40
-1.0
 40
-1.0
 40
-1.0
 40
-1.0
 40
-0.8333333333333332
 40
-0.6666666666666666
 40
-0.5
 40
-0.3333333333333333
 40
-0.1666666666666666
 40
0.0
 40
0.0
 40
0.0
 40
0.0
 10
1068.301597623817
 20
2077.498183850007
 30
0.0
 10
1068.119470326369
 20
2077.498183850007
 30
0.0
 10
1067.744863322509
 20
2077.417764011123
 30
0.0
 10
1067.202210220643
 20
2077.064095638172
 30
0.0
 10
1066.740242143814
 20
2076.501490015704
 30
0.0
 10
1066.385707538179
 20
2075.768289803974
 30
0.0
 10
1066.155294921088
 20
2074.914453868447
 30
0.0
 10
1066.105690409681
 20
2074.303616469107
 30
0.0
 10
1066.107463965807
 20
2073.998183850008
 30
0.0
1001
REVIT
1002
{
1070
     3
1000
938184
1002
}
  0
SPLINE
  5
241
330
21A
100
AcDbEntity
  8
M-PIPE
100
AcDbSpline
210
0.0
220
0.0
230
1.0
 70
     8
 71
     3
 72
    13
 73
     9
 74
     0
 42
0.000000001
 43
0.0000000001
 40
0.0
 40
0.0
 40
0.0
 40
0.0
 40
0.1428571428571428
 40
0.2857142857142857
 40
0.4285714285714286
 40
0.5714285714285714
 40
0.7857142857142857
 40
1.0
 40
1.0
 40
1.0
 40
1.0
 10
1064.58398536347
 20
2077.498183850007
 30
0.0
 10
1064.410662531212
 20
2077.498183850007
 30
0.0
 10
1064.058691356158
 20
2077.443457560203
 30
0.0
 10
1063.548750971323
 20
2077.195785505118
 30
0.0
 10
1063.081167306984
 20
2076.789491578008
 30
0.0
 10
1062.614791380629
 20
2076.147101613077
 30
0.0
 10
1062.236219616371
 20
2075.20906970004
 30
0.0
 10
1062.13551231841
 20
2074.402721173207
 30
0.0
 10
1062.135724181088
 20
2073.998183850008
 30
0.0
1001
REVIT
1002
{
1070
     3
1000
938184
1002
}
  0
SPLINE
  5
242
330
21A
100
AcDbEntity
  8
M-PIPE
100
AcDbSpline
210
0.0
220
0.0
230
1.0
 70
     8
 71
     3
 72
    14
 73
    10
 74
     0
 42
0.000000001
 43
0.0000000001
 40
0.0
 40
0.0
 40
0.0
 40
0.0
 40
0.1666666666666666
 40
0.25
 40
0.3333333333333333
 40
0.5
 40
0.6666666666666666
 40
0.8333333333333332
 40
1.0
 40
1.0
 40
1.0
 40
1.0
 10
1078.507478815248
 20
2073.998183850008
 30
0.0
 10
1078.506351550601
 20
2074.296384906566
 30
0.0
 10
1078.464158619208
 20
2074.746402501084
 30
0.0
 10
1078.327029435562
 20
2075.322173406987
 30
0.0
 10
1078.137351986472
 20
2075.870659308235
 30
0.0
 10
1077.810619034864
 20
2076.493632210216
 30
0.0
 10
1077.29155933211
 20
2077.06588772737
 30
0.0
 10
1076.689403640192
 20
2077.418453459821
 30
0.0
 10
1076.269700009976
 20
2077.498183850007
 30
0.0
 10
1076.06409213618
 20
2077.498183850007
 30
0.0
1001
REVIT
1002
{
1070
     3
1000
938184
1002
}
  0
LINE
  5
243
330
21A
100
AcDbEntity
  8
M-PIPE
100
AcDbLine
 10
1087.363266239919
 20
2000.209445546945
 30
0.0
 11
1086.863156828917
 21
2000.498183850011
 31
0.0
1001
REVIT
1002
{
1070
     3
1000
790271
1002
}
  0
LINE
  5
244
330
21A
100
AcDbEntity
  8
M-PIPE
100
AcDbLine
 10
1086.863156828917
 20
1990.998183850011
 30
0.0
 11
1087.363266239919
 21
1991.286922153077
 31
0.0
1001
REVIT
1002
{
1070
     3
1000
790271
1002
}
  0
LINE
  5
245
330
21A
100
AcDbEntity
  8
M-PIPE
100
AcDbLine
 10
1073.739681445906
 20
1999.632158446246
 30
0.0
 11
1073.739681445906
 21
1991.864209253774
 31
0.0
1001
REVIT
1002
{
1070
     3
1000
790271
1002
}
  0
SPLINE
  5
246
330
21A
100
AcDbEntity
  8
M-PIPE
100
AcDbSpline
210
0.0
220
0.0
230
1.0
 70
     8
 71
     3
 72
     9
 73
     5
 74
     0
 42
0.000000001
 43
0.0000000001
 40
0.0
 40
0.0
 40
0.0
 40
0.0
 40
0.5
 40
1.0
 40
1.0
 40
1.0
 40
1.0
 10
1073.739681445906
 20
1991.864209253774
 30
0.0
 10
1075.472108051803
 20
1991.479329629062
 30
0.0
 10
1078.91235978536
 20
1991.09445000435
 30
0.0
 10
1082.303408562443
 20
1991.479329629061
 30
0.0
 10
1083.986632211866
 20
1991.864209253773
 30
0.0
1001
REVIT
1002
{
1070
     3
1000
790271
1002
}
  0
SPLINE
  5
247
330
21A
100
AcDbEntity
  8
M-PIPE
100
AcDbSpline
210
0.0
220
0.0
230
1.0
 70
     8
 71
     3
 72
     9
 73
     5
 74
     0
 42
0.000000001
 43
0.0000000001
 40
0.0
 40
0.0
 40
0.0
 40
0.0
 40
0.5
 40
1.0
 40
1.0
 40
1.0
 40
1.0
 10
1083.986632211866
 20
1999.632158446247
 30
0.0
 10
1082.303408562443
 20
2000.017038070958
 30
0.0
 10
1078.91235978536
 20
2000.401917695669
 30
0.0
 10
1075.472108051803
 20
2000.017038070957
 30
0.0
 10
1073.739681445906
 20
1999.632158446246
 30
0.0
1001
REVIT
1002
{
1070
     3
1000
790271
1002
}
  0
LINE
  5
248
330
21A
100
AcDbEntity
  8
M-PIPE
100
AcDbLine
 10
1086.863156828915
 20
1990.99818385001
 30
0.0
 11
1086.788746213442
 21
1990.99818385001
 31
0.0
1001
REVIT
1002
{
1070
     3
1000
790271
1002
}
  0
LINE
  5
249
330
21A
100
AcDbEntity
  8
M-PIPE
100
AcDbLine
 10
1086.737236627574
 20
1990.99818385001
 30
0.0
 11
1086.584330073277
 21
1990.99818385001
 31
0.0
1001
REVIT
1002
{
1070
     3
1000
790271
1002
}
  0
LINE
  5
24A
330
21A
100
AcDbEntity
  8
M-PIPE
100
AcDbLine
 10
1086.494149561676
 20
1990.99818385001
 30
0.0
 11
1086.222113066501
 21
1990.99818385001
 31
0.0
1001
REVIT
1002
{
1070
     3
1000
790271
1002
}
  0
LINE
  5
24B
330
21A
100
AcDbEntity
  8
M-PIPE
100
AcDbLine
 10
1086.166183444638
 20
1990.99818385001
 30
0.0
 11
1085.621642360583
 21
1990.99818385001
 31
0.0
1001
REVIT
1002
{
1070
     3
1000
790271
1002
}
  0
LINE
  5
24C
330
21A
100
AcDbEntity
  8
M-PIPE
100
AcDbLine
 10
1085.317235315019
 20
1990.99818385001
 30
0.0
 11
1084.928147402948
 21
1990.99818385001
 31
0.0
1001
REVIT
1002
{
1070
     3
1000
790271
1002
}
  0
LINE
  5
24D
330
21A
100
AcDbEntity
  8
M-PIPE
100
AcDbLine
 10
1084.652575991357
 20
1990.99818385001
 30
0.0
 11
1084.092623613221
 21
1990.99818385001
 31
0.0
1001
REVIT
1002
{
1070
     3
1000
790271
1002
}
  0
LINE
  5
24E
330
21A
100
AcDbEntity
  8
M-PIPE
100
AcDbLine
 10
1083.879165559681
 20
1990.99818385001
 30
0.0
 11
1083.123461556974
 21
1990.99818385001
 31
0.0
1001
REVIT
1002
{
1070
     3
1000
790271
1002
}
  0
LINE
  5
24F
330
21A
100
AcDbEntity
  8
M-PIPE
100
AcDbLine
 10
1083.002890140374
 20
1990.99818385001
 30
0.0
 11
1080.969152388737
 21
1990.99818385001
 31
0.0
1001
REVIT
1002
{
1070
     3
1000
790271
1002
}
  0
LINE
  5
250
330
21A
100
AcDbEntity
  8
M-PIPE
100
AcDbLine
 10
1080.834779689728
 20
1990.99818385001
 30
0.0
 11
1079.8271680287
 21
1990.99818385001
 31
0.0
1001
REVIT
1002
{
1070
     3
1000
790271
1002
}
  0
LINE
  5
251
330
21A
100
AcDbEntity
  8
M-PIPE
100
AcDbLine
 10
1079.536376676887
 20
1990.99818385001
 30
0.0
 11
1078.613156828907
 21
1990.99818385001
 31
0.0
1001
REVIT
1002
{
1070
     3
1000
790271
1002
}
  0
LINE
  5
252
330
21A
100
AcDbEntity
  8
M-PIPE
100
AcDbLine
 10
1078.148010678575
 20
1990.99818385001
 30
0.0
 11
1077.336358147627
 21
1990.99818385001
 31
0.0
1001
REVIT
1002
{
1070
     3
1000
790271
1002
}
  0
LINE
  5
253
330
21A
100
AcDbEntity
  8
M-PIPE
100
AcDbLine
 10
1076.683444671374
 20
1990.99818385001
 30
0.0
 11
1075.157246137582
 21
1990.99818385001
 31
0.0
1001
REVIT
1002
{
1070
     3
1000
790271
1002
}
  0
LINE
  5
254
330
21A
100
AcDbEntity
  8
M-PIPE
100
AcDbLine
 10
1074.761376171507
 20
1990.99818385001
 30
0.0
 11
1073.584624781416
 21
1990.99818385001
 31
0.0
1001
REVIT
1002
{
1070
     3
1000
790271
1002
}
  0
LINE
  5
255
330
21A
100
AcDbEntity
  8
M-PIPE
100
AcDbLine
 10
1073.228351760405
 20
1990.99818385001
 30
0.0
 11
1071.981265419628
 21
1990.99818385001
 31
0.0
1001
REVIT
1002
{
1070
     3
1000
790271
1002
}
  0
LINE
  5
256
330
21A
100
AcDbEntity
  8
M-PIPE
100
AcDbLine
 10
1071.801226584236
 20
1990.99818385001
 30
0.0
 11
1070.363156828898
 21
1990.99818385001
 31
0.0
1001
REVIT
1002
{
1070
     3
1000
790271
1002
}
  0
LINE
  5
257
330
21A
100
AcDbEntity
  8
M-PIPE
100
AcDbLine
 10
1070.363156828899
 20
1991.864209253784
 30
0.0
 11
1073.739681445906
 21
1991.864209253784
 31
0.0
1001
REVIT
1002
{
1070
     3
1000
790271
1002
}
  0
LINE
  5
258
330
21A
100
AcDbEntity
  8
M-PIPE
100
AcDbLine
 10
1073.739681445906
 20
1999.632158446235
 30
0.0
 11
1070.363156828899
 21
1999.632158446235
 31
0.0
1001
REVIT
1002
{
1070
     3
1000
790271
1002
}
  0
LINE
  5
259
330
21A
100
AcDbEntity
  8
M-PIPE
100
AcDbLine
 10
1083.986632211866
 20
1991.864209253773
 30
0.0
 11
1083.986632211866
 21
1999.632158446247
 31
0.0
1001
REVIT
1002
{
1070
     3
1000
790271
1002
}
  0
LINE
  5
25A
330
21A
100
AcDbEntity
  8
M-PIPE
100
AcDbLine
 10
1083.986632211866
 20
1991.864209253784
 30
0.0
 11
1087.363156828886
 21
1991.864209253784
 31
0.0
1001
REVIT
1002
{
1070
     3
1000
790271
1002
}
  0
LINE
  5
25B
330
21A
100
AcDbEntity
  8
M-PIPE
100
AcDbLine
 10
1087.363156828886
 20
1999.632158446235
 30
0.0
 11
1083.986632211866
 21
1999.632158446235
 31
0.0
1001
REVIT
1002
{
1070
     3
1000
790271
1002
}
  0
LINE
  5
25C
330
21A
100
AcDbEntity
  8
M-PIPE
100
AcDbLine
 10
1087.363156828886
 20
1991.864209253775
 30
0.0
 11
1087.363156828886
 21
1999.632158446245
 31
0.0
1001
REVIT
1002
{
1070
     3
1000
790271
1002
}
  0
SPLINE
  5
25D
330
21A
100
AcDbEntity
  8
M-PIPE
100
AcDbSpline
210
0.0
220
0.0
230
1.0
 70
    24
 71
     3
 72
     8
 73
     4
 74
     0
 42
0.000000001
 43
0.0000000001
 40
0.0
 40
0.0
 40
0.0
 40
0.0
 40
0.5
 40
0.5
 40
0.5
 40
0.5
 10
1087.363156828886
 20
1991.864209253775
 30
0.0
 10
1087.363156828886
 20
1991.479329629065
 30
0.0
 10
1087.363156828886
 20
1991.28688981671
 30
0.0
 10
1087.363156828886
 20
1991.286889816711
 30
0.0
1001
REVIT
1002
{
1070
     3
1000
790271
1002
}
  0
SPLINE
  5
25E
330
21A
100
AcDbEntity
  8
M-PIPE
100
AcDbSpline
210
0.0
220
0.0
230
1.0
 70
    24
 71
     3
 72
     8
 73
     4
 74
     0
 42
0.000000001
 43
0.0000000001
 40
0.5
 40
0.5
 40
0.5
 40
0.5
 40
1.0
 40
1.0
 40
1.0
 40
1.0
 10
1087.363156828886
 20
2000.209477883308
 30
0.0
 10
1087.363156828886
 20
2000.20947788331
 30
0.0
 10
1087.363156828886
 20
2000.017038070955
 30
0.0
 10
1087.363156828886
 20
1999.632158446245
 30
0.0
1001
REVIT
1002
{
1070
     3
1000
790271
1002
}
  0
LINE
  5
25F
330
21A
100
AcDbEntity
  8
P-SANR-FIXT
100
AcDbLine
 10
1086.863156828901
 20
1980.001585351574
 30
0.0
 11
1086.863156828901
 21
1990.998183850012
 31
0.0
  0
LINE
  5
260
330
21A
100
AcDbEntity
  8
P-SANR-FIXT
100
AcDbLine
 10
1082.77469956078
 20
1961.998183850012
 30
0.0
 11
1091.363156828901
 21
1961.998183850012
 31
0.0
  0
LINE
  5
261
330
21A
100
AcDbEntity
  8
P-SANR-FIXT
100
AcDbLine
 10
1091.363156828901
 20
1979.998183850012
 30
0.0
 11
1082.774699560781
 21
1979.998183850012
 31
0.0
  0
LINE
  5
262
330
21A
100
AcDbEntity
  8
P-SANR-FIXT
100
AcDbLine
 10
1053.676488113541
 20
2043.998183850008
 30
0.0
 11
1053.676488113541
 21
2019.998183850008
 31
0.0
  0
LINE
  5
263
330
21A
100
AcDbEntity
  8
P-SANR-FIXT
100
AcDbLine
 10
1087.04982554426
 20
2019.998183850008
 30
0.0
 11
1087.04982554426
 21
2043.998183850008
 31
0.0
  0
LINE
  5
264
330
21A
100
AcDbEntity
  8
P-SANR-FIXT
100
AcDbLine
 10
1044.058431129676
 20
2019.998183850008
 30
0.0
 11
1036.058431129676
 21
2014.398183850008
 31
0.0
  0
LINE
  5
265
330
21A
100
AcDbEntity
  8
P-SANR-FIXT
100
AcDbLine
 10
1104.667882528125
 20
2014.398183850008
 30
0.0
 11
1096.667882528125
 21
2019.998183850008
 31
0.0
  0
LINE
  5
266
330
21A
100
AcDbEntity
  8
P-SANR-FIXT
100
AcDbLine
 10
1036.058431129676
 20
2014.398183850008
 30
0.0
 11
1036.058431129676
 21
2007.995385733373
 31
0.0
  0
LINE
  5
267
330
21A
100
AcDbEntity
  8
P-SANR-FIXT
100
AcDbLine
 10
1104.667882528125
 20
2007.995385733373
 30
0.0
 11
1104.667882528125
 21
2014.398183850008
 31
0.0
  0
LINE
  5
268
330
21A
100
AcDbEntity
  8
P-SANR-FIXT
100
AcDbLine
 10
1036.058431129676
 20
2007.995385733373
 30
0.0
 11
1037.055633013042
 21
2006.998183850008
 31
0.0
  0
LINE
  5
269
330
21A
100
AcDbEntity
  8
P-SANR-FIXT
100
AcDbLine
 10
1103.670680644759
 20
2006.998183850008
 30
0.0
 11
1104.667882528125
 21
2007.995385733373
 31
0.0
  0
LINE
  5
26A
330
21A
100
AcDbEntity
  8
P-SANR-FIXT
100
AcDbLine
 10
1041.286195365384
 20
2006.998183850007
 30
0.0
 11
1043.856407615697
 21
2005.498183850029
 31
0.0
  0
LINE
  5
26B
330
21A
100
AcDbEntity
  8
P-SANR-FIXT
100
AcDbLine
 10
1096.869906042104
 20
2005.498183850029
 30
0.0
 11
1099.440118292417
 21
2006.998183850008
 31
0.0
  0
LINE
  5
26C
330
21A
100
AcDbEntity
  8
P-SANR-FIXT
100
AcDbLine
 10
1052.058431129707
 20
2005.498183850029
 30
0.0
 11
1052.058431129707
 21
2003.705931621386
 31
0.0
  0
LINE
  5
26D
330
21A
100
AcDbEntity
  8
P-SANR-FIXT
100
AcDbLine
 10
1088.667882528095
 20
2000.498183850011
 30
0.0
 11
1088.667882528095
 21
2005.498183850029
 31
0.0
  0
LINE
  5
26E
330
21A
100
AcDbEntity
  8
P-SANR-FIXT
100
AcDbLine
 10
1070.363156828898
 20
1990.998183850011
 30
0.0
 11
1071.801710545481
 21
1990.998183850011
 31
0.0
  0
LINE
  5
26F
330
21A
100
AcDbEntity
  8
P-SANR-FIXT
100
AcDbLine
 10
1071.980439644336
 20
1990.998183850011
 30
0.0
 11
1073.230482759472
 21
1990.998183850011
 31
0.0
  0
LINE
  5
270
330
21A
100
AcDbEntity
  8
P-SANR-FIXT
100
AcDbLine
 10
1073.582147142165
 20
1990.998183850011
 30
0.0
 11
1074.638040127513
 21
1990.998183850011
 31
0.0
  0
LINE
  5
271
330
21A
100
AcDbEntity
  8
P-SANR-FIXT
100
AcDbLine
 10
1074.763600955717
 20
1990.998183850011
 30
0.0
 11
1076.01312487326
 21
1990.998183850011
 31
0.0
  0
LINE
  5
272
330
21A
100
AcDbEntity
  8
P-SANR-FIXT
100
AcDbLine
 10
1077.344742312333
 20
1990.998183850011
 30
0.0
 11
1078.141202986527
 21
1990.998183850011
 31
0.0
  0
LINE
  5
273
330
21A
100
AcDbEntity
  8
P-SANR-FIXT
100
AcDbLine
 10
1078.622245475518
 20
1990.998183850011
 30
0.0
 11
1079.530065673722
 21
1990.998183850011
 31
0.0
  0
LINE
  5
274
330
21A
100
AcDbEntity
  8
P-SANR-FIXT
100
AcDbLine
 10
1079.83541456458
 20
1990.998183850011
 30
0.0
 11
1080.830646017599
 21
1990.998183850011
 31
0.0
  0
LINE
  5
275
330
21A
100
AcDbEntity
  8
P-SANR-FIXT
100
AcDbLine
 10
1080.974527928517
 20
1990.998183850011
 30
0.0
 11
1083.008522753112
 21
1990.998183850011
 31
0.0
  0
LINE
  5
276
330
21A
100
AcDbEntity
  8
P-SANR-FIXT
100
AcDbLine
 10
1083.117829309384
 20
1990.998183850011
 30
0.0
 11
1083.889858977005
 21
1990.998183850011
 31
0.0
  0
LINE
  5
277
330
21A
100
AcDbEntity
  8
P-SANR-FIXT
100
AcDbLine
 10
1084.667344315315
 20
1990.998183850011
 30
0.0
 11
1085.334750017728
 21
1990.998183850011
 31
0.0
  0
LINE
  5
278
330
21A
100
AcDbEntity
  8
P-SANR-FIXT
100
AcDbLine
 10
1086.038190927472
 20
1990.998183850011
 30
0.0
 11
1086.15267236848
 21
1990.998183850011
 31
0.0
  0
LINE
  5
279
330
21A
100
AcDbEntity
  8
P-SANR-FIXT
100
AcDbLine
 10
1086.45627391311
 20
1990.998183850011
 30
0.0
 11
1086.577737766952
 21
1990.998183850011
 31
0.0
  0
LINE
  5
27A
330
21A
100
AcDbEntity
  8
P-SANR-FIXT
100
AcDbLine
 10
1086.737216083154
 20
1990.998183850011
 30
0.0
 11
1086.78370481899
 21
1990.998183850011
 31
0.0
  0
LINE
  5
27B
330
21A
100
AcDbEntity
  8
P-SANR-FIXT
100
AcDbLine
 10
1069.012242816309
 20
1986.3840408185
 30
0.0
 11
1057.666300142419
 21
1979.83345776152
 31
0.0
  0
LINE
  5
27C
330
21A
100
AcDbEntity
  8
P-SANR-FIXT
100
AcDbLine
 10
1056.363156828898
 20
1977.548766906991
 30
0.0
 11
1056.363156828898
 21
1964.44760079303
 31
0.0
  0
LINE
  5
27D
330
21A
100
AcDbEntity
  8
P-SANR-FIXT
100
AcDbLine
 10
1057.666300142419
 20
1962.162909938503
 30
0.0
 11
1069.01224281631
 21
1955.612326881522
 31
0.0
  0
ARC
  5
27E
330
21A
100
AcDbEntity
  8
P-SANR-FIXT
100
AcDbCircle
 10
1070.363156828898
 20
1970.998183850011
 30
0.0
 40
6.349999999999909
100
AcDbArc
 50
90.0
 51
269.9999999999997
  0
ARC
  5
27F
330
21A
100
AcDbEntity
  8
P-SANR-FIXT
100
AcDbCircle
 10
1070.363156828898
 20
1970.998183850011
 30
0.0
 40
15.49999999999999
100
AcDbArc
 50
330.0000000000011
 51
330.205015771358
  0
ARC
  5
280
330
21A
100
AcDbEntity
  8
P-SANR-FIXT
100
AcDbCircle
 10
1070.363156828898
 20
2030.995385733374
 30
0.0
 40
7.000000000062755
100
AcDbArc
 50
90.0
 51
269.9999999999997
  0
LINE
  5
281
330
21A
100
AcDbEntity
  8
P-SANR-FIXT
100
AcDbLine
 10
1054.928593276213
 20
1969.498183850011
 30
0.0
 11
1056.345142040926
 21
1969.498183850011
 31
0.0
  0
ARC
  5
282
330
21A
100
AcDbEntity
  8
P-SANR-FIXT
100
AcDbCircle
 10
1070.363156828898
 20
1970.998183850011
 30
0.0
 40
15.49999999999988
100
AcDbArc
 50
269.9999999999997
 51
274.5853790848388
  0
LINE
  5
283
330
21A
100
AcDbEntity
  8
P-SANR-FIXT
100
AcDbLine
 10
1071.602297517997
 20
1955.547794523116
 30
0.0
 11
1083.1240161398
 21
1962.199861870942
 31
0.0
  0
ARC
  5
284
330
21A
100
AcDbEntity
  8
P-SANR-FIXT
100
AcDbCircle
 10
1070.363156828898
 20
1970.998183850011
 30
0.0
 40
15.50000000000003
100
AcDbArc
 50
325.414620915162
 51
334.5853790848401
  0
LINE
  5
285
330
21A
100
AcDbEntity
  8
P-SANR-FIXT
100
AcDbLine
 10
1084.363156828898
 20
1964.346116502186
 30
0.0
 11
1084.363156828898
 21
1977.650251197836
 31
0.0
  0
ARC
  5
286
330
21A
100
AcDbEntity
  8
P-SANR-FIXT
100
AcDbCircle
 10
1070.363156828898
 20
1970.998183850011
 30
0.0
 40
15.5000000000002
100
AcDbArc
 50
25.41462091516164
 51
34.58537908484164
  0
LINE
  5
287
330
21A
100
AcDbEntity
  8
P-SANR-FIXT
100
AcDbLine
 10
1083.124016139799
 20
1979.796505829081
 30
0.0
 11
1071.602297517997
 21
1986.448573176906
 31
0.0
  0
ARC
  5
288
330
21A
100
AcDbEntity
  8
P-SANR-FIXT
100
AcDbCircle
 10
1070.363156828898
 20
1970.998183850011
 30
0.0
 40
15.5
100
AcDbArc
 50
85.41462091515915
 51
90.0
  0
ARC
  5
289
330
21A
100
AcDbEntity
  8
P-SANR-FIXT
100
AcDbCircle
 10
1070.363156828898
 20
1970.998183850011
 30
0.0
 40
6.350000000000136
100
AcDbArc
 50
269.9999999999997
 51
90.0
  0
LINE
  5
28A
330
21A
100
AcDbEntity
  8
P-SANR-FIXT
100
AcDbLine
 10
1091.363156828898
 20
1970.998183850011
 30
0.0
 11
1091.363156828898
 21
1961.998183850011
 31
0.0
  0
LINE
  5
28B
330
21A
100
AcDbEntity
  8
P-SANR-FIXT
100
AcDbLine
 10
1091.363156828898
 20
1979.998183850011
 30
0.0
 11
1091.363156828898
 21
1970.998183850011
 31
0.0
  0
LINE
  5
28C
330
21A
100
AcDbEntity
  8
P-SANR-FIXT
100
AcDbLine
 10
1088.667882528092
 20
2000.49818385001
 30
0.0
 11
1070.363156828899
 21
2000.49818385001
 31
0.0
  0
SPLINE
  5
28D
330
21A
100
AcDbEntity
  8
P-SANR-FIXT
100
AcDbSpline
210
0.0
220
0.0
230
1.0
 70
     8
 71
     3
 72
     8
 73
     4
 74
     0
 42
0.000000001
 43
0.0000000001
 40
0.037037037037037
 40
0.037037037037037
 40
0.037037037037037
 40
0.037037037037037
 40
0.0740740740740741
 40
0.0740740740740741
 40
0.0740740740740741
 40
0.0740740740740741
 10
1069.526144707315
 20
2024.050497313293
 30
0.0
 10
1069.252814747195
 20
2024.083243640012
 30
0.0
 10
1068.985026697059
 20
2024.130509935288
 30
0.0
 10
1068.722384045755
 20
2024.192728704602
 30
0.0
  0
SPLINE
  5
28E
330
21A
100
AcDbEntity
  8
P-SANR-FIXT
100
AcDbSpline
210
0.0
220
0.0
230
1.0
 70
     8
 71
     3
 72
     8
 73
     4
 74
     0
 42
0.000000001
 43
0.0000000001
 40
0.1101715089766224
 40
0.1101715089766224
 40
0.1101715089766224
 40
0.1101715089766224
 40
0.1111111111111111
 40
0.1111111111111111
 40
0.1111111111111111
 40
0.1111111111111111
 10
1067.968741067949
 20
2024.417660390371
 30
0.0
 10
1067.96232291033
 20
2024.419988676575
 30
0.0
 10
1067.955907815566
 20
2024.422326857477
 30
0.0
 10
1067.949495777182
 20
2024.42467494014
 30
0.0
  0
SPLINE
  5
28F
330
21A
100
AcDbEntity
  8
P-SANR-FIXT
100
AcDbSpline
210
0.0
220
0.0
230
1.0
 70
     8
 71
     3
 72
     8
 73
     4
 74
     0
 42
0.000000001
 43
0.0000000001
 40
0.1481481481481481
 40
0.1481481481481481
 40
0.1481481481481481
 40
0.1481481481481481
 40
0.1851851851851852
 40
0.1851851851851852
 40
0.1851851851851852
 40
0.1851851851851852
 10
1067.207525097973
 20
2024.747201030892
 30
0.0
 10
1066.966302260828
 20
2024.869229696363
 30
0.0
 10
1066.731856063853
 20
2025.005345824874
 30
0.0
 10
1066.506214259351
 20
2025.15425190001
 30
0.0
  0
SPLINE
  5
290
330
21A
100
AcDbEntity
  8
P-SANR-FIXT
100
AcDbSpline
210
0.0
220
0.0
230
1.0
 70
     8
 71
     3
 72
     9
 73
     5
 74
     0
 42
0.000000001
 43
0.0000000001
 40
0.2592592592592593
 40
0.2592592592592593
 40
0.2592592592592593
 40
0.2592592592592593
 40
0.2777777777777778
 40
0.2962962962962963
 40
0.2962962962962963
 40
0.2962962962962963
 40
0.2962962962962963
 10
1065.272414012248
 20
2026.191241052776
 30
0.0
 10
1065.180345325172
 20
2026.288905687732
 30
0.0
 10
1065.001725824726
 20
2026.489559151695
 30
0.0
 10
1064.834243874784
 20
2026.700438981841
 30
0.0
 10
1064.753612789941
 20
2026.808181629792
 30
0.0
  0
SPLINE
  5
291
330
21A
100
AcDbEntity
  8
P-SANR-FIXT
100
AcDbSpline
210
0.0
220
0.0
230
1.0
 70
     8
 71
     3
 72
     8
 73
     4
 74
     0
 42
0.000000001
 43
0.0000000001
 40
0.3333333333333333
 40
0.3333333333333333
 40
0.3333333333333333
 40
0.3333333333333333
 40
0.3341110820243022
 40
0.3341110820243022
 40
0.3341110820243022
 40
0.3341110820243022
 10
1064.309748982419
 20
2027.480239442667
 30
0.0
 10
1064.306939727925
 20
2027.485108662624
 30
0.0
 10
1064.304137107151
 20
2027.489981048753
 30
0.0
 10
1064.301341066351
 20
2027.494856653881
 30
0.0
  0
SPLINE
  5
292
330
21A
100
AcDbEntity
  8
P-SANR-FIXT
100
AcDbSpline
210
0.0
220
0.0
230
1.0
 70
     8
 71
     3
 72
     9
 73
     5
 74
     0
 42
0.000000001
 43
0.0000000001
 40
0.3703703703703703
 40
0.3703703703703703
 40
0.3703703703703703
 40
0.3703703703703703
 40
0.3888888888888888
 40
0.4074074074074074
 40
0.4074074074074074
 40
0.4074074074074074
 40
0.4074074074074074
 10
1063.947917928683
 20
2028.202865560164
 30
0.0
 10
1063.893529005724
 20
2028.328340531313
 30
0.0
 10
1063.790807447112
 20
2028.583750186726
 30
0.0
 10
1063.703042774053
 20
2028.843000715827
 30
0.0
 10
1063.66308652279
 20
2028.973489475622
 30
0.0
  0
SPLINE
  5
293
330
21A
100
AcDbEntity
  8
P-SANR-FIXT
100
AcDbSpline
210
0.0
220
0.0
230
1.0
 70
     8
 71
     3
 72
     8
 73
     4
 74
     0
 42
0.000000001
 43
0.0000000001
 40
0.4444444444444445
 40
0.4444444444444445
 40
0.4444444444444445
 40
0.4444444444444445
 40
0.445075434632491
 40
0.445075434632491
 40
0.445075434632491
 40
0.445075434632491
 10
1063.471956949419
 20
2029.766010191913
 30
0.0
 10
1063.471156069359
 20
2029.77056090433
 30
0.0
 10
1063.470360181434
 20
2029.775112394636
 30
0.0
 10
1063.469569273313
 20
2029.779664677862
 30
0.0
  0
SPLINE
  5
294
330
21A
100
AcDbEntity
  8
P-SANR-FIXT
100
AcDbSpline
210
0.0
220
0.0
230
1.0
 70
     8
 71
     3
 72
     9
 73
     5
 74
     0
 42
0.000000001
 43
0.0000000001
 40
0.4814814814814815
 40
0.4814814814814815
 40
0.4814814814814815
 40
0.4814814814814815
 40
0.5138888888888889
 40
0.5185185185185186
 40
0.5185185185185186
 40
0.5185185185185186
 40
0.5185185185185186
 10
1063.380035251721
 20
2030.578422553097
 30
0.0
 10
1063.366829434167
 20
2030.819452178676
 30
0.0
 10
1063.364760269432
 20
2031.099231401569
 30
0.0
 10
1063.377890548531
 20
2031.375582980956
 30
0.0
 10
1063.379771389287
 20
2031.410068125609
 30
0.0
  0
SPLINE
  5
295
330
21A
100
AcDbEntity
  8
P-SANR-FIXT
100
AcDbSpline
210
0.0
220
0.0
230
1.0
 70
     8
 71
     3
 72
     8
 73
     4
 74
     0
 42
0.000000001
 43
0.0000000001
 40
0.5550123723258152
 40
0.5550123723258152
 40
0.5550123723258152
 40
0.5550123723258152
 40
0.5555555555555556
 40
0.5555555555555556
 40
0.5555555555555556
 40
0.5555555555555556
 10
1063.469917941959
 20
2032.212087702003
 30
0.0
 10
1063.470596807588
 20
2032.215990686841
 30
0.0
 10
1063.471279189707
 20
2032.219892635298
 30
0.0
 10
1063.471965091454
 20
2032.223793567669
 30
0.0
  0
SPLINE
  5
296
330
21A
100
AcDbEntity
  8
P-SANR-FIXT
100
AcDbSpline
210
0.0
220
0.0
230
1.0
 70
     8
 71
     3
 72
     9
 73
     5
 74
     0
 42
0.000000001
 43
0.0000000001
 40
0.5925925925925926
 40
0.5925925925925926
 40
0.5925925925925926
 40
0.5925925925925926
 40
0.6180555555555555
 40
0.6296296296296296
 40
0.6296296296296296
 40
0.6296296296296296
 40
0.6296296296296296
 10
1063.662270831045
 20
2033.013803409256
 30
0.0
 10
1063.717391441731
 20
2033.194004094756
 30
0.0
 10
1063.808698691875
 20
2033.454844539306
 30
0.0
 10
1063.913544893082
 20
2033.708681452245
 30
0.0
 10
1063.947549169359
 20
2033.787158782862
 30
0.0
  0
SPLINE
  5
297
330
21A
100
AcDbEntity
  8
P-SANR-FIXT
100
AcDbSpline
210
0.0
220
0.0
230
1.0
 70
     8
 71
     3
 72
     8
 73
     4
 74
     0
 42
0.000000001
 43
0.0000000001
 40
0.6659196925616941
 40
0.6659196925616941
 40
0.6659196925616941
 40
0.6659196925616941
 40
0.6666666666666666
 40
0.6666666666666666
 40
0.6666666666666666
 40
0.6666666666666666
 10
1064.301629382613
 20
2034.496171974929
 30
0.0
 10
1064.304290398389
 20
2034.500828899457
 30
0.0
 10
1064.306956845217
 20
2034.505481783379
 30
0.0
 10
1064.30962875419
 20
2034.510130709224
 30
0.0
  0
SPLINE
  5
298
330
21A
100
AcDbEntity
  8
P-SANR-FIXT
100
AcDbSpline
210
0.0
220
0.0
230
1.0
 70
     8
 71
     3
 72
     9
 73
     5
 74
     0
 42
0.000000001
 43
0.0000000001
 40
0.7037037037037035
 40
0.7037037037037035
 40
0.7037037037037035
 40
0.7037037037037035
 40
0.7222222222222223
 40
0.7407407407407405
 40
0.7407407407407405
 40
0.7407407407407405
 40
0.7407407407407405
 10
1064.751043869184
 20
2035.179893992413
 30
0.0
 10
1064.832056171785
 20
2035.288093810208
 30
0.0
 10
1065.000220339343
 20
2035.501275357798
 30
0.0
 10
1065.18007556384
 20
2035.698982669517
 30
0.0
 10
1065.272605354176
 20
2035.794882541601
 30
0.0
  0
SPLINE
  5
299
330
21A
100
AcDbEntity
  8
P-SANR-FIXT
100
AcDbSpline
210
0.0
220
0.0
230
1.0
 70
     8
 71
     3
 72
     8
 73
     4
 74
     0
 42
0.000000001
 43
0.0000000001
 40
0.8148148148148145
 40
0.8148148148148145
 40
0.8148148148148145
 40
0.8148148148148145
 40
0.8518518518518513
 40
0.8518518518518513
 40
0.8518518518518513
 40
0.8518518518518513
 10
1066.501610859213
 20
2036.832756661822
 30
0.0
 10
1066.728384609944
 20
2036.982554345196
 30
0.0
 10
1066.960326798997
 20
2037.131915899411
 30
0.0
 10
1067.204116518272
 20
2037.24991246782
 30
0.0
  0
SPLINE
  5
29A
330
21A
100
AcDbEntity
  8
P-SANR-FIXT
100
AcDbSpline
210
0.0
220
0.0
230
1.0
 70
     8
 71
     3
 72
     8
 73
     4
 74
     0
 42
0.000000001
 43
0.0000000001
 40
0.8888888888888883
 40
0.8888888888888883
 40
0.8888888888888883
 40
0.8888888888888883
 40
0.8898537464972685
 40
0.8898537464972685
 40
0.8898537464972685
 40
0.8898537464972685
 10
1067.948537085322
 20
2037.565472820717
 30
0.0
 10
1067.955111323466
 20
2037.567878159853
 30
0.0
 10
1067.96169631391
 20
2037.570253434029
 30
0.0
 10
1067.968291870438
 20
2037.572599163844
 30
0.0
  0
SPLINE
  5
29B
330
21A
100
AcDbEntity
  8
P-SANR-FIXT
100
AcDbSpline
210
0.0
220
0.0
230
1.0
 70
     8
 71
     3
 72
     8
 73
     4
 74
     0
 42
0.000000001
 43
0.0000000001
 40
0.9259259259259254
 40
0.9259259259259254
 40
0.9259259259259254
 40
0.9259259259259254
 40
0.9629629629629622
 40
0.9629629629629622
 40
0.9629629629629622
 40
0.9629629629629622
 10
1068.721159731868
 20
2037.797320879632
 30
0.0
 10
1068.983947040127
 20
2037.859652005844
 30
0.0
 10
1069.257645391501
 20
2037.892711381723
 30
0.0
 10
1069.534047377252
 20
2037.918416394835
 30
0.0
  0
SPLINE
  5
29C
330
21A
100
AcDbEntity
  8
P-SANR-FIXT
100
AcDbSpline
210
0.0
220
0.0
230
1.0
 70
     8
 71
     3
 72
     8
 73
     4
 74
     0
 42
0.000000001
 43
0.0000000001
 40
0.037037037037037
 40
0.037037037037037
 40
0.037037037037037
 40
0.037037037037037
 40
0.0740740740740741
 40
0.0740740740740741
 40
0.0740740740740741
 40
0.0740740740740741
 10
1071.200166456874
 20
2037.940416965028
 30
0.0
 10
1071.47351030247
 20
2037.907698504071
 30
0.0
 10
1071.74133461701
 20
2037.860432862588
 30
0.0
 10
1072.004058898401
 20
2037.79816511347
 30
0.0
  0
SPLINE
  5
29D
330
21A
100
AcDbEntity
  8
P-SANR-FIXT
100
AcDbSpline
210
0.0
220
0.0
230
1.0
 70
     8
 71
     3
 72
     8
 73
     4
 74
     0
 42
0.000000001
 43
0.0000000001
 40
0.1101462535027228
 40
0.1101462535027228
 40
0.1101462535027228
 40
0.1101462535027228
 40
0.1111111111111111
 40
0.1111111111111111
 40
0.1111111111111111
 40
0.1111111111111111
 10
1072.757573176151
 20
2037.573116081794
 30
0.0
 10
1072.76416901256
 20
2037.570721411314
 30
0.0
 10
1072.770761665047
 20
2037.568316258764
 30
0.0
 10
1072.77735114103
 20
2037.565900616101
 30
0.0
  0
SPLINE
  5
29E
330
21A
100
AcDbEntity
  8
P-SANR-FIXT
100
AcDbSpline
210
0.0
220
0.0
230
1.0
 70
     8
 71
     3
 72
     8
 73
     4
 74
     0
 42
0.000000001
 43
0.0000000001
 40
0.1481481481481481
 40
0.1481481481481481
 40
0.1481481481481481
 40
0.1481481481481481
 40
0.1851851851851852
 40
0.1851851851851852
 40
0.1851851851851852
 40
0.1851851851851852
 10
1073.520041639587
 20
2037.242713618684
 30
0.0
 10
1073.761525247237
 20
2037.120437439021
 30
0.0
 10
1073.996229284585
 20
2036.984069005974
 30
0.0
 10
1074.222054716761
 20
2036.834973100838
 30
0.0
  0
SPLINE
  5
29F
330
21A
100
AcDbEntity
  8
P-SANR-FIXT
100
AcDbSpline
210
0.0
220
0.0
230
1.0
 70
     8
 71
     3
 72
     9
 73
     5
 74
     0
 42
0.000000001
 43
0.0000000001
 40
0.2592592592592593
 40
0.2592592592592593
 40
0.2592592592592593
 40
0.2592592592592593
 40
0.2777777777777778
 40
0.2962962962962963
 40
0.2962962962962963
 40
0.2962962962962963
 40
0.2962962962962963
 10
1075.455655875827
 20
2035.797984294124
 30
0.0
 10
1075.547605365634
 20
2035.700409979283
 30
0.0
 10
1075.725958062053
 20
2035.499961413981
 30
0.0
 10
1075.893160727137
 20
2035.289294388075
 30
0.0
 10
1075.973659828463
 20
2035.181647570412
 30
0.0
  0
SPLINE
  5
2A0
330
21A
100
AcDbEntity
  8
P-SANR-FIXT
100
AcDbSpline
210
0.0
220
0.0
230
1.0
 70
     8
 71
     3
 72
     8
 73
     4
 74
     0
 42
0.000000001
 43
0.0000000001
 40
0.3333333333333333
 40
0.3333333333333333
 40
0.3333333333333333
 40
0.3333333333333333
 40
0.3340803074383056
 40
0.3340803074383056
 40
0.3340803074383056
 40
0.3340803074383056
 10
1076.416909874785
 20
2034.509937491465
 30
0.0
 10
1076.41960562158
 20
2034.50526107585
 30
0.0
 10
1076.422295296783
 20
2034.500581681637
 30
0.0
 10
1076.424978947124
 20
2034.495899262894
 30
0.0
  0
SPLINE
  5
2A1
330
21A
100
AcDbEntity
  8
P-SANR-FIXT
100
AcDbSpline
210
0.0
220
0.0
230
1.0
 70
     8
 71
     3
 72
     9
 73
     5
 74
     0
 42
0.000000001
 43
0.0000000001
 40
0.3703703703703703
 40
0.3703703703703703
 40
0.3703703703703703
 40
0.3703703703703703
 40
0.3888888888888888
 40
0.4074074074074074
 40
0.4074074074074074
 40
0.4074074074074074
 40
0.4074074074074074
 10
1076.778635291101
 20
2033.787009262436
 30
0.0
 10
1076.833031105827
 20
2033.661447267701
 30
0.0
 10
1076.935779864829
 20
2033.405842110897
 30
0.0
 10
1077.023580466593
 20
2033.146393385665
 30
0.0
 10
1077.0635519042
 20
2033.015810793262
 30
0.0
  0
SPLINE
  5
2A2
330
21A
100
AcDbEntity
  8
P-SANR-FIXT
100
AcDbSpline
210
0.0
220
0.0
230
1.0
 70
     8
 71
     3
 72
     8
 73
     4
 74
     0
 42
0.000000001
 43
0.0000000001
 40
0.4444444444444445
 40
0.4444444444444445
 40
0.4444444444444445
 40
0.4444444444444445
 40
0.4449876276741868
 40
0.4449876276741868
 40
0.4449876276741868
 40
0.4449876276741868
 10
1077.254699578832
 20
2032.222837779981
 30
0.0
 10
1077.255388548052
 20
2032.218918895223
 30
0.0
 10
1077.256073806925
 20
2032.214999448761
 30
0.0
 10
1077.256755363455
 20
2032.211079430822
 30
0.0
  0
SPLINE
  5
2A3
330
21A
100
AcDbEntity
  8
P-SANR-FIXT
100
AcDbSpline
210
0.0
220
0.0
230
1.0
 70
     8
 71
     3
 72
     9
 73
     5
 74
     0
 42
0.000000001
 43
0.0000000001
 40
0.4814814814814815
 40
0.4814814814814815
 40
0.4814814814814815
 40
0.4814814814814815
 40
0.5138888888888889
 40
0.5185185185185186
 40
0.5185185185185186
 40
0.5185185185185186
 40
0.5185185185185186
 10
1077.346417675394
 20
2031.410278981332
 30
0.0
 10
1077.35954488346
 20
2031.169232984949
 30
0.0
 10
1077.361516301231
 20
2030.889447898465
 30
0.0
 10
1077.348294462879
 20
2030.613113092929
 30
0.0
 10
1077.346402348636
 20
2030.578630441138
 30
0.0
  0
SPLINE
  5
2A4
330
21A
100
AcDbEntity
  8
P-SANR-FIXT
100
AcDbSpline
210
0.0
220
0.0
230
1.0
 70
     8
 71
     3
 72
     8
 73
     4
 74
     0
 42
0.000000001
 43
0.0000000001
 40
0.554924565367513
 40
0.554924565367513
 40
0.554924565367513
 40
0.554924565367513
 40
0.5555555555555556
 40
0.5555555555555556
 40
0.5555555555555556
 40
0.5555555555555556
 10
1077.256386674011
 20
2029.778656624191
 30
0.0
 10
1077.255598824758
 20
2029.774123864392
 30
0.0
 10
1077.254806242411
 20
2029.769592520848
 30
0.0
 10
1077.254008921987
 20
2029.765062561821
 30
0.0
  0
SPLINE
  5
2A5
330
21A
100
AcDbEntity
  8
P-SANR-FIXT
100
AcDbSpline
210
0.0
220
0.0
230
1.0
 70
     8
 71
     3
 72
     9
 73
     5
 74
     0
 42
0.000000001
 43
0.0000000001
 40
0.5925925925925926
 40
0.5925925925925926
 40
0.5925925925925926
 40
0.5925925925925926
 40
0.6180555555555555
 40
0.6296296296296296
 40
0.6296296296296296
 40
0.6296296296296296
 40
0.6296296296296296
 10
1077.063712258108
 20
2028.975481018039
 30
0.0
 10
1077.008613270409
 20
2028.7954130994
 30
0.0
 10
1076.917349100535
 20
2028.534789995412
 30
0.0
 10
1076.812528643539
 20
2028.281144171227
 30
0.0
 10
1076.778528956616
 20
2028.202721437251
 30
0.0
  0
SPLINE
  5
2A6
330
21A
100
AcDbEntity
  8
P-SANR-FIXT
100
AcDbSpline
210
0.0
220
0.0
230
1.0
 70
     8
 71
     3
 72
     8
 73
     4
 74
     0
 42
0.000000001
 43
0.0000000001
 40
0.665888917975701
 40
0.665888917975701
 40
0.665888917975701
 40
0.665888917975701
 40
0.6666666666666666
 40
0.6666666666666666
 40
0.6666666666666666
 40
0.6666666666666666
 10
1076.424666060236
 20
2027.49457125332
 30
0.0
 10
1076.421893629317
 20
2027.489722174621
 30
0.0
 10
1076.419115276858
 20
2027.484877431059
 30
0.0
 10
1076.416330967435
 20
2027.480036929457
 30
0.0
  0
SPLINE
  5
2A7
330
21A
100
AcDbEntity
  8
P-SANR-FIXT
100
AcDbSpline
210
0.0
220
0.0
230
1.0
 70
     8
 71
     3
 72
     9
 73
     5
 74
     0
 42
0.000000001
 43
0.0000000001
 40
0.7037037037037035
 40
0.7037037037037035
 40
0.7037037037037035
 40
0.7037037037037035
 40
0.7222222222222223
 40
0.7407407407407405
 40
0.7407407407407405
 40
0.7407407407407405
 40
0.7407407407407405
 10
1075.974322657173
 20
2026.809944041337
 30
0.0
 10
1075.893174087585
 20
2026.701645011348
 30
0.0
 10
1075.724717189318
 20
2026.488240238506
 30
0.0
 10
1075.544605315558
 20
2026.290337484604
 30
0.0
 10
1075.451963061729
 20
2026.194353475073
 30
0.0
  0
SPLINE
  5
2A8
330
21A
100
AcDbEntity
  8
P-SANR-FIXT
100
AcDbSpline
210
0.0
220
0.0
230
1.0
 70
     8
 71
     3
 72
     8
 73
     4
 74
     0
 42
0.000000001
 43
0.0000000001
 40
0.8148148148148145
 40
0.8148148148148145
 40
0.8148148148148145
 40
0.8148148148148145
 40
0.8518518518518513
 40
0.8518518518518513
 40
0.8518518518518513
 40
0.8518518518518513
 10
1074.222798620189
 20
2025.156524160484
 30
0.0
 10
1073.996231839735
 20
2025.006938574395
 30
0.0
 10
1073.764604001153
 20
2024.857887693833
 30
0.0
 10
1073.521062512469
 20
2024.740124018437
 30
0.0
  0
SPLINE
  5
2A9
330
21A
100
AcDbEntity
  8
P-SANR-FIXT
100
AcDbSpline
210
0.0
220
0.0
230
1.0
 70
     8
 71
     3
 72
     8
 73
     4
 74
     0
 42
0.000000001
 43
0.0000000001
 40
0.8888888888888883
 40
0.8888888888888883
 40
0.8888888888888883
 40
0.8888888888888883
 40
0.8898284910233934
 40
0.8898284910233934
 40
0.8898284910233934
 40
0.8898284910233934
 10
1072.777258311794
 20
2024.425121008427
 30
0.0
 10
1072.770860228018
 20
2024.422782100572
 30
0.0
 10
1072.764451880246
 20
2024.420471633997
 30
0.0
 10
1072.758033441594
 20
2024.41818912907
 30
0.0
  0
SPLINE
  5
2AA
330
21A
100
AcDbEntity
  8
P-SANR-FIXT
100
AcDbSpline
210
0.0
220
0.0
230
1.0
 70
     8
 71
     3
 72
     8
 73
     4
 74
     0
 42
0.000000001
 43
0.0000000001
 40
0.9259259259259254
 40
0.9259259259259254
 40
0.9259259259259254
 40
0.9259259259259254
 40
0.9629629629629622
 40
0.9629629629629622
 40
0.9629629629629622
 40
0.9629629629629622
 10
1072.00498927034
 20
2024.193541326392
 30
0.0
 10
1071.742281369984
 20
2024.131256472889
 30
0.0
 10
1071.468612540843
 20
2024.098184055178
 30
0.0
 10
1071.192226046181
 20
2024.072449610564
 30
0.0
  0
LINE
  5
2AB
330
21A
100
AcDbEntity
  8
P-SANR-FIXT
100
AcDbLine
 10
1044.058431129674
 20
2019.998183850006
 30
0.0
 11
1070.363156828898
 21
2019.998183850006
 31
0.0
  0
LINE
  5
2AC
330
21A
100
AcDbEntity
  8
P-SANR-FIXT
100
AcDbLine
 10
1070.363156828898
 20
2019.998183850006
 30
0.0
 11
1096.667882528123
 21
2019.998183850006
 31
0.0
  0
LINE
  5
2AD
330
21A
100
AcDbEntity
  8
P-SANR-FIXT
100
AcDbLine
 10
1036.058431129674
 20
2014.398183850007
 30
0.0
 11
1070.363156828898
 21
2014.398183850007
 31
0.0
  0
LINE
  5
2AE
330
21A
100
AcDbEntity
  8
P-SANR-FIXT
100
AcDbLine
 10
1070.363156828898
 20
2014.398183850007
 30
0.0
 11
1104.667882528123
 21
2014.398183850007
 31
0.0
  0
LINE
  5
2AF
330
21A
100
AcDbEntity
  8
P-SANR-FIXT
100
AcDbLine
 10
1036.058431129674
 20
2007.995385733373
 30
0.0
 11
1064.359175248913
 21
2007.995385733373
 31
0.0
  0
LINE
  5
2B0
330
21A
100
AcDbEntity
  8
P-SANR-FIXT
100
AcDbLine
 10
1070.363156828898
 20
2007.995385733373
 30
0.0
 11
1104.667882528123
 21
2007.995385733373
 31
0.0
  0
LINE
  5
2B1
330
21A
100
AcDbEntity
  8
P-SANR-FIXT
100
AcDbLine
 10
1037.05563301304
 20
2006.998183850007
 30
0.0
 11
1059.943817065404
 21
2006.998183850007
 31
0.0
  0
LINE
  5
2B2
330
21A
100
AcDbEntity
  8
P-SANR-FIXT
100
AcDbLine
 10
1070.363156828898
 20
2006.998183850007
 30
0.0
 11
1103.670680644757
 21
2006.998183850007
 31
0.0
  0
LINE
  5
2B3
330
21A
100
AcDbEntity
  8
P-SANR-FIXT
100
AcDbLine
 10
1043.856407615695
 20
2005.498183850028
 30
0.0
 11
1055.743414462008
 21
2005.498183850028
 31
0.0
  0
LINE
  5
2B4
330
21A
100
AcDbEntity
  8
P-SANR-FIXT
100
AcDbLine
 10
1070.363156828898
 20
2005.498183850028
 30
0.0
 11
1096.869906042102
 21
2005.498183850028
 31
0.0
  0
ARC
  5
2B5
330
21A
100
AcDbEntity
  8
P-SANR-FIXT
100
AcDbCircle
 10
1070.363156828898
 20
2030.995385733374
 30
0.0
 40
7.000000000062708
100
AcDbArc
 50
269.9999999999987
 51
89.99999999999907
  0
ENDBLK
  5
2B7
330
21A
100
AcDbEntity
  8
0
100
AcDbBlockEnd
  0
ENDSEC
  0
SECTION
  2
ENTITIES
  0
INSERT
  5
1DF
330
71
100
AcDbEntity
  8
P-SANR-FIXT
100
AcDbBlockReference
  2
Automatic flow rate regulator valve_Caleffi_121 DN15 - 1_2__-859151-Est - Idraulica
 10
0.0
 20
0.0
 30
0.0
1001
REVIT
1002
{
1070
     1
1000
863131
1002
}
1002
{
1070
     5
1000
859151
1002
}
1002
{
1070
     2
1000
-2001160
1002
}
  0
INSERT
  5
219
330
71
100
AcDbEntity
  8
P-SANR-FIXT
100
AcDbBlockReference
  2
Automatic flow rate regulator valve_Caleffi_121 DN15 - 1_2__-V1-Est - Idraulica
 10
0.0
 20
0.0
 30
0.0
1001
REVIT
1002
{
1070
     1
1000
863152
1002
}
1002
{
1070
     5
1000
859151
1002
}
1002
{
1070
     2
1000
-2001160
1002
}
  0
INSERT
  5
2B8
330
71
100
AcDbEntity
  8
P-SANR-FIXT
100
AcDbBlockReference
  2
Automatic flow rate regulator valve_Caleffi_121 DN15 - 1_2__-V2-Est - Idraulica
 10
0.0
 20
0.0
 30
0.0
1001
REVIT
1002
{
1070
     1
1000
863172
1002
}
1002
{
1070
     5
1000
859151
1002
}
1002
{
1070
     2
1000
-2001160
1002
}
  0
ENDSEC
  0
SECTION
  2
OBJECTS
  0
DICTIONARY
  5
C
330
0
100
AcDbDictionary
281
     1
  3
ACAD_CIP_PREVIOUS_PRODUCT_INFO
350
7A
  3
ACAD_COLOR
350
63
  3
ACAD_DETAILVIEWSTYLE
350
6B
  3
ACAD_GROUP
350
D
  3
ACAD_IMAGE_VARS
350
7B
  3
ACAD_LAYOUT
350
62
  3
ACAD_MATERIAL
350
10
  3
ACAD_MLEADERSTYLE
350
66
  3
ACAD_MLINESTYLE
350
5F
  3
ACAD_PLOTSETTINGS
350
61
  3
ACAD_PLOTSTYLENAME
350
E
  3
ACAD_SCALELIST
350
42
  3
ACAD_SECTIONVIEWSTYLE
350
68
  3
ACAD_TABLESTYLE
350
64
  3
ACAD_VISUALSTYLE
350
29
  3
ACDB_RECOMPOSE_DATA
350
2C3
  3
AcDbVariableDictionary
350
7C
  3
REVIT_DICTIONARY
350
2BA
  0
DICTIONARY
  5
2BF
330
71
100
AcDbDictionary
280
     1
281
     1
  3
ACAD_SORTENTS
360
2C0
  0
XRECORD
  5
7A
102
{ACAD_REACTORS
330
C
102
}
330
C
100
AcDbXrecord
280
     1
300
RVT
300
2013
300
RVT2013
  0
DICTIONARY
  5
63
102
{ACAD_REACTORS
330
C
102
}
330
C
100
AcDbDictionary
281
     1
  0
DICTIONARY
  5
6B
102
{ACAD_REACTORS
330
C
102
}
330
C
100
AcDbDictionary
281
     1
  3
Imperial24
350
6C
  0
DICTIONARY
  5
D
102
{ACAD_REACTORS
330
C
102
}
330
C
100
AcDbDictionary
281
     1
  0
RASTERVARIABLES
  5
7B
102
{ACAD_REACTORS
330
C
102
}
330
C
100
AcDbRasterVariables
 90
        0
 70
     0
 71
     1
 72
     1
  0
DICTIONARY
  5
62
102
{ACAD_REACTORS
330
C
102
}
330
C
100
AcDbDictionary
281
     1
  3
Layout1
350
70
  3
Layout2
350
78
  3
Model
350
74
  0
DICTIONARY
  5
10
102
{ACAD_REACTORS
330
C
102
}
330
C
100
AcDbDictionary
281
     1
  3
ByBlock
350
19
  3
ByLayer
350
11
  3
Global
350
21
  0
DICTIONARY
  5
66
102
{ACAD_REACTORS
330
C
102
}
330
C
100
AcDbDictionary
281
     1
  3
Standard
350
67
  0
DICTIONARY
  5
5F
102
{ACAD_REACTORS
330
C
102
}
330
C
100
AcDbDictionary
281
     1
  3
Standard
350
60
  0
DICTIONARY
  5
61
102
{ACAD_REACTORS
330
C
102
}
330
C
100
AcDbDictionary
281
     1
  0
ACDBDICTIONARYWDFLT
  5
E
102
{ACAD_REACTORS
330
C
102
}
330
C
100
AcDbDictionary
281
     1
  3
Normal
350
F
100
AcDbDictionaryWithDefault
340
F
  0
DICTIONARY
  5
42
102
{ACAD_REACTORS
330
C
102
}
330
C
100
AcDbDictionary
281
     1
  3
A0
350
43
  3
A1
350
44
  3
A2
350
45
  3
A3
350
46
  3
A4
350
47
  3
A5
350
48
  3
A6
350
49
  3
A7
350
4A
  3
A8
350
4B
  3
A9
350
4C
  3
B0
350
4D
  3
B1
350
4E
  3
B2
350
4F
  3
B3
350
50
  3
B4
350
51
  3
B5
350
52
  3
B6
350
53
  0
DICTIONARY
  5
68
102
{ACAD_REACTORS
330
C
102
}
330
C
100
AcDbDictionary
281
     1
  3
Imperial24
350
6A
  0
DICTIONARY
  5
64
102
{ACAD_REACTORS
330
C
102
}
330
C
100
AcDbDictionary
281
     1
  3
Standard
350
65
  0
DICTIONARY
  5
29
102
{ACAD_REACTORS
330
C
102
}
330
C
100
AcDbDictionary
281
     1
  3
2dWireframe
350
2F
  3
Basic
350
2E
  3
Brighten
350
35
  3
ColorChange
350
39
  3
Conceptual
350
32
  3
Dim
350
34
  3
EdgeColorOff
350
41
  3
Facepattern
350
38
  3
Flat
350
2A
  3
FlatWithEdges
350
2B
  3
Gouraud
350
2C
  3
GouraudWithEdges
350
2D
  3
Hidden
350
31
  3
JitterOff
350
3F
  3
Linepattern
350
37
  3
OverhangOff
350
40
  3
Realistic
350
33
  3
Shaded
350
3E
  3
Shaded with edges
350
3D
  3
Shades of Gray
350
3A
  3
Sketchy
350
3B
  3
Thicken
350
36
  3
Wireframe
350
30
  3
X-Ray
350
3C
  0
XRECORD
  5
2C3
102
{ACAD_REACTORS
330
C
102
}
330
C
100
AcDbXrecord
280
     1
 90
        1
330
65
  0
DICTIONARY
  5
7C
102
{ACAD_REACTORS
330
C
102
}
330
C
100
AcDbDictionary
281
     1
  3
CANNOSCALE
350
81
  3
CMLEADERSTYLE
350
7E
  3
CTABLESTYLE
350
7D
  3
CVIEWDETAILSTYLE
350
7F
  3
CVIEWSECTIONSTYLE
350
80
  0
DICTIONARY
  5
2BA
102
{ACAD_REACTORS
330
C
102
}
330
C
100
AcDbDictionary
281
     1
  3
DRAWING_TOOL
350
2BE
  3
REVIT_CATEGORY_MAPPING
350
2BC
  3
REVIT_SUB_CATEGORY_MAPPING
350
2BD
  3
REVIT_TYPE_MAPPING
350
2BB
  0
SORTENTSTABLE
  5
2C0
102
{ACAD_REACTORS
330
2BF
102
}
330
2BF
100
AcDbSortentsTable
330
71
  0
ACDBDETAILVIEWSTYLE
  5
6C
102
{ACAD_REACTORS
330
6B
102
}
330
6B
100
AcDbModelDocViewStyle
 70
     0
  3
Imperial24
290
     1
100
AcDbDetailViewStyle
 70
     0
 71
     0
 90
        3
 71
     1
340
55
 62
   256
 40
0.24
340
0
 62
   256
 40
0.24
300

 40
0.36
280
     3
 71
     2
340
5D
 90
       25
 62
   256
 71
     3
340
55
 62
   256
 40
0.24
 90
        1
 40
0.75
 90
        1
300
%<\AcVar ViewType \f "%tc1">% %<\AcVar ViewDetailId>%\PSCALA %<\AcVar ViewScale \f "%sn">%
 71
     4
340
5D
 90
       25
 62
   256
340
5D
 90
       25
 62
   256
280
     0
  0
LAYOUT
  5
70
102
{ACAD_REACTORS
330
62
102
}
330
62
100
AcDbPlotSettings
  1

  2

  4

  6

 40
0.0
 41
0.0
 42
0.0
 43
0.0
 44
0.0
 45
0.0
 46
0.0
 47
0.0
 48
0.0
 49
0.0
140
0.0
141
0.0
142
1.0
143
1.0
 70
   688
 72
     0
 73
     0
 74
     5
  7

 75
    16
147
1.0
 76
     0
 77
     2
 78
   300
148
0.0
149
0.0
100
AcDbLayout
  1
Layout1
 70
     1
 71
     1
 10
0.0
 20
0.0
 11
12.0
 21
9.0
 12
0.0
 22
0.0
 32
0.0
 14
0.0
 24
0.0
 34
0.0
 15
0.0
 25
0.0
 35
0.0
146
0.0
 13
0.0
 23
0.0
 33
0.0
 16
1.0
 26
0.0
 36
0.0
 17
0.0
 27
1.0
 37
0.0
 76
     0
330
6D
  0
LAYOUT
  5
78
102
{ACAD_REACTORS
330
62
102
}
330
62
100
AcDbPlotSettings
  1

  2

  4

  6

 40
0.0
 41
0.0
 42
0.0
 43
0.0
 44
0.0
 45
0.0
 46
0.0
 47
0.0
 48
0.0
 49
0.0
140
0.0
141
0.0
142
1.0
143
1.0
 70
   688
 72
     0
 73
     0
 74
     5
  7

 75
    16
147
1.0
 76
     0
 77
     2
 78
   300
148
0.0
149
0.0
100
AcDbLayout
  1
Layout2
 70
     1
 71
     2
 10
0.0
 20
0.0
 11
12.0
 21
9.0
 12
0.0
 22
0.0
 32
0.0
 14
0.0
 24
0.0
 34
0.0
 15
0.0
 25
0.0
 35
0.0
146
0.0
 13
0.0
 23
0.0
 33
0.0
 16
1.0
 26
0.0
 36
0.0
 17
0.0
 27
1.0
 37
0.0
 76
     0
330
75
  0
LAYOUT
  5
74
102
{ACAD_REACTORS
330
62
102
}
330
62
100
AcDbPlotSettings
  1

  2

  4

  6

 40
0.0
 41
0.0
 42
0.0
 43
0.0
 44
0.0
 45
0.0
 46
0.0
 47
0.0
 48
0.0
 49
0.0
140
0.0
141
0.0
142
1.0
143
1.0
 70
  1712
 72
     0
 73
     0
 74
     0
  7

 75
     0
147
1.0
 76
     0
 77
     2
 78
   300
148
0.0
149
0.0
100
AcDbLayout
  1
Model
 70
     1
 71
     0
 10
0.0
 20
0.0
 11
12.0
 21
9.0
 12
0.0
 22
0.0
 32
0.0
 14
0.0
 24
0.0
 34
0.0
 15
0.0
 25
0.0
 35
0.0
146
0.0
 13
0.0
 23
0.0
 33
0.0
 16
1.0
 26
0.0
 36
0.0
 17
0.0
 27
1.0
 37
0.0
 76
     0
330
71
  0
MATERIAL
  5
19
102
{ACAD_XDICTIONARY
360
1A
102
}
102
{ACAD_REACTORS
330
10
102
}
330
10
100
AcDbMaterial
  1
ByBlock
 72
     0
 43
0.0208333333333333
 43
0.0
 43
0.0
 43
0.0
 43
0.0
 43
0.0208333333333333
 43
0.0
 43
0.0
 43
0.0
 43
0.0
 43
1.0
 43
0.0
 43
0.0
 43
0.0
 43
0.0
 43
1.0
 77
     0
 47
0.0208333333333333
 47
0.0
 47
0.0
 47
0.0
 47
0.0
 47
0.0208333333333333
 47
0.0
 47
0.0
 47
0.0
 47
0.0
 47
1.0
 47
0.0
 47
0.0
 47
0.0
 47
0.0
 47
1.0
171
     0
 49
0.0208333333333333
 49
0.0
 49
0.0
 49
0.0
 49
0.0
 49
0.0208333333333333
 49
0.0
 49
0.0
 49
0.0
 49
0.0
 49
1.0
 49
0.0
 49
0.0
 49
0.0
 49
0.0
 49
1.0
175
     0
142
0.0208333333333333
142
0.0
142
0.0
142
0.0
142
0.0
142
0.0208333333333333
142
0.0
142
0.0
142
0.0
142
0.0
142
1.0
142
0.0
142
0.0
142
0.0
142
0.0
142
1.0
179
     0
144
0.0208333333333333
144
0.0
144
0.0
144
0.0
144
0.0
144
0.0208333333333333
144
0.0
144
0.0
144
0.0
144
0.0
144
1.0
144
0.0
144
0.0
144
0.0
144
0.0
144
1.0
147
0.0208333333333333
147
0.0
147
0.0
147
0.0
147
0.0
147
0.0208333333333333
147
0.0
147
0.0
147
0.0
147
0.0
147
1.0
147
0.0
147
0.0
147
0.0
147
0.0
147
1.0
  0
MATERIAL
  5
11
102
{ACAD_XDICTIONARY
360
12
102
}
102
{ACAD_REACTORS
330
10
102
}
330
10
100
AcDbMaterial
  1
ByLayer
 72
     0
 43
0.0208333333333333
 43
0.0
 43
0.0
 43
0.0
 43
0.0
 43
0.0208333333333333
 43
0.0
 43
0.0
 43
0.0
 43
0.0
 43
1.0
 43
0.0
 43
0.0
 43
0.0
 43
0.0
 43
1.0
 77
     0
 47
0.0208333333333333
 47
0.0
 47
0.0
 47
0.0
 47
0.0
 47
0.0208333333333333
 47
0.0
 47
0.0
 47
0.0
 47
0.0
 47
1.0
 47
0.0
 47
0.0
 47
0.0
 47
0.0
 47
1.0
171
     0
 49
0.0208333333333333
 49
0.0
 49
0.0
 49
0.0
 49
0.0
 49
0.0208333333333333
 49
0.0
 49
0.0
 49
0.0
 49
0.0
 49
1.0
 49
0.0
 49
0.0
 49
0.0
 49
0.0
 49
1.0
175
     0
142
0.0208333333333333
142
0.0
142
0.0
142
0.0
142
0.0
142
0.0208333333333333
142
0.0
142
0.0
142
0.0
142
0.0
142
1.0
142
0.0
142
0.0
142
0.0
142
0.0
142
1.0
179
     0
144
0.0208333333333333
144
0.0
144
0.0
144
0.0
144
0.0
144
0.0208333333333333
144
0.0
144
0.0
144
0.0
144
0.0
144
1.0
144
0.0
144
0.0
144
0.0
144
0.0
144
1.0
147
0.0208333333333333
147
0.0
147
0.0
147
0.0
147
0.0
147
0.0208333333333333
147
0.0
147
0.0
147
0.0
147
0.0
147
1.0
147
0.0
147
0.0
147
0.0
147
0.0
147
1.0
  0
MATERIAL
  5
21
102
{ACAD_XDICTIONARY
360
22
102
}
102
{ACAD_REACTORS
330
10
102
}
330
10
100
AcDbMaterial
  1
Global
 72
     0
 43
0.0208333333333333
 43
0.0
 43
0.0
 43
0.0
 43
0.0
 43
0.0208333333333333
 43
0.0
 43
0.0
 43
0.0
 43
0.0
 43
1.0
 43
0.0
 43
0.0
 43
0.0
 43
0.0
 43
1.0
 77
     0
 47
0.0208333333333333
 47
0.0
 47
0.0
 47
0.0
 47
0.0
 47
0.0208333333333333
 47
0.0
 47
0.0
 47
0.0
 47
0.0
 47
1.0
 47
0.0
 47
0.0
 47
0.0
 47
0.0
 47
1.0
171
     0
 49
0.0208333333333333
 49
0.0
 49
0.0
 49
0.0
 49
0.0
 49
0.0208333333333333
 49
0.0
 49
0.0
 49
0.0
 49
0.0
 49
1.0
 49
0.0
 49
0.0
 49
0.0
 49
0.0
 49
1.0
175
     0
142
0.0208333333333333
142
0.0
142
0.0
142
0.0
142
0.0
142
0.0208333333333333
142
0.0
142
0.0
142
0.0
142
0.0
142
1.0
142
0.0
142
0.0
142
0.0
142
0.0
142
1.0
179
     0
144
0.0208333333333333
144
0.0
144
0.0
144
0.0
144
0.0
144
0.0208333333333333
144
0.0
144
0.0
144
0.0
144
0.0
144
1.0
144
0.0
144
0.0
144
0.0
144
0.0
144
1.0
147
0.0208333333333333
147
0.0
147
0.0
147
0.0
147
0.0
147
0.0208333333333333
147
0.0
147
0.0
147
0.0
147
0.0
147
1.0
147
0.0
147
0.0
147
0.0
147
0.0
147
1.0
  0
MLEADERSTYLE
  5
67
102
{ACAD_REACTORS
330
66
102
}
330
66
100
AcDbMLeaderStyle
179
     2
170
     2
171
     1
172
     0
 90
        2
 40
0.0
 41
0.0
173
     1
 91
-1056964608
340
5B
 92
       -2
290
     1
 42
0.09
291
     1
 43
0.36
  3
Standard
 44
0.18
300

342
55
174
     1
178
     6
175
     1
176
     0
 93
-1056964608
 45
0.18
292
     0
297
     0
 46
0.18
 94
-1056964608
 47
1.0
 49
1.0
140
1.0
293
     1
141
0.0
294
     1
177
     0
142
1.0
295
     1
296
     0
143
0.125
271
     0
272
     9
273
     9
298
     1
  0
MLINESTYLE
  5
60
102
{ACAD_REACTORS
330
5F
102
}
330
5F
100
AcDbMlineStyle
  2
STANDARD
 70
     0
  3

 62
   256
 51
90.0
 52
90.0
 71
     2
 49
0.5
 62
   256
  6
BYLAYER
 49
-0.5
 62
   256
  6
BYLAYER
  0
ACDBPLACEHOLDER
  5
F
102
{ACAD_REACTORS
330
E
102
}
330
E
  0
SCALE
  5
43
102
{ACAD_REACTORS
330
42
102
}
330
42
100
AcDbScale
 70
     0
300
1:1
140
1.0
141
1.0
290
     1
  0
SCALE
  5
44
102
{ACAD_REACTORS
330
42
102
}
330
42
100
AcDbScale
 70
     0
300
1/128" = 1'-0"
140
0.0078125
141
12.0
290
     0
  0
SCALE
  5
45
102
{ACAD_REACTORS
330
42
102
}
330
42
100
AcDbScale
 70
     0
300
1/64" = 1'-0"
140
0.015625
141
12.0
290
     0
  0
SCALE
  5
46
102
{ACAD_REACTORS
330
42
102
}
330
42
100
AcDbScale
 70
     0
300
1/32" = 1'-0"
140
0.03125
141
12.0
290
     0
  0
SCALE
  5
47
102
{ACAD_REACTORS
330
42
102
}
330
42
100
AcDbScale
 70
     0
300
1/16" = 1'-0"
140
0.0625
141
12.0
290
     0
  0
SCALE
  5
48
102
{ACAD_REACTORS
330
42
102
}
330
42
100
AcDbScale
 70
     0
300
3/32" = 1'-0"
140
0.09375
141
12.0
290
     0
  0
SCALE
  5
49
102
{ACAD_REACTORS
330
42
102
}
330
42
100
AcDbScale
 70
     0
300
1/8" = 1'-0"
140
0.125
141
12.0
290
     0
  0
SCALE
  5
4A
102
{ACAD_REACTORS
330
42
102
}
330
42
100
AcDbScale
 70
     0
300
3/16" = 1'-0"
140
0.1875
141
12.0
290
     0
  0
SCALE
  5
4B
102
{ACAD_REACTORS
330
42
102
}
330
42
100
AcDbScale
 70
     0
300
1/4" = 1'-0"
140
0.25
141
12.0
290
     0
  0
SCALE
  5
4C
102
{ACAD_REACTORS
330
42
102
}
330
42
100
AcDbScale
 70
     0
300
3/8" = 1'-0"
140
0.375
141
12.0
290
     0
  0
SCALE
  5
4D
102
{ACAD_REACTORS
330
42
102
}
330
42
100
AcDbScale
 70
     0
300
1/2" = 1'-0"
140
0.5
141
12.0
290
     0
  0
SCALE
  5
4E
102
{ACAD_REACTORS
330
42
102
}
330
42
100
AcDbScale
 70
     0
300
3/4" = 1'-0"
140
0.75
141
12.0
290
     0
  0
SCALE
  5
4F
102
{ACAD_REACTORS
330
42
102
}
330
42
100
AcDbScale
 70
     0
300
1" = 1'-0"
140
1.0
141
12.0
290
     0
  0
SCALE
  5
50
102
{ACAD_REACTORS
330
42
102
}
330
42
100
AcDbScale
 70
     0
300
1-1/2" = 1'-0"
140
1.5
141
12.0
290
     0
  0
SCALE
  5
51
102
{ACAD_REACTORS
330
42
102
}
330
42
100
AcDbScale
 70
     0
300
3" = 1'-0"
140
3.0
141
12.0
290
     0
  0
SCALE
  5
52
102
{ACAD_REACTORS
330
42
102
}
330
42
100
AcDbScale
 70
     0
300
6" = 1'-0"
140
6.0
141
12.0
290
     0
  0
SCALE
  5
53
102
{ACAD_REACTORS
330
42
102
}
330
42
100
AcDbScale
 70
     0
300
1'-0" = 1'-0"
140
12.0
141
12.0
290
     0
  0
ACDBSECTIONVIEWSTYLE
  5
6A
102
{ACAD_REACTORS
330
68
102
}
330
68
100
AcDbModelDocViewStyle
 70
     0
  3
Imperial24
290
     1
100
AcDbSectionViewStyle
 70
     0
 71
     0
 90
       78
 71
     1
340
55
 62
   256
 40
0.24
340
0
340
0
 62
   256
 40
0.24
300
I, O, Q, S, X, Z
 40
0.48
 90
        3
 40
0.18
 90
        1
 71
     2
340
69
 90
       25
 62
   256
340
5D
 90
       50
 62
   256
 40
0.24
 40
0.0
 40
0.24
 71
     3
340
55
 62
   256
 40
0.24
 90
        1
 40
0.75
 90
        1
300
%<\AcVar ViewType \f "%tc1">% %<\AcVar ViewSectionStartId>%-%<\AcVar ViewSectionEndId>%\PSCALA %<\AcVar ViewScale \f "%sn">%
 71
     4
 62
   256
 62
   257
300
ANSI31
 40
1.0
 90
        0
290
     0
290
     0
 90
        6
 40
0.0
 40
1.570796326794896
 40
0.2617993877991494
 40
1.308996938995747
 40
-0.2617993877991494
 40
1.832595714594046
  0
TABLESTYLE
  5
65
102
{ACAD_XDICTIONARY
360
2C1
102
}
102
{ACAD_REACTORS
330
64
102
}
330
64
100
AcDbTableStyle
280
     0
  3
Standard
 70
     0
 71
     0
 40
0.06
 41
0.06
280
     0
281
     0
  7
Standard
140
0.18
170
     2
 62
     0
 63
     7
283
     0
 90
      512
 91
        0
  1

274
    -2
284
     1
 64
     0
275
    -2
285
     1
 65
     0
276
    -2
286
     1
 66
     0
277
    -2
287
     1
 67
     0
278
    -2
288
     1
 68
     0
279
    -2
289
     1
 69
     0
  7
Standard
140
0.25
170
     5
 62
     0
 63
     7
283
     0
 90
      512
 91
        0
  1

274
    -2
284
     1
 64
     0
275
    -2
285
     1
 65
     0
276
    -2
286
     1
 66
     0
277
    -2
287
     1
 67
     0
278
    -2
288
     1
 68
     0
279
    -2
289
     1
 69
     0
  7
Standard
140
0.18
170
     5
 62
     0
 63
     7
283
     0
 90
      512
 91
        0
  1

274
    -2
284
     1
 64
     0
275
    -2
285
     1
 65
     0
276
    -2
286
     1
 66
     0
277
    -2
287
     1
 67
     0
278
    -2
288
     1
 68
     0
279
    -2
289
     1
 69
     0
  0
VISUALSTYLE
  5
2F
102
{ACAD_REACTORS
330
29
102
}
330
29
100
AcDbVisualStyle
  2
2dWireframe
 70
     4
177
     3
291
     0
 70
    58
 90
        0
176
     1
 90
        2
176
     1
 90
        0
176
     1
 90
        0
176
     1
 40
0.6
176
     1
 40
30.0
176
     1
 62
     7
420
 16777215
176
     1
 90
        1
176
     1
 90
        4
176
     1
 62
     7
176
     1
 62
   257
176
     1
 90
        1
176
     1
 90
        1
176
     1
 40
1.0
176
     1
 90
        0
176
     1
 62
   257
176
     1
 40
1.0
176
     1
 90
        1
176
     1
 90
        6
176
     1
 90
        2
176
     1
 62
     7
176
     1
 90
        5
176
     1
 90
        0
176
     1
 90
        0
176
     1
290
     0
176
     1
 90
        1
176
     1
 40
0.0
176
     1
 90
        0
176
     1
290
     1
176
     1
290
     1
176
     1
290
     0
176
     1
290
     0
176
     1
290
     0
176
     1
290
     0
176
     1
290
     0
176
     1
290
     0
176
     1
290
     0
176
     1
 90
       50
176
     1
 40
0.0
176
     1
 40
1.0
176
     1
 90
        0
176
     1
 62
    18
420
        0
176
     1
 90
       50
176
     1
 90
        3
176
     1
 62
     5
420
      255
176
     1
290
     0
176
     1
 90
       50
176
     1
 90
       50
176
     1
 90
       50
176
     1
290
     0
176
     1
 90
       50
176
     1
 62
   256
176
     0
 40
1.0
176
     0
 90
        2
176
     1
  1
strokes_ogs.tif
176
     1
290
     0
176
     1
 40
1.0
176
     1
 40
1.0
176
     1
  0
VISUALSTYLE
  5
2E
102
{ACAD_REACTORS
330
29
102
}
330
29
100
AcDbVisualStyle
  2
Basic
 70
     7
177
     3
291
     1
 70
    58
 90
        1
176
     1
 90
        0
176
     1
 90
        1
176
     1
 90
        0
176
     1
 40
0.6
176
     1
 40
30.0
176
     1
 62
     7
420
 16777215
176
     1
 90
        0
176
     1
 90
        4
176
     1
 62
     7
176
     1
 62
   257
176
     1
 90
        1
176
     1
 90
        1
176
     1
 40
1.0
176
     1
 90
        8
176
     1
 62
     7
176
     1
 40
1.0
176
     1
 90
        1
176
     1
 90
        6
176
     1
 90
        2
176
     1
 62
     7
176
     1
 90
        5
176
     1
 90
        0
176
     1
 90
        0
176
     1
290
     0
176
     1
 90
        1
176
     1
 40
0.0
176
     1
 90
        0
176
     1
290
     0
176
     1
290
     1
176
     1
290
     1
176
     1
290
     0
176
     1
290
     0
176
     1
290
     0
176
     1
290
     0
176
     1
290
     0
176
     1
290
     0
176
     1
 90
       50
176
     1
 40
0.0
176
     1
 40
1.0
176
     1
 90
        0
176
     1
 62
    18
420
        0
176
     1
 90
       50
176
     1
 90
        3
176
     1
 62
     5
420
      255
176
     1
290
     0
176
     1
 90
       50
176
     1
 90
       50
176
     1
 90
       50
176
     1
290
     0
176
     1
 90
       50
176
     1
 62
   256
176
     0
 40
1.0
176
     0
 90
        2
176
     1
  1
strokes_ogs.tif
176
     1
290
     0
176
     1
 40
1.0
176
     1
 40
1.0
176
     1
  0
VISUALSTYLE
  5
35
102
{ACAD_REACTORS
330
29
102
}
330
29
100
AcDbVisualStyle
  2
Brighten
 70
    12
177
     3
291
     1
 70
    58
 90
        2
176
     1
 90
        2
176
     1
 90
        0
176
     1
 90
        0
176
     1
 40
0.6
176
     1
 40
30.0
176
     1
 62
     7
420
 16777215
176
     1
 90
        1
176
     1
 90
        4
176
     1
 62
     7
176
     1
 62
   257
176
     1
 90
        1
176
     1
 90
        1
176
     1
 40
1.0
176
     1
 90
        8
176
     1
 62
     7
176
     1
 40
1.0
176
     1
 90
        1
176
     1
 90
        6
176
     1
 90
        2
176
     1
 62
     7
176
     1
 90
        5
176
     1
 90
        0
176
     1
 90
        0
176
     1
290
     0
176
     1
 90
        1
176
     1
 40
50.0
176
     1
 90
        0
176
     1
290
     0
176
     1
290
     1
176
     1
290
     1
176
     1
290
     0
176
     1
290
     0
176
     1
290
     0
176
     1
290
     0
176
     1
290
     0
176
     1
290
     0
176
     1
 90
       50
176
     1
 40
0.0
176
     1
 40
1.0
176
     1
 90
        0
176
     1
 62
    18
420
        0
176
     1
 90
       50
176
     1
 90
        3
176
     1
 62
     5
420
      255
176
     1
290
     0
176
     1
 90
       50
176
     1
 90
       50
176
     1
 90
       50
176
     1
290
     0
176
     1
 90
       50
176
     1
 62
   256
176
     0
 40
1.0
176
     0
 90
        2
176
     1
  1
strokes_ogs.tif
176
     1
290
     0
176
     1
 40
1.0
176
     1
 40
1.0
176
     1
  0
VISUALSTYLE
  5
39
102
{ACAD_REACTORS
330
29
102
}
330
29
100
AcDbVisualStyle
  2
ColorChange
 70
    16
177
     3
291
     1
 70
    58
 90
        2
176
     1
 90
        2
176
     1
 90
        3
176
     1
 90
        0
176
     1
 40
0.6
176
     1
 40
30.0
176
     1
 62
     8
420
  8421504
176
     1
 90
        1
176
     1
 90
        4
176
     1
 62
     7
176
     1
 62
   257
176
     1
 90
        1
176
     1
 90
        1
176
     1
 40
1.0
176
     1
 90
        8
176
     1
 62
     8
420
  8421504
176
     1
 40
1.0
176
     1
 90
        1
176
     1
 90
        6
176
     1
 90
        2
176
     1
 62
     7
176
     1
 90
        5
176
     1
 90
        0
176
     1
 90
        0
176
     1
290
     0
176
     1
 90
        1
176
     1
 40
0.0
176
     1
 90
        0
176
     1
290
     0
176
     1
290
     1
176
     1
290
     1
176
     1
290
     0
176
     1
290
     0
176
     1
290
     0
176
     1
290
     0
176
     1
290
     0
176
     1
290
     0
176
     1
 90
       50
176
     1
 40
0.0
176
     1
 40
1.0
176
     1
 90
        0
176
     1
 62
    18
420
        0
176
     1
 90
       50
176
     1
 90
        3
176
     1
 62
     5
420
      255
176
     1
290
     0
176
     1
 90
       50
176
     1
 90
       50
176
     1
 90
       50
176
     1
290
     0
176
     1
 90
       50
176
     1
 62
   256
176
     0
 40
1.0
176
     0
 90
        2
176
     1
  1
strokes_ogs.tif
176
     1
290
     0
176
     1
 40
1.0
176
     1
 40
1.0
176
     1
  0
VISUALSTYLE
  5
32
102
{ACAD_REACTORS
330
29
102
}
330
29
100
AcDbVisualStyle
  2
Conceptual
 70
     9
177
     3
291
     0
 70
    58
 90
        3
176
     1
 90
        2
176
     1
 90
        0
176
     1
 90
        0
176
     1
 40
0.6
176
     1
 40
30.0
176
     1
 62
     7
420
 16777215
176
     1
 90
        2
176
     1
 90
        2
176
     1
 62
     7
176
     1
 62
   257
176
     1
 90
        1
176
     1
 90
        1
176
     1
 40
179.0
176
     1
 90
        8
176
     1
 62
     7
176
     1
 40
1.0
176
     1
 90
        1
176
     1
 90
        6
176
     1
 90
        2
176
     1
 62
     7
176
     1
 90
        3
176
     1
 90
        0
176
     1
 90
        0
176
     1
290
     0
176
     1
 90
        1
176
     1
 40
0.0
176
     1
 90
        0
176
     1
290
     0
176
     1
290
     1
176
     1
290
     1
176
     1
290
     0
176
     1
290
     0
176
     1
290
     0
176
     1
290
     0
176
     1
290
     0
176
     1
290
     0
176
     1
 90
       50
176
     1
 40
0.0
176
     1
 40
1.0
176
     1
 90
        0
176
     1
 62
    18
420
        0
176
     1
 90
       50
176
     1
 90
        3
176
     1
 62
     5
420
      255
176
     1
290
     0
176
     1
 90
       50
176
     1
 90
       50
176
     1
 90
       50
176
     1
290
     0
176
     1
 90
       50
176
     1
 62
   256
176
     0
 40
1.0
176
     0
 90
        2
176
     1
  1
strokes_ogs.tif
176
     1
290
     0
176
     1
 40
1.0
176
     1
 40
1.0
176
     1
  0
VISUALSTYLE
  5
34
102
{ACAD_REACTORS
330
29
102
}
330
29
100
AcDbVisualStyle
  2
Dim
 70
    11
177
     3
291
     1
 70
    58
 90
        2
176
     1
 90
        2
176
     1
 90
        0
176
     1
 90
        0
176
     1
 40
0.6
176
     1
 40
30.0
176
     1
 62
     7
420
 16777215
176
     1
 90
        1
176
     1
 90
        4
176
     1
 62
     7
176
     1
 62
   257
176
     1
 90
        1
176
     1
 90
        1
176
     1
 40
1.0
176
     1
 90
        8
176
     1
 62
     7
176
     1
 40
1.0
176
     1
 90
        1
176
     1
 90
        6
176
     1
 90
        2
176
     1
 62
     7
176
     1
 90
        5
176
     1
 90
        0
176
     1
 90
        0
176
     1
290
     0
176
     1
 90
        1
176
     1
 40
-50.0
176
     1
 90
        0
176
     1
290
     0
176
     1
290
     1
176
     1
290
     1
176
     1
290
     0
176
     1
290
     0
176
     1
290
     0
176
     1
290
     0
176
     1
290
     0
176
     1
290
     0
176
     1
 90
       50
176
     1
 40
0.0
176
     1
 40
1.0
176
     1
 90
        0
176
     1
 62
    18
420
        0
176
     1
 90
       50
176
     1
 90
        3
176
     1
 62
     5
420
      255
176
     1
290
     0
176
     1
 90
       50
176
     1
 90
       50
176
     1
 90
       50
176
     1
290
     0
176
     1
 90
       50
176
     1
 62
   256
176
     0
 40
1.0
176
     0
 90
        2
176
     1
  1
strokes_ogs.tif
176
     1
290
     0
176
     1
 40
1.0
176
     1
 40
1.0
176
     1
  0
VISUALSTYLE
  5
41
102
{ACAD_REACTORS
330
29
102
}
330
29
100
AcDbVisualStyle
  2
EdgeColorOff
 70
    22
177
     3
291
     1
 70
    58
 90
        2
176
     0
 90
        2
176
     0
 90
        0
176
     0
 90
        0
176
     0
 40
0.6
176
     0
 40
30.0
176
     0
 62
     7
420
 16777215
176
     0
 90
        1
176
     0
 90
        4
176
     0
 62
     7
176
     0
 62
   257
176
     0
 90
        1
176
     0
 90
        1
176
     0
 40
1.0
176
     0
 90
        8
176
     2
 62
     7
176
     0
 40
1.0
176
     0
 90
        1
176
     0
 90
        6
176
     0
 90
        2
176
     0
 62
     7
176
     0
 90
        5
176
     0
 90
        0
176
     0
 90
        0
176
     0
290
     0
176
     0
 90
        1
176
     0
 40
0.0
176
     0
 90
        0
176
     0
290
     0
176
     0
290
     1
176
     0
290
     1
176
     0
290
     0
176
     0
290
     0
176
     0
290
     0
176
     0
290
     0
176
     0
290
     0
176
     0
290
     0
176
     0
 90
       50
176
     0
 40
0.0
176
     0
 40
1.0
176
     0
 90
        0
176
     0
 62
    18
420
        0
176
     0
 90
       50
176
     0
 90
        3
176
     0
 62
     5
420
      255
176
     0
290
     0
176
     0
 90
       50
176
     0
 90
       50
176
     0
 90
       50
176
     0
290
     0
176
     0
 90
       50
176
     0
 62
   256
176
     0
 40
1.0
176
     0
 90
        2
176
     0
  1
strokes_ogs.tif
176
     0
290
     0
176
     0
 40
1.0
176
     0
 40
1.0
176
     0
  0
VISUALSTYLE
  5
38
102
{ACAD_REACTORS
330
29
102
}
330
29
100
AcDbVisualStyle
  2
Facepattern
 70
    15
177
     3
291
     1
 70
    58
 90
        2
176
     1
 90
        2
176
     1
 90
        0
176
     1
 90
        0
176
     1
 40
0.6
176
     1
 40
30.0
176
     1
 62
     7
420
 16777215
176
     1
 90
        1
176
     1
 90
        4
176
     1
 62
     7
176
     1
 62
   257
176
     1
 90
        1
176
     1
 90
        1
176
     1
 40
1.0
176
     1
 90
        8
176
     1
 62
     7
176
     1
 40
1.0
176
     1
 90
        1
176
     1
 90
        6
176
     1
 90
        2
176
     1
 62
     7
176
     1
 90
        5
176
     1
 90
        0
176
     1
 90
        0
176
     1
290
     0
176
     1
 90
        1
176
     1
 40
0.0
176
     1
 90
        0
176
     1
290
     0
176
     1
290
     1
176
     1
290
     1
176
     1
290
     0
176
     1
290
     0
176
     1
290
     0
176
     1
290
     0
176
     1
290
     0
176
     1
290
     0
176
     1
 90
       50
176
     1
 40
0.0
176
     1
 40
1.0
176
     1
 90
        0
176
     1
 62
    18
420
        0
176
     1
 90
       50
176
     1
 90
        3
176
     1
 62
     5
420
      255
176
     1
290
     0
176
     1
 90
       50
176
     1
 90
       50
176
     1
 90
       50
176
     1
290
     0
176
     1
 90
       50
176
     1
 62
   256
176
     0
 40
1.0
176
     0
 90
        2
176
     1
  1
strokes_ogs.tif
176
     1
290
     0
176
     1
 40
1.0
176
     1
 40
1.0
176
     1
  0
VISUALSTYLE
  5
2A
102
{ACAD_REACTORS
330
29
102
}
330
29
100
AcDbVisualStyle
  2
Flat
 70
     0
177
     3
291
     1
 70
    58
 90
        2
176
     1
 90
        1
176
     1
 90
        1
176
     1
 90
        2
176
     1
 40
0.6
176
     1
 40
30.0
176
     1
 62
     7
420
 16777215
176
     1
 90
        0
176
     1
 90
        0
176
     1
 62
     7
176
     1
 62
   257
176
     1
 90
        1
176
     1
 90
        1
176
     1
 40
1.0
176
     1
 90
        8
176
     1
 62
     7
176
     1
 40
1.0
176
     1
 90
        1
176
     1
 90
        6
176
     1
 90
        2
176
     1
 62
     7
176
     1
 90
        5
176
     1
 90
        0
176
     1
 90
        0
176
     1
290
     0
176
     1
 90
       13
176
     1
 40
0.0
176
     1
 90
        0
176
     1
290
     0
176
     1
290
     1
176
     1
290
     1
176
     1
290
     0
176
     1
290
     0
176
     1
290
     0
176
     1
290
     0
176
     1
290
     0
176
     1
290
     0
176
     1
 90
       50
176
     1
 40
0.0
176
     1
 40
1.0
176
     1
 90
        0
176
     1
 62
    18
420
        0
176
     1
 90
       50
176
     1
 90
        3
176
     1
 62
     5
420
      255
176
     1
290
     0
176
     1
 90
       50
176
     1
 90
       50
176
     1
 90
       50
176
     1
290
     0
176
     1
 90
       50
176
     1
 62
   256
176
     0
 40
1.0
176
     0
 90
        2
176
     1
  1
strokes_ogs.tif
176
     1
290
     0
176
     1
 40
1.0
176
     1
 40
1.0
176
     1
  0
VISUALSTYLE
  5
2B
102
{ACAD_REACTORS
330
29
102
}
330
29
100
AcDbVisualStyle
  2
FlatWithEdges
 70
     1
177
     3
291
     1
 70
    58
 90
        2
176
     1
 90
        1
176
     1
 90
        1
176
     1
 90
        2
176
     1
 40
0.6
176
     1
 40
30.0
176
     1
 62
     7
420
 16777215
176
     1
 90
        1
176
     1
 90
        0
176
     1
 62
     7
176
     1
 62
   257
176
     1
 90
        1
176
     1
 90
        1
176
     1
 40
1.0
176
     1
 90
        0
176
     1
 62
   257
176
     1
 40
1.0
176
     1
 90
        1
176
     1
 90
        6
176
     1
 90
        2
176
     1
 62
     7
176
     1
 90
        5
176
     1
 90
        0
176
     1
 90
        0
176
     1
290
     0
176
     1
 90
       13
176
     1
 40
0.0
176
     1
 90
        0
176
     1
290
     0
176
     1
290
     1
176
     1
290
     1
176
     1
290
     0
176
     1
290
     0
176
     1
290
     0
176
     1
290
     0
176
     1
290
     0
176
     1
290
     0
176
     1
 90
       50
176
     1
 40
0.0
176
     1
 40
1.0
176
     1
 90
        0
176
     1
 62
    18
420
        0
176
     1
 90
       50
176
     1
 90
        3
176
     1
 62
     5
420
      255
176
     1
290
     0
176
     1
 90
       50
176
     1
 90
       50
176
     1
 90
       50
176
     1
290
     0
176
     1
 90
       50
176
     1
 62
   256
176
     0
 40
1.0
176
     0
 90
        2
176
     1
  1
strokes_ogs.tif
176
     1
290
     0
176
     1
 40
1.0
176
     1
 40
1.0
176
     1
  0
VISUALSTYLE
  5
2C
102
{ACAD_REACTORS
330
29
102
}
330
29
100
AcDbVisualStyle
  2
Gouraud
 70
     2
177
     3
291
     1
 70
    58
 90
        2
176
     1
 90
        2
176
     1
 90
        1
176
     1
 90
        2
176
     1
 40
0.6
176
     1
 40
30.0
176
     1
 62
     7
420
 16777215
176
     1
 90
        0
176
     1
 90
        0
176
     1
 62
     7
176
     1
 62
   257
176
     1
 90
        1
176
     1
 90
        1
176
     1
 40
1.0
176
     1
 90
        0
176
     1
 62
     7
176
     1
 40
1.0
176
     1
 90
        1
176
     1
 90
        6
176
     1
 90
        2
176
     1
 62
     7
176
     1
 90
        5
176
     1
 90
        0
176
     1
 90
        0
176
     1
290
     0
176
     1
 90
       13
176
     1
 40
0.0
176
     1
 90
        0
176
     1
290
     0
176
     1
290
     1
176
     1
290
     1
176
     1
290
     0
176
     1
290
     0
176
     1
290
     0
176
     1
290
     0
176
     1
290
     0
176
     1
290
     0
176
     1
 90
       50
176
     1
 40
0.0
176
     1
 40
1.0
176
     1
 90
        0
176
     1
 62
    18
420
        0
176
     1
 90
       50
176
     1
 90
        3
176
     1
 62
     5
420
      255
176
     1
290
     0
176
     1
 90
       50
176
     1
 90
       50
176
     1
 90
       50
176
     1
290
     0
176
     1
 90
       50
176
     1
 62
   256
176
     0
 40
1.0
176
     0
 90
        2
176
     1
  1
strokes_ogs.tif
176
     1
290
     0
176
     1
 40
1.0
176
     1
 40
1.0
176
     1
  0
VISUALSTYLE
  5
2D
102
{ACAD_REACTORS
330
29
102
}
330
29
100
AcDbVisualStyle
  2
GouraudWithEdges
 70
     3
177
     3
291
     1
 70
    58
 90
        2
176
     1
 90
        2
176
     1
 90
        1
176
     1
 90
        2
176
     1
 40
0.6
176
     1
 40
30.0
176
     1
 62
     7
420
 16777215
176
     1
 90
        1
176
     1
 90
        0
176
     1
 62
     7
176
     1
 62
   257
176
     1
 90
        1
176
     1
 90
        1
176
     1
 40
1.0
176
     1
 90
        0
176
     1
 62
   257
176
     1
 40
1.0
176
     1
 90
        1
176
     1
 90
        6
176
     1
 90
        2
176
     1
 62
     7
176
     1
 90
        5
176
     1
 90
        0
176
     1
 90
        0
176
     1
290
     0
176
     1
 90
       13
176
     1
 40
0.0
176
     1
 90
        0
176
     1
290
     0
176
     1
290
     1
176
     1
290
     1
176
     1
290
     0
176
     1
290
     0
176
     1
290
     0
176
     1
290
     0
176
     1
290
     0
176
     1
290
     0
176
     1
 90
       50
176
     1
 40
0.0
176
     1
 40
1.0
176
     1
 90
        0
176
     1
 62
    18
420
        0
176
     1
 90
       50
176
     1
 90
        3
176
     1
 62
     5
420
      255
176
     1
290
     0
176
     1
 90
       50
176
     1
 90
       50
176
     1
 90
       50
176
     1
290
     0
176
     1
 90
       50
176
     1
 62
   256
176
     0
 40
1.0
176
     0
 90
        2
176
     1
  1
strokes_ogs.tif
176
     1
290
     0
176
     1
 40
1.0
176
     1
 40
1.0
176
     1
  0
VISUALSTYLE
  5
31
102
{ACAD_REACTORS
330
29
102
}
330
29
100
AcDbVisualStyle
  2
Hidden
 70
     6
177
     3
291
     0
 70
    58
 90
        1
176
     1
 90
        2
176
     1
 90
        2
176
     1
 90
        0
176
     1
 40
0.6
176
     1
 40
30.0
176
     1
 62
     7
420
 16777215
176
     1
 90
        2
176
     1
 90
        2
176
     1
 62
     7
176
     1
 62
   257
176
     1
 90
        2
176
     1
 90
        1
176
     1
 40
40.0
176
     1
 90
        0
176
     1
 62
   257
176
     1
 40
1.0
176
     1
 90
        1
176
     1
 90
        6
176
     1
 90
        2
176
     1
 62
     7
176
     1
 90
        3
176
     1
 90
        0
176
     1
 90
        0
176
     1
290
     0
176
     1
 90
        1
176
     1
 40
0.0
176
     1
 90
        0
176
     1
290
     0
176
     1
290
     1
176
     1
290
     1
176
     1
290
     0
176
     1
290
     0
176
     1
290
     0
176
     1
290
     0
176
     1
290
     0
176
     1
290
     0
176
     1
 90
       50
176
     1
 40
0.0
176
     1
 40
1.0
176
     1
 90
        0
176
     1
 62
    18
420
        0
176
     1
 90
       50
176
     1
 90
        3
176
     1
 62
     5
420
      255
176
     1
290
     0
176
     1
 90
       50
176
     1
 90
       50
176
     1
 90
       50
176
     1
290
     0
176
     1
 90
       50
176
     1
 62
   256
176
     0
 40
1.0
176
     0
 90
        2
176
     1
  1
strokes_ogs.tif
176
     1
290
     0
176
     1
 40
1.0
176
     1
 40
1.0
176
     1
  0
VISUALSTYLE
  5
3F
102
{ACAD_REACTORS
330
29
102
}
330
29
100
AcDbVisualStyle
  2
JitterOff
 70
    20
177
     3
291
     1
 70
    58
 90
        2
176
     0
 90
        2
176
     0
 90
        0
176
     0
 90
        0
176
     0
 40
0.6
176
     0
 40
30.0
176
     0
 62
     7
420
 16777215
176
     0
 90
        1
176
     0
 90
        4
176
     0
 62
     7
176
     0
 62
   257
176
     0
 90
        1
176
     0
 90
        1
176
     0
 40
1.0
176
     0
 90
       10
176
     2
 62
     7
176
     0
 40
1.0
176
     0
 90
        1
176
     0
 90
        6
176
     0
 90
        2
176
     0
 62
     7
176
     0
 90
        5
176
     0
 90
        0
176
     0
 90
        0
176
     0
290
     0
176
     0
 90
        1
176
     0
 40
0.0
176
     0
 90
        0
176
     0
290
     0
176
     0
290
     1
176
     0
290
     1
176
     0
290
     0
176
     0
290
     0
176
     0
290
     0
176
     0
290
     0
176
     0
290
     0
176
     0
290
     0
176
     0
 90
       50
176
     0
 40
0.0
176
     0
 40
1.0
176
     0
 90
        0
176
     0
 62
    18
420
        0
176
     0
 90
       50
176
     0
 90
        3
176
     0
 62
     5
420
      255
176
     0
290
     0
176
     0
 90
       50
176
     0
 90
       50
176
     0
 90
       50
176
     0
290
     0
176
     0
 90
       50
176
     0
 62
   256
176
     0
 40
1.0
176
     0
 90
        2
176
     0
  1
strokes_ogs.tif
176
     0
290
     0
176
     0
 40
1.0
176
     0
 40
1.0
176
     0
  0
VISUALSTYLE
  5
37
102
{ACAD_REACTORS
330
29
102
}
330
29
100
AcDbVisualStyle
  2
Linepattern
 70
    14
177
     3
291
     1
 70
    58
 90
        2
176
     1
 90
        2
176
     1
 90
        0
176
     1
 90
        0
176
     1
 40
0.6
176
     1
 40
30.0
176
     1
 62
     7
420
 16777215
176
     1
 90
        1
176
     1
 90
        4
176
     1
 62
     7
176
     1
 62
   257
176
     1
 90
        7
176
     1
 90
        7
176
     1
 40
1.0
176
     1
 90
        8
176
     1
 62
     7
176
     1
 40
1.0
176
     1
 90
        1
176
     1
 90
        6
176
     1
 90
        2
176
     1
 62
     7
176
     1
 90
        5
176
     1
 90
        0
176
     1
 90
        0
176
     1
290
     0
176
     1
 90
        1
176
     1
 40
0.0
176
     1
 90
        0
176
     1
290
     0
176
     1
290
     1
176
     1
290
     1
176
     1
290
     0
176
     1
290
     0
176
     1
290
     0
176
     1
290
     0
176
     1
290
     0
176
     1
290
     0
176
     1
 90
       50
176
     1
 40
0.0
176
     1
 40
1.0
176
     1
 90
        0
176
     1
 62
    18
420
        0
176
     1
 90
       50
176
     1
 90
        3
176
     1
 62
     5
420
      255
176
     1
290
     0
176
     1
 90
       50
176
     1
 90
       50
176
     1
 90
       50
176
     1
290
     0
176
     1
 90
       50
176
     1
 62
   256
176
     0
 40
1.0
176
     0
 90
        2
176
     1
  1
strokes_ogs.tif
176
     1
290
     0
176
     1
 40
1.0
176
     1
 40
1.0
176
     1
  0
VISUALSTYLE
  5
40
102
{ACAD_REACTORS
330
29
102
}
330
29
100
AcDbVisualStyle
  2
OverhangOff
 70
    21
177
     3
291
     1
 70
    58
 90
        2
176
     0
 90
        2
176
     0
 90
        0
176
     0
 90
        0
176
     0
 40
0.6
176
     0
 40
30.0
176
     0
 62
     7
420
 16777215
176
     0
 90
        1
176
     0
 90
        4
176
     0
 62
     7
176
     0
 62
   257
176
     0
 90
        1
176
     0
 90
        1
176
     0
 40
1.0
176
     0
 90
        9
176
     2
 62
     7
176
     0
 40
1.0
176
     0
 90
        1
176
     0
 90
        6
176
     0
 90
        2
176
     0
 62
     7
176
     0
 90
        5
176
     0
 90
        0
176
     0
 90
        0
176
     0
290
     0
176
     0
 90
        1
176
     0
 40
0.0
176
     0
 90
        0
176
     0
290
     0
176
     0
290
     1
176
     0
290
     1
176
     0
290
     0
176
     0
290
     0
176
     0
290
     0
176
     0
290
     0
176
     0
290
     0
176
     0
290
     0
176
     0
 90
       50
176
     0
 40
0.0
176
     0
 40
1.0
176
     0
 90
        0
176
     0
 62
    18
420
        0
176
     0
 90
       50
176
     0
 90
        3
176
     0
 62
     5
420
      255
176
     0
290
     0
176
     0
 90
       50
176
     0
 90
       50
176
     0
 90
       50
176
     0
290
     0
176
     0
 90
       50
176
     0
 62
   256
176
     0
 40
1.0
176
     0
 90
        2
176
     0
  1
strokes_ogs.tif
176
     0
290
     0
176
     0
 40
1.0
176
     0
 40
1.0
176
     0
  0
VISUALSTYLE
  5
33
102
{ACAD_REACTORS
330
29
102
}
330
29
100
AcDbVisualStyle
  2
Realistic
 70
     8
177
     3
291
     0
 70
    58
 90
        2
176
     1
 90
        3
176
     1
 90
        0
176
     1
 90
        2
176
     1
 40
0.6
176
     1
 40
30.0
176
     1
 62
     7
420
 16777215
176
     1
 90
        0
176
     1
 90
        0
176
     1
 62
     7
176
     1
 62
   257
176
     1
 90
        1
176
     1
 90
        1
176
     1
 40
1.0
176
     1
 90
        8
176
     1
 62
   257
176
     1
 40
1.0
176
     1
 90
        1
176
     1
 90
        6
176
     1
 90
        2
176
     1
 62
     7
176
     1
 90
        3
176
     1
 90
        0
176
     1
 90
        0
176
     1
290
     0
176
     1
 90
       13
176
     1
 40
0.0
176
     1
 90
        0
176
     1
290
     0
176
     1
290
     1
176
     1
290
     1
176
     1
290
     0
176
     1
290
     0
176
     1
290
     0
176
     1
290
     0
176
     1
290
     0
176
     1
290
     0
176
     1
 90
       50
176
     1
 40
0.0
176
     1
 40
1.0
176
     1
 90
        0
176
     1
 62
    18
420
        0
176
     1
 90
       50
176
     1
 90
        3
176
     1
 62
     5
420
      255
176
     1
290
     0
176
     1
 90
       50
176
     1
 90
       50
176
     1
 90
       50
176
     1
290
     0
176
     1
 90
       50
176
     1
 62
   256
176
     0
 40
1.0
176
     0
 90
        2
176
     1
  1
strokes_ogs.tif
176
     1
290
     0
176
     1
 40
1.0
176
     1
 40
1.0
176
     1
  0
VISUALSTYLE
  5
3E
102
{ACAD_REACTORS
330
29
102
}
330
29
100
AcDbVisualStyle
  2
Shaded
 70
    27
177
     3
291
     0
 70
    58
 90
        2
176
     1
 90
        2
176
     1
 90
        1
176
     1
 90
        2
176
     1
 40
0.6
176
     1
 40
30.0
176
     1
 62
     7
420
 16777215
176
     1
 90
        0
176
     1
 90
        4
176
     1
 62
     7
176
     1
 62
   257
176
     1
 90
        1
176
     1
 90
        1
176
     1
 40
1.0
176
     1
 90
        8
176
     1
 62
   257
176
     1
 40
1.0
176
     1
 90
        1
176
     1
 90
        6
176
     1
 90
        2
176
     1
 62
     8
420
  7895160
176
     1
 90
        3
176
     1
 90
        0
176
     1
 90
        0
176
     1
290
     0
176
     1
 90
        5
176
     1
 40
0.0
176
     1
 90
        0
176
     1
290
     0
176
     1
290
     1
176
     1
290
     1
176
     1
290
     0
176
     1
290
     0
176
     1
290
     0
176
     1
290
     0
176
     1
290
     0
176
     1
290
     0
176
     1
 90
       50
176
     1
 40
0.0
176
     1
 40
1.0
176
     1
 90
        0
176
     1
 62
    18
420
        0
176
     1
 90
       50
176
     1
 90
        3
176
     1
 62
     5
420
      255
176
     1
290
     0
176
     1
 90
       50
176
     1
 90
       50
176
     1
 90
       50
176
     1
290
     0
176
     1
 90
       50
176
     1
 62
   256
176
     0
 40
1.0
176
     0
 90
        2
176
     1
  1
strokes_ogs.tif
176
     1
290
     0
176
     1
 40
1.0
176
     1
 40
1.0
176
     1
  0
VISUALSTYLE
  5
3D
102
{ACAD_REACTORS
330
29
102
}
330
29
100
AcDbVisualStyle
  2
Shaded with edges
 70
    26
177
     3
291
     0
 70
    58
 90
        2
176
     1
 90
        2
176
     1
 90
        1
176
     1
 90
        2
176
     1
 40
0.6
176
     1
 40
30.0
176
     1
 62
     7
420
 16777215
176
     1
 90
        1
176
     1
 90
       10
176
     1
 62
     7
176
     1
 62
   257
176
     1
 90
        2
176
     1
 90
        1
176
     1
 40
1.0
176
     1
 90
        8
176
     1
 62
   257
176
     1
 40
1.0
176
     1
 90
        1
176
     1
 90
        6
176
     1
 90
        2
176
     1
 62
     7
176
     1
 90
        3
176
     1
 90
        0
176
     1
 90
        0
176
     1
290
     0
176
     1
 90
        5
176
     1
 40
0.0
176
     1
 90
        0
176
     1
290
     0
176
     1
290
     1
176
     1
290
     1
176
     1
290
     0
176
     1
290
     0
176
     1
290
     0
176
     1
290
     0
176
     1
290
     0
176
     1
290
     0
176
     1
 90
       50
176
     1
 40
0.0
176
     1
 40
1.0
176
     1
 90
        0
176
     1
 62
    18
420
        0
176
     1
 90
       50
176
     1
 90
        3
176
     1
 62
     5
420
      255
176
     1
290
     0
176
     1
 90
       50
176
     1
 90
       50
176
     1
 90
       50
176
     1
290
     0
176
     1
 90
       50
176
     1
 62
   256
176
     0
 40
1.0
176
     0
 90
        2
176
     1
  1
strokes_ogs.tif
176
     1
290
     0
176
     1
 40
1.0
176
     1
 40
1.0
176
     1
  0
VISUALSTYLE
  5
3A
102
{ACAD_REACTORS
330
29
102
}
330
29
100
AcDbVisualStyle
  2
Shades of Gray
 70
    23
177
     3
291
     0
 70
    58
 90
        2
176
     1
 90
        2
176
     1
 90
        3
176
     1
 90
        0
176
     1
 40
0.6
176
     1
 40
30.0
176
     1
 62
     7
420
 16777215
176
     1
 90
        2
176
     1
 90
        2
176
     1
 62
     7
176
     1
 62
     7
176
     1
 90
        1
176
     1
 90
        1
176
     1
 40
40.0
176
     1
 90
        8
176
     1
 62
     7
176
     1
 40
1.0
176
     1
 90
        1
176
     1
 90
        6
176
     1
 90
        2
176
     1
 62
     7
176
     1
 90
        3
176
     1
 90
        0
176
     1
 90
        0
176
     1
290
     0
176
     1
 90
        1
176
     1
 40
0.0
176
     1
 90
        0
176
     1
290
     0
176
     1
290
     1
176
     1
290
     1
176
     1
290
     0
176
     1
290
     0
176
     1
290
     0
176
     1
290
     0
176
     1
290
     0
176
     1
290
     0
176
     1
 90
       50
176
     1
 40
0.0
176
     1
 40
1.0
176
     1
 90
        0
176
     1
 62
    18
420
        0
176
     1
 90
       50
176
     1
 90
        3
176
     1
 62
     5
420
      255
176
     1
290
     0
176
     1
 90
       50
176
     1
 90
       50
176
     1
 90
       50
176
     1
290
     0
176
     1
 90
       50
176
     1
 62
   256
176
     0
 40
1.0
176
     0
 90
        2
176
     1
  1
strokes_ogs.tif
176
     1
290
     0
176
     1
 40
1.0
176
     1
 40
1.0
176
     1
  0
VISUALSTYLE
  5
3B
102
{ACAD_REACTORS
330
29
102
}
330
29
100
AcDbVisualStyle
  2
Sketchy
 70
    24
177
     3
291
     0
 70
    58
 90
        1
176
     1
 90
        2
176
     1
 90
        2
176
     1
 90
        0
176
     1
 40
0.6
176
     1
 40
30.0
176
     1
 62
     7
420
 16777215
176
     1
 90
        2
176
     1
 90
        2
176
     1
 62
     7
176
     1
 62
     7
176
     1
 90
        1
176
     1
 90
        1
176
     1
 40
40.0
176
     1
 90
       11
176
     1
 62
     7
176
     1
 40
1.0
176
     1
 90
        1
176
     1
 90
        6
176
     1
 90
        2
176
     1
 62
     7
176
     1
 90
        6
176
     1
 90
        0
176
     1
 90
        0
176
     1
290
     0
176
     1
 90
        1
176
     1
 40
0.0
176
     1
 90
        0
176
     1
290
     0
176
     1
290
     1
176
     1
290
     1
176
     1
290
     0
176
     1
290
     0
176
     1
290
     0
176
     1
290
     0
176
     1
290
     0
176
     1
290
     0
176
     1
 90
       50
176
     1
 40
0.0
176
     1
 40
1.0
176
     1
 90
        0
176
     1
 62
    18
420
        0
176
     1
 90
       50
176
     1
 90
        3
176
     1
 62
     5
420
      255
176
     1
290
     0
176
     1
 90
       50
176
     1
 90
       50
176
     1
 90
       50
176
     1
290
     0
176
     1
 90
       50
176
     1
 62
   256
176
     0
 40
1.0
176
     0
 90
        2
176
     1
  1
strokes_ogs.tif
176
     1
290
     0
176
     1
 40
1.0
176
     1
 40
1.0
176
     1
  0
VISUALSTYLE
  5
36
102
{ACAD_REACTORS
330
29
102
}
330
29
100
AcDbVisualStyle
  2
Thicken
 70
    13
177
     3
291
     1
 70
    58
 90
        2
176
     1
 90
        2
176
     1
 90
        0
176
     1
 90
        0
176
     1
 40
0.6
176
     1
 40
30.0
176
     1
 62
     7
420
 16777215
176
     1
 90
        1
176
     1
 90
        4
176
     1
 62
     7
176
     1
 62
   257
176
     1
 90
        1
176
     1
 90
        1
176
     1
 40
1.0
176
     1
 90
       12
176
     1
 62
     7
176
     1
 40
1.0
176
     1
 90
        1
176
     1
 90
        6
176
     1
 90
        2
176
     1
 62
     7
176
     1
 90
        5
176
     1
 90
        0
176
     1
 90
        0
176
     1
290
     0
176
     1
 90
        1
176
     1
 40
0.0
176
     1
 90
        0
176
     1
290
     0
176
     1
290
     1
176
     1
290
     1
176
     1
290
     0
176
     1
290
     0
176
     1
290
     0
176
     1
290
     0
176
     1
290
     0
176
     1
290
     0
176
     1
 90
       50
176
     1
 40
0.0
176
     1
 40
1.0
176
     1
 90
        0
176
     1
 62
    18
420
        0
176
     1
 90
       50
176
     1
 90
        3
176
     1
 62
     5
420
      255
176
     1
290
     0
176
     1
 90
       50
176
     1
 90
       50
176
     1
 90
       50
176
     1
290
     0
176
     1
 90
       50
176
     1
 62
   256
176
     0
 40
1.0
176
     0
 90
        2
176
     1
  1
strokes_ogs.tif
176
     1
290
     0
176
     1
 40
1.0
176
     1
 40
1.0
176
     1
  0
VISUALSTYLE
  5
30
102
{ACAD_REACTORS
330
29
102
}
330
29
100
AcDbVisualStyle
  2
Wireframe
 70
     5
177
     3
291
     0
 70
    58
 90
        0
176
     1
 90
        2
176
     1
 90
        0
176
     1
 90
        0
176
     1
 40
0.6
176
     1
 40
30.0
176
     1
 62
     7
420
 16777215
176
     1
 90
        1
176
     1
 90
        4
176
     1
 62
     7
176
     1
 62
   257
176
     1
 90
        1
176
     1
 90
        1
176
     1
 40
1.0
176
     1
 90
        0
176
     1
 62
   257
176
     1
 40
1.0
176
     1
 90
        1
176
     1
 90
        6
176
     1
 90
        2
176
     1
 62
     7
176
     1
 90
        3
176
     1
 90
        0
176
     1
 90
        0
176
     1
290
     0
176
     1
 90
        1
176
     1
 40
0.0
176
     1
 90
        0
176
     1
290
     0
176
     1
290
     1
176
     1
290
     1
176
     1
290
     0
176
     1
290
     0
176
     1
290
     0
176
     1
290
     0
176
     1
290
     0
176
     1
290
     0
176
     1
 90
       50
176
     1
 40
0.0
176
     1
 40
1.0
176
     1
 90
        0
176
     1
 62
    18
420
        0
176
     1
 90
       50
176
     1
 90
        3
176
     1
 62
     5
420
      255
176
     1
290
     0
176
     1
 90
       50
176
     1
 90
       50
176
     1
 90
       50
176
     1
290
     0
176
     1
 90
       50
176
     1
 62
   256
176
     0
 40
1.0
176
     0
 90
        2
176
     1
  1
strokes_ogs.tif
176
     1
290
     0
176
     1
 40
1.0
176
     1
 40
1.0
176
     1
  0
VISUALSTYLE
  5
3C
102
{ACAD_REACTORS
330
29
102
}
330
29
100
AcDbVisualStyle
  2
X-Ray
 70
    25
177
     3
291
     0
 70
    58
 90
        2
176
     1
 90
        2
176
     1
 90
        1
176
     1
 90
        1
176
     1
 40
0.5
176
     1
 40
30.0
176
     1
 62
     7
420
 16777215
176
     1
 90
        1
176
     1
 90
        0
176
     1
 62
     7
176
     1
 62
   257
176
     1
 90
        1
176
     1
 90
        1
176
     1
 40
1.0
176
     1
 90
        8
176
     1
 62
     7
176
     1
 40
1.0
176
     1
 90
        1
176
     1
 90
        6
176
     1
 90
        2
176
     1
 62
     7
176
     1
 90
        3
176
     1
 90
        0
176
     1
 90
        0
176
     1
290
     0
176
     1
 90
       13
176
     1
 40
0.0
176
     1
 90
        0
176
     1
290
     0
176
     1
290
     1
176
     1
290
     1
176
     1
290
     0
176
     1
290
     0
176
     1
290
     0
176
     1
290
     0
176
     1
290
     0
176
     1
290
     0
176
     1
 90
       50
176
     1
 40
0.0
176
     1
 40
1.0
176
     1
 90
        0
176
     1
 62
    18
420
        0
176
     1
 90
       50
176
     1
 90
        3
176
     1
 62
     5
420
      255
176
     1
290
     0
176
     1
 90
       50
176
     1
 90
       50
176
     1
 90
       50
176
     1
290
     0
176
     1
 90
       50
176
     1
 62
   256
176
     0
 40
1.0
176
     0
 90
        2
176
     1
  1
strokes_ogs.tif
176
     1
290
     0
176
     1
 40
1.0
176
     1
 40
1.0
176
     1
  0
DICTIONARYVAR
  5
81
102
{ACAD_REACTORS
330
7C
102
}
330
7C
100
DictionaryVariables
280
     0
  1
1:1
  0
DICTIONARYVAR
  5
7E
102
{ACAD_REACTORS
330
7C
102
}
330
7C
100
DictionaryVariables
280
     0
  1
STANDARD
  0
DICTIONARYVAR
  5
7D
102
{ACAD_REACTORS
330
7C
102
}
330
7C
100
DictionaryVariables
280
     0
  1
STANDARD
  0
DICTIONARYVAR
  5
7F
102
{ACAD_REACTORS
330
7C
102
}
330
7C
100
DictionaryVariables
280
     0
  1
Imperial24
  0
DICTIONARYVAR
  5
80
102
{ACAD_REACTORS
330
7C
102
}
330
7C
100
DictionaryVariables
280
     0
  1
Imperial24
  0
XRECORD
  5
2BE
102
{ACAD_REACTORS
330
2BA
102
}
330
2BA
100
AcDbXrecord
280
     1
  1
BUILDING_ID
  1
Progetto per messa in tavola DXF, DWG
  1
FLOOR_ID
  1
694395
  0
XRECORD
  5
2BC
102
{ACAD_REACTORS
330
2BA
102
}
330
2BA
100
AcDbXrecord
280
     1
  1
-2001160
  1
Apparecchi idraulici
  0
XRECORD
  5
2BD
102
{ACAD_REACTORS
330
2BA
102
}
330
2BA
100
AcDbXrecord
280
     1
  1
790271
  1
Body
  1
938184
  1
Handle
  1
939838
  1
Insulation
  0
XRECORD
  5
2BB
102
{ACAD_REACTORS
330
2BA
102
}
330
2BA
100
AcDbXrecord
280
     1
  1
859151
  1
Automatic flow rate regulator valve_Caleffi_121 DN15 : 1/2''
  0
DICTIONARY
  5
1A
330
19
100
AcDbDictionary
280
     1
281
     1
  3
BUMPTILE
360
1C
  3
DIFFUSETILE
360
1B
  3
OPACITYTILE
360
1F
  3
REFLECTIONTILE
360
1E
  3
REFRACTIONTILE
360
20
  3
SPECULARTILE
360
1D
  0
DICTIONARY
  5
12
330
11
100
AcDbDictionary
280
     1
281
     1
  3
BUMPTILE
360
14
  3
DIFFUSETILE
360
13
  3
OPACITYTILE
360
17
  3
REFLECTIONTILE
360
16
  3
REFRACTIONTILE
360
18
  3
SPECULARTILE
360
15
  0
DICTIONARY
  5
22
330
21
100
AcDbDictionary
280
     1
281
     1
  3
BUMPTILE
360
24
  3
DIFFUSETILE
360
23
  3
OPACITYTILE
360
27
  3
REFLECTIONTILE
360
26
  3
REFRACTIONTILE
360
28
  3
SPECULARTILE
360
25
  0
DICTIONARY
  5
2C1
330
65
100
AcDbDictionary
280
     1
281
     1
  3
ACAD_ROUNDTRIP_2008_TABLESTYLE_CELLSTYLEMAP
360
2C2
  0
XRECORD
  5
1C
102
{ACAD_REACTORS
330
1A
102
}
330
1A
100
AcDbXrecord
280
     1
270
     1
271
     1
  0
XRECORD
  5
1B
102
{ACAD_REACTORS
330
1A
102
}
330
1A
100
AcDbXrecord
280
     1
270
     1
271
     1
  0
XRECORD
  5
1F
102
{ACAD_REACTORS
330
1A
102
}
330
1A
100
AcDbXrecord
280
     1
270
     1
271
     1
  0
XRECORD
  5
1E
102
{ACAD_REACTORS
330
1A
102
}
330
1A
100
AcDbXrecord
280
     1
270
     1
271
     1
  0
XRECORD
  5
20
102
{ACAD_REACTORS
330
1A
102
}
330
1A
100
AcDbXrecord
280
     1
270
     1
271
     1
  0
XRECORD
  5
1D
102
{ACAD_REACTORS
330
1A
102
}
330
1A
100
AcDbXrecord
280
     1
270
     1
271
     1
  0
XRECORD
  5
14
102
{ACAD_REACTORS
330
12
102
}
330
12
100
AcDbXrecord
280
     1
270
     1
271
     1
  0
XRECORD
  5
13
102
{ACAD_REACTORS
330
12
102
}
330
12
100
AcDbXrecord
280
     1
270
     1
271
     1
  0
XRECORD
  5
17
102
{ACAD_REACTORS
330
12
102
}
330
12
100
AcDbXrecord
280
     1
270
     1
271
     1
  0
XRECORD
  5
16
102
{ACAD_REACTORS
330
12
102
}
330
12
100
AcDbXrecord
280
     1
270
     1
271
     1
  0
XRECORD
  5
18
102
{ACAD_REACTORS
330
12
102
}
330
12
100
AcDbXrecord
280
     1
270
     1
271
     1
  0
XRECORD
  5
15
102
{ACAD_REACTORS
330
12
102
}
330
12
100
AcDbXrecord
280
     1
270
     1
271
     1
  0
XRECORD
  5
24
102
{ACAD_REACTORS
330
22
102
}
330
22
100
AcDbXrecord
280
     1
270
     1
271
     1
  0
XRECORD
  5
23
102
{ACAD_REACTORS
330
22
102
}
330
22
100
AcDbXrecord
280
     1
270
     1
271
     1
  0
XRECORD
  5
27
102
{ACAD_REACTORS
330
22
102
}
330
22
100
AcDbXrecord
280
     1
270
     1
271
     1
  0
XRECORD
  5
26
102
{ACAD_REACTORS
330
22
102
}
330
22
100
AcDbXrecord
280
     1
270
     1
271
     1
  0
XRECORD
  5
28
102
{ACAD_REACTORS
330
22
102
}
330
22
100
AcDbXrecord
280
     1
270
     1
271
     1
  0
XRECORD
  5
25
102
{ACAD_REACTORS
330
22
102
}
330
22
100
AcDbXrecord
280
     1
270
     1
271
     1
  0
CELLSTYLEMAP
  5
2C2
102
{ACAD_REACTORS
330
2C1
102
}
330
2C1
100
AcDbCellStyleMap
 90
        3
300
CELLSTYLE
  1
TABLEFORMAT_BEGIN
 90
        5
170
     1
 91
        0
 92
    32768
 62
   257
 93
        1
300
CONTENTFORMAT
  1
CONTENTFORMAT_BEGIN
 90
        0
 91
        0
 92
      512
 93
        0
300

 40
0.0
140
1.0
 94
        5
 62
     0
340
55
144
0.25
309
CONTENTFORMAT_END
171
     0
 94
        0
309
TABLEFORMAT_END
  1
CELLSTYLE_BEGIN
 90
        1
 91
        1
300
_TITLE
309
CELLSTYLE_END
300
CELLSTYLE
  1
TABLEFORMAT_BEGIN
 90
        5
170
     1
 91
        0
 92
        0
 62
   257
 93
        1
300
CONTENTFORMAT
  1
CONTENTFORMAT_BEGIN
 90
        0
 91
        0
 92
      512
 93
        0
300

 40
0.0
140
1.0
 94
        5
 62
     0
340
55
144
0.18
309
CONTENTFORMAT_END
171
     0
 94
        0
309
TABLEFORMAT_END
  1
CELLSTYLE_BEGIN
 90
        2
 91
        1
300
_HEADER
309
CELLSTYLE_END
300
CELLSTYLE
  1
TABLEFORMAT_BEGIN
 90
        5
170
     1
 91
        0
 92
        0
 62
   257
 93
        1
300
CONTENTFORMAT
  1
CONTENTFORMAT_BEGIN
 90
        0
 91
        0
 92
      512
 93
        0
300

 40
0.0
140
1.0
 94
        2
 62
     0
340
55
144
0.18
309
CONTENTFORMAT_END
171
     0
 94
        0
309
TABLEFORMAT_END
  1
CELLSTYLE_BEGIN
 90
        3
 91
        2
300
_DATA
309
CELLSTYLE_END
  0
ENDSEC
  0
EOF
