  0
SECTION
  2
HEADER
  9
$ACADVER
  1
AC1027
  9
$ACADMAINTVER
 70
    20
  9
$DWGCODEPAGE
  3
ANSI_1252
  9
$REQUIREDVERSIONS
160
                 0
  9
$INSBASE
 10
0.0
 20
0.0
 30
0.0
  9
$EXTMIN
 10
373.2855994030531
 20
884.3007378623743
 30
-0.00000001
  9
$EXTMAX
 10
2223.278244820765
 20
2533.22390350989
 30
0.00000001
  9
$LIMMIN
 10
0.0
 20
0.0
  9
$LIMMAX
 10
12.0
 20
9.0
  9
$ORTHOMODE
 70
     0
  9
$REGENMODE
 70
     1
  9
$FILLMODE
 70
     1
  9
$QTEXTMODE
 70
     0
  9
$MIRRTEXT
 70
     0
  9
$LTSCALE
 40
1.0
  9
$ATTMODE
 70
     1
  9
$TEXTSIZE
 40
0.2
  9
$TRACEWID
 40
0.05
  9
$TEXTSTYLE
  7
Standard
  9
$CLAYER
  8
0
  9
$CELTYPE
  6
ByLayer
  9
$CECOLOR
 62
   256
  9
$CELTSCALE
 40
1.0
  9
$DISPSILH
 70
     0
  9
$DIMSCALE
 40
1.0
  9
$DIMASZ
 40
0.18
  9
$DIMEXO
 40
0.0625
  9
$DIMDLI
 40
0.38
  9
$DIMRND
 40
0.0
  9
$DIMDLE
 40
0.0
  9
$DIMEXE
 40
0.18
  9
$DIMTP
 40
0.0
  9
$DIMTM
 40
0.0
  9
$DIMTXT
 40
0.18
  9
$DIMCEN
 40
0.09
  9
$DIMTSZ
 40
0.0
  9
$DIMTOL
 70
     0
  9
$DIMLIM
 70
     0
  9
$DIMTIH
 70
     1
  9
$DIMTOH
 70
     1
  9
$DIMSE1
 70
     0
  9
$DIMSE2
 70
     0
  9
$DIMTAD
 70
     0
  9
$DIMZIN
 70
     0
  9
$DIMBLK
  1

  9
$DIMASO
 70
     1
  9
$DIMSHO
 70
     1
  9
$DIMPOST
  1

  9
$DIMAPOST
  1

  9
$DIMALT
 70
     0
  9
$DIMALTD
 70
     2
  9
$DIMALTF
 40
25.4
  9
$DIMLFAC
 40
1.0
  9
$DIMTOFL
 70
     0
  9
$DIMTVP
 40
0.0
  9
$DIMTIX
 70
     0
  9
$DIMSOXD
 70
     0
  9
$DIMSAH
 70
     0
  9
$DIMBLK1
  1

  9
$DIMBLK2
  1

  9
$DIMSTYLE
  2
Standard
  9
$DIMCLRD
 70
     0
  9
$DIMCLRE
 70
     0
  9
$DIMCLRT
 70
     0
  9
$DIMTFAC
 40
1.0
  9
$DIMGAP
 40
0.09
  9
$DIMJUST
 70
     0
  9
$DIMSD1
 70
     0
  9
$DIMSD2
 70
     0
  9
$DIMTOLJ
 70
     1
  9
$DIMTZIN
 70
     0
  9
$DIMALTZ
 70
     0
  9
$DIMALTTZ
 70
     0
  9
$DIMUPT
 70
     0
  9
$DIMDEC
 70
     4
  9
$DIMTDEC
 70
     4
  9
$DIMALTU
 70
     2
  9
$DIMALTTD
 70
     2
  9
$DIMTXSTY
  7
Standard
  9
$DIMAUNIT
 70
     0
  9
$DIMADEC
 70
     0
  9
$DIMALTRND
 40
0.0
  9
$DIMAZIN
 70
     0
  9
$DIMDSEP
 70
    46
  9
$DIMATFIT
 70
     3
  9
$DIMFRAC
 70
     0
  9
$DIMLDRBLK
  1

  9
$DIMLUNIT
 70
     2
  9
$DIMLWD
 70
    -2
  9
$DIMLWE
 70
    -2
  9
$DIMTMOVE
 70
     0
  9
$DIMFXL
 40
1.0
  9
$DIMFXLON
 70
     0
  9
$DIMJOGANG
 40
0.7853981633974483
  9
$DIMTFILL
 70
     0
  9
$DIMTFILLCLR
 70
     0
  9
$DIMARCSYM
 70
     0
  9
$DIMLTYPE
  6

  9
$DIMLTEX1
  6

  9
$DIMLTEX2
  6

  9
$DIMTXTDIRECTION
 70
     0
  9
$LUNITS
 70
     2
  9
$LUPREC
 70
     4
  9
$SKETCHINC
 40
0.1
  9
$FILLETRAD
 40
0.0
  9
$AUNITS
 70
     0
  9
$AUPREC
 70
     0
  9
$MENU
  1
.
  9
$ELEVATION
 40
0.0
  9
$PELEVATION
 40
0.0
  9
$THICKNESS
 40
0.0
  9
$LIMCHECK
 70
     0
  9
$CHAMFERA
 40
0.0
  9
$CHAMFERB
 40
0.0
  9
$CHAMFERC
 40
0.0
  9
$CHAMFERD
 40
0.0
  9
$SKPOLY
 70
     0
  9
$TDCREATE
 40
2457585.384835625
  9
$TDUCREATE
 40
2457585.301502292
  9
$TDUPDATE
 40
2457585.384835625
  9
$TDUUPDATE
 40
2457585.301502292
  9
$TDINDWG
 40
0.0000600463
  9
$TDUSRTIMER
 40
0.0000600463
  9
$USRTIMER
 70
     1
  9
$ANGBASE
 50
0.0
  9
$ANGDIR
 70
     0
  9
$PDMODE
 70
     0
  9
$PDSIZE
 40
0.0
  9
$PLINEWID
 40
0.0
  9
$SPLFRAME
 70
     0
  9
$SPLINETYPE
 70
     6
  9
$SPLINESEGS
 70
     8
  9
$HANDSEED
  5
1EE
  9
$SURFTAB1
 70
     6
  9
$SURFTAB2
 70
     6
  9
$SURFTYPE
 70
     6
  9
$SURFU
 70
     6
  9
$SURFV
 70
     6
  9
$UCSBASE
  2

  9
$UCSNAME
  2

  9
$UCSORG
 10
0.0
 20
0.0
 30
0.0
  9
$UCSXDIR
 10
1.0
 20
0.0
 30
0.0
  9
$UCSYDIR
 10
0.0
 20
1.0
 30
0.0
  9
$UCSORTHOREF
  2

  9
$UCSORTHOVIEW
 70
     0
  9
$UCSORGTOP
 10
0.0
 20
0.0
 30
0.0
  9
$UCSORGBOTTOM
 10
0.0
 20
0.0
 30
0.0
  9
$UCSORGLEFT
 10
0.0
 20
0.0
 30
0.0
  9
$UCSORGRIGHT
 10
0.0
 20
0.0
 30
0.0
  9
$UCSORGFRONT
 10
0.0
 20
0.0
 30
0.0
  9
$UCSORGBACK
 10
0.0
 20
0.0
 30
0.0
  9
$PUCSBASE
  2

  9
$PUCSNAME
  2

  9
$PUCSORG
 10
0.0
 20
0.0
 30
0.0
  9
$PUCSXDIR
 10
1.0
 20
0.0
 30
0.0
  9
$PUCSYDIR
 10
0.0
 20
1.0
 30
0.0
  9
$PUCSORTHOREF
  2

  9
$PUCSORTHOVIEW
 70
     0
  9
$PUCSORGTOP
 10
0.0
 20
0.0
 30
0.0
  9
$PUCSORGBOTTOM
 10
0.0
 20
0.0
 30
0.0
  9
$PUCSORGLEFT
 10
0.0
 20
0.0
 30
0.0
  9
$PUCSORGRIGHT
 10
0.0
 20
0.0
 30
0.0
  9
$PUCSORGFRONT
 10
0.0
 20
0.0
 30
0.0
  9
$PUCSORGBACK
 10
0.0
 20
0.0
 30
0.0
  9
$USERI1
 70
     0
  9
$USERI2
 70
     0
  9
$USERI3
 70
     0
  9
$USERI4
 70
     0
  9
$USERI5
 70
     0
  9
$USERR1
 40
0.0
  9
$USERR2
 40
0.0
  9
$USERR3
 40
0.0
  9
$USERR4
 40
0.0
  9
$USERR5
 40
0.0
  9
$WORLDVIEW
 70
     1
  9
$SHADEDGE
 70
     3
  9
$SHADEDIF
 70
    70
  9
$TILEMODE
 70
     1
  9
$MAXACTVP
 70
    64
  9
$PINSBASE
 10
0.0
 20
0.0
 30
0.0
  9
$PLIMCHECK
 70
     0
  9
$PEXTMIN
 10
1.000000000000000E+20
 20
1.000000000000000E+20
 30
1.000000000000000E+20
  9
$PEXTMAX
 10
-1.000000000000000E+20
 20
-1.000000000000000E+20
 30
-1.000000000000000E+20
  9
$PLIMMIN
 10
0.0
 20
0.0
  9
$PLIMMAX
 10
12.0
 20
9.0
  9
$UNITMODE
 70
     0
  9
$VISRETAIN
 70
     1
  9
$PLINEGEN
 70
     0
  9
$PSLTSCALE
 70
     1
  9
$TREEDEPTH
 70
  3020
  9
$CMLSTYLE
  2
Standard
  9
$CMLJUST
 70
     0
  9
$CMLSCALE
 40
1.0
  9
$PROXYGRAPHICS
 70
     1
  9
$MEASUREMENT
 70
     1
  9
$CELWEIGHT
370
    -1
  9
$ENDCAPS
280
     0
  9
$JOINSTYLE
280
     0
  9
$LWDISPLAY
290
     0
  9
$INSUNITS
 70
     4
  9
$HYPERLINKBASE
  1

  9
$STYLESHEET
  1

  9
$XEDIT
290
     1
  9
$CEPSNTYPE
380
     0
  9
$PSTYLEMODE
290
     1
  9
$FINGERPRINTGUID
  2
{F87675E9-F5BA-4E69-8C17-6C3A4555CE3E}
  9
$VERSIONGUID
  2
{2F596A5B-92D6-47E6-8F54-1ED7A4C82BAD}
  9
$EXTNAMES
290
     1
  9
$PSVPSCALE
 40
0.0
  9
$OLESTARTUP
290
     0
  9
$SORTENTS
280
   127
  9
$INDEXCTL
280
     0
  9
$HIDETEXT
280
     1
  9
$XCLIPFRAME
280
     2
  9
$HALOGAP
280
     0
  9
$OBSCOLOR
 70
   257
  9
$OBSLTYPE
280
     0
  9
$INTERSECTIONDISPLAY
280
     0
  9
$INTERSECTIONCOLOR
 70
   257
  9
$DIMASSOC
280
     2
  9
$PROJECTNAME
  1

  9
$CAMERADISPLAY
290
     0
  9
$LENSLENGTH
 40
50.0
  9
$CAMERAHEIGHT
 40
0.0
  9
$STEPSPERSEC
 40
2.0
  9
$STEPSIZE
 40
6.0
  9
$3DDWFPREC
 40
2.0
  9
$PSOLWIDTH
 40
0.25
  9
$PSOLHEIGHT
 40
4.0
  9
$LOFTANG1
 40
1.570796326794896
  9
$LOFTANG2
 40
1.570796326794896
  9
$LOFTMAG1
 40
0.0
  9
$LOFTMAG2
 40
0.0
  9
$LOFTPARAM
 70
     7
  9
$LOFTNORMALS
280
     1
  9
$LATITUDE
 40
37.795
  9
$LONGITUDE
 40
-122.394
  9
$NORTHDIRECTION
 40
0.0
  9
$TIMEZONE
 70
 -8000
  9
$LIGHTGLYPHDISPLAY
280
     1
  9
$TILEMODELIGHTSYNCH
280
     1
  9
$CMATERIAL
347
11
  9
$SOLIDHIST
280
     0
  9
$SHOWHIST
280
     1
  9
$DWFFRAME
280
     2
  9
$DGNFRAME
280
     0
  9
$REALWORLDSCALE
290
     1
  9
$INTERFERECOLOR
 62
     1
  9
$INTERFEREOBJVS
345
33
  9
$INTERFEREVPVS
346
30
  9
$CSHADOW
280
     0
  9
$SHADOWPLANELOCATION
 40
0.0
  0
ENDSEC
  0
SECTION
  2
CLASSES
  0
CLASS
  1
ACDBDICTIONARYWDFLT
  2
AcDbDictionaryWithDefault
  3
ObjectDBX Classes
 90
        0
 91
        1
280
     0
281
     0
  0
CLASS
  1
MATERIAL
  2
AcDbMaterial
  3
ObjectDBX Classes
 90
     1153
 91
        3
280
     0
281
     0
  0
CLASS
  1
VISUALSTYLE
  2
AcDbVisualStyle
  3
ObjectDBX Classes
 90
     4095
 91
       24
280
     0
281
     0
  0
CLASS
  1
SCALE
  2
AcDbScale
  3
ObjectDBX Classes
 90
     1153
 91
       17
280
     0
281
     0
  0
CLASS
  1
TABLESTYLE
  2
AcDbTableStyle
  3
ObjectDBX Classes
 90
     4095
 91
        1
280
     0
281
     0
  0
CLASS
  1
MLEADERSTYLE
  2
AcDbMLeaderStyle
  3
ACDB_MLEADERSTYLE_CLASS
 90
     4095
 91
        1
280
     0
281
     0
  0
CLASS
  1
ACDBSECTIONVIEWSTYLE
  2
AcDbSectionViewStyle
  3
ObjectDBX Classes
 90
     1025
 91
        1
280
     0
281
     0
  0
CLASS
  1
ACDBDETAILVIEWSTYLE
  2
AcDbDetailViewStyle
  3
ObjectDBX Classes
 90
     1025
 91
        1
280
     0
281
     0
  0
CLASS
  1
RASTERVARIABLES
  2
AcDbRasterVariables
  3
ISM
 90
        0
 91
        1
280
     0
281
     0
  0
CLASS
  1
DICTIONARYVAR
  2
AcDbDictionaryVar
  3
ObjectDBX Classes
 90
        0
 91
        5
280
     0
281
     0
  0
CLASS
  1
CELLSTYLEMAP
  2
AcDbCellStyleMap
  3
ObjectDBX Classes
 90
     1152
 91
        2
280
     0
281
     0
  0
CLASS
  1
SORTENTSTABLE
  2
AcDbSortentsTable
  3
ObjectDBX Classes
 90
        0
 91
        1
280
     0
281
     0
  0
ENDSEC
  0
SECTION
  2
TABLES
  0
TABLE
  2
VPORT
  5
8
330
0
100
AcDbSymbolTable
 70
     1
  0
VPORT
  5
57
330
8
100
AcDbSymbolTableRecord
100
AcDbViewportTableRecord
  2
*Active
 70
     0
 10
0.0
 20
0.0
 11
1.0
 21
1.0
 12
1298.281922111909
 22
1708.762320686132
 13
0.0
 23
0.0
 14
1.0
 24
1.0
 15
0.0
 25
0.0
 16
0.0
 26
0.0
 36
1.0
 17
0.0
 27
0.0
 37
0.0
 40
1648.923165647516
 41
1.121939872008067
 42
50.0
 43
0.0
 44
0.0
 50
0.0
 51
0.0
 71
     0
 72
  1000
 73
     1
 74
     1
 75
     0
 76
     0
 77
     0
 78
     0
281
     0
 65
     1
110
0.0
120
0.0
130
0.0
111
1.0
121
0.0
131
0.0
112
0.0
122
1.0
132
0.0
 79
     0
146
0.0
 60
     3
 61
     5
292
     1
282
     1
141
0.0
142
0.0
 63
   250
421
  3355443
  0
ENDTAB
  0
TABLE
  2
LTYPE
  5
5
330
0
100
AcDbSymbolTable
 70
     3
  0
LTYPE
  5
5B
330
5
100
AcDbSymbolTableRecord
100
AcDbLinetypeTableRecord
  2
ByBlock
 70
     0
  3

 72
    65
 73
     0
 40
0.0
  0
LTYPE
  5
5C
330
5
100
AcDbSymbolTableRecord
100
AcDbLinetypeTableRecord
  2
ByLayer
 70
     0
  3

 72
    65
 73
     0
 40
0.0
  0
LTYPE
  5
5D
330
5
100
AcDbSymbolTableRecord
100
AcDbLinetypeTableRecord
  2
Continuous
 70
     0
  3
Solid line
 72
    65
 73
     0
 40
0.0
  0
LTYPE
  5
69
330
5
100
AcDbSymbolTableRecord
100
AcDbLinetypeTableRecord
  2
PHANTOM2
 70
     0
  3
___ _ _ ___ _ _ ___ _ _ ___ _ _
 72
    65
 73
     6
 40
1.25
 49
0.625
 74
     0
 49
-0.125
 74
     0
 49
0.125
 74
     0
 49
-0.125
 74
     0
 49
0.125
 74
     0
 49
-0.125
 74
     0
  0
LTYPE
  5
86
330
5
100
AcDbSymbolTableRecord
100
AcDbLinetypeTableRecord
  2
Nascosto 1_5 mm
 70
     0
  3

 72
    65
 73
     2
 40
2.2
 49
1.5
 74
     0
 49
-0.7000000000000001
 74
     0
  0
ENDTAB
  0
TABLE
  2
LAYER
  5
2
330
0
100
AcDbSymbolTable
 70
     3
  0
LAYER
  5
54
330
2
100
AcDbSymbolTableRecord
100
AcDbLayerTableRecord
  2
0
 70
     0
 62
     7
  6
Continuous
370
    -3
390
F
347
21
348
0
  0
LAYER
  5
85
330
2
100
AcDbSymbolTableRecord
100
AcDbLayerTableRecord
  2
P-SANR-FIXT
 70
     0
 62
     6
  6
Continuous
370
    18
390
F
347
21
348
0
  0
ENDTAB
  0
TABLE
  2
STYLE
  5
3
330
0
100
AcDbSymbolTable
 70
     2
  0
STYLE
  5
55
330
3
100
AcDbSymbolTableRecord
100
AcDbTextStyleTableRecord
  2
Standard
 70
     0
 40
0.0
 41
1.0
 50
0.0
 71
     0
 42
0.2
  3
txt
  4

  0
STYLE
  5
5A
330
3
100
AcDbSymbolTableRecord
100
AcDbTextStyleTableRecord
  2
Annotative
 70
     0
 40
0.0
 41
1.0
 50
0.0
 71
     0
 42
0.2
  3
txt
  4

1001
AcadAnnotative
1000
AnnotativeData
1002
{
1070
     1
1070
     1
1002
}
  0
ENDTAB
  0
TABLE
  2
VIEW
  5
6
330
0
100
AcDbSymbolTable
 70
     0
  0
ENDTAB
  0
TABLE
  2
UCS
  5
7
330
0
100
AcDbSymbolTable
 70
     0
  0
ENDTAB
  0
TABLE
  2
APPID
  5
9
330
0
100
AcDbSymbolTable
 70
     3
  0
APPID
  5
56
330
9
100
AcDbSymbolTableRecord
100
AcDbRegAppTableRecord
  2
ACAD
 70
     0
  0
APPID
  5
5E
330
9
100
AcDbSymbolTableRecord
100
AcDbRegAppTableRecord
  2
AcadAnnotative
 70
     0
  0
APPID
  5
79
330
9
100
AcDbSymbolTableRecord
100
AcDbRegAppTableRecord
  2
REVIT
 70
     0
  0
ENDTAB
  0
TABLE
  2
DIMSTYLE
  5
A
330
0
100
AcDbSymbolTable
 70
     2
100
AcDbDimStyleTable
 71
     0
  0
DIMSTYLE
105
58
330
A
100
AcDbSymbolTableRecord
100
AcDbDimStyleTableRecord
  2
Standard
 70
     0
340
55
  0
DIMSTYLE
105
59
330
A
100
AcDbSymbolTableRecord
100
AcDbDimStyleTableRecord
  2
Annotative
 70
     0
340
55
1001
AcadAnnotative
1000
AnnotativeData
1002
{
1070
     1
1070
     1
1002
}
  0
ENDTAB
  0
TABLE
  2
BLOCK_RECORD
  5
1
330
0
100
AcDbSymbolTable
 70
     4
  0
BLOCK_RECORD
  5
71
102
{ACAD_XDICTIONARY
360
1E9
102
}
330
1
100
AcDbSymbolTableRecord
100
AcDbBlockTableRecord
  2
*Model_Space
340
74
 70
     0
280
     1
281
     0
  0
BLOCK_RECORD
  5
6D
330
1
100
AcDbSymbolTableRecord
100
AcDbBlockTableRecord
  2
*Paper_Space
340
70
 70
     0
280
     1
281
     0
  0
BLOCK_RECORD
  5
75
330
1
100
AcDbSymbolTableRecord
100
AcDbBlockTableRecord
  2
*Paper_Space0
340
78
 70
     0
280
     1
281
     0
  0
BLOCK_RECORD
  5
87
330
1
100
AcDbSymbolTableRecord
100
AcDbBlockTableRecord
  2
Automatic flow rate regulator valve_Caleffi_121 DN15 - 1_2__-859151-Est - Idraulica
340
0
102
{BLKREFS
331
FB
102
}
 70
     0
280
     1
281
     0
  0
BLOCK_RECORD
  5
FC
330
1
100
AcDbSymbolTableRecord
100
AcDbBlockTableRecord
  2
Automatic flow rate regulator valve_Caleffi_121 DN15 - 1_2__-V1-Est - Idraulica
340
0
102
{BLKREFS
331
191
102
}
 70
     0
280
     1
281
     0
  0
BLOCK_RECORD
  5
192
330
1
100
AcDbSymbolTableRecord
100
AcDbBlockTableRecord
  2
Automatic flow rate regulator valve_Caleffi_121 DN15 - 1_2__-V2-Est - Idraulica
340
0
102
{BLKREFS
331
1E3
102
}
 70
     0
280
     1
281
     0
  0
ENDTAB
  0
ENDSEC
  0
SECTION
  2
BLOCKS
  0
BLOCK
  5
72
330
71
100
AcDbEntity
  8
0
100
AcDbBlockBegin
  2
*Model_Space
 70
     0
 10
0.0
 20
0.0
 30
0.0
  3
*Model_Space
  1

  0
ENDBLK
  5
73
330
71
100
AcDbEntity
  8
0
100
AcDbBlockEnd
  0
BLOCK
  5
6E
330
6D
100
AcDbEntity
 67
     1
  8
0
100
AcDbBlockBegin
  2
*Paper_Space
 70
     0
 10
0.0
 20
0.0
 30
0.0
  3
*Paper_Space
  1

  0
ENDBLK
  5
6F
330
6D
100
AcDbEntity
 67
     1
  8
0
100
AcDbBlockEnd
  0
BLOCK
  5
76
330
75
100
AcDbEntity
 67
     1
  8
0
100
AcDbBlockBegin
  2
*Paper_Space0
 70
     0
 10
0.0
 20
0.0
 30
0.0
  3
*Paper_Space0
  1

  0
ENDBLK
  5
77
330
75
100
AcDbEntity
 67
     1
  8
0
100
AcDbBlockEnd
  0
BLOCK
  5
F9
330
87
100
AcDbEntity
  8
0
100
AcDbBlockBegin
  2
Automatic flow rate regulator valve_Caleffi_121 DN15 - 1_2__-859151-Est - Idraulica
 70
     0
 10
0.0
 20
0.0
 30
0.0
  3
Automatic flow rate regulator valve_Caleffi_121 DN15 - 1_2__-859151-Est - Idraulica
  1

  0
LINE
  5
88
330
87
100
AcDbEntity
  8
P-SANR-FIXT
100
AcDbLine
 10
1147.35011164722
 20
2194.994579163361
 30
0.0
 11
1147.35011164722
 21
2199.994579163361
 31
0.0
  0
LINE
  5
89
330
87
100
AcDbEntity
  8
P-SANR-FIXT
100
AcDbLine
 10
1137.35011164722
 20
2199.994579163361
 30
0.0
 11
1137.35011164722
 21
2194.994579163361
 31
0.0
  0
LINE
  5
8A
330
87
100
AcDbEntity
  8
P-SANR-FIXT
100
AcDbLine
 10
1150.084858982213
 20
2173.128150887763
 30
0.0
 11
1150.084858982213
 21
2194.994579163361
 31
0.0
  0
LINE
  5
8B
330
87
100
AcDbEntity
  8
P-SANR-FIXT
100
AcDbLine
 10
1134.615364312227
 20
2194.994579163361
 30
0.0
 11
1134.615364312227
 21
2173.128150887763
 31
0.0
  0
LINE
  5
8C
330
87
100
AcDbEntity
  8
P-SANR-FIXT
100
AcDbLine
 10
1137.350111647218
 20
2199.99457916336
 30
0.0
 11
1147.350111647218
 21
2199.99457916336
 31
0.0
  0
LINE
  5
8D
330
87
100
AcDbEntity
  8
P-SANR-FIXT
100
AcDbLine
 10
1134.615364312225
 20
2194.99457916336
 30
0.0
 11
1150.084858982211
 21
2194.99457916336
 31
0.0
  0
LINE
  5
8E
330
87
100
AcDbEntity
  8
P-SANR-FIXT
100
AcDbLine
 10
449.2210871588889
 20
2199.994579163361
 30
0.0
 11
449.2210871588889
 21
2194.994579163361
 31
0.0
  0
LINE
  5
8F
330
87
100
AcDbEntity
  8
P-SANR-FIXT
100
AcDbLine
 10
459.2210871588891
 20
2194.994579163361
 30
0.0
 11
459.2210871588891
 21
2199.994579163361
 31
0.0
  0
LINE
  5
90
330
87
100
AcDbEntity
  8
P-SANR-FIXT
100
AcDbLine
 10
446.4863398238962
 20
2194.994579163361
 30
0.0
 11
446.4863398238962
 21
2173.128150887763
 31
0.0
  0
LINE
  5
91
330
87
100
AcDbEntity
  8
P-SANR-FIXT
100
AcDbLine
 10
461.9558344938818
 20
2173.128150887763
 30
0.0
 11
461.9558344938818
 21
2194.994579163361
 31
0.0
  0
LINE
  5
92
330
87
100
AcDbEntity
  8
P-SANR-FIXT
100
AcDbLine
 10
449.221087158888
 20
2199.99457916336
 30
0.0
 11
459.2210871588881
 21
2199.99457916336
 31
0.0
  0
LINE
  5
93
330
87
100
AcDbEntity
  8
P-SANR-FIXT
100
AcDbLine
 10
446.4863398238953
 20
2194.99457916336
 30
0.0
 11
461.9558344938809
 21
2194.99457916336
 31
0.0
  0
LINE
  5
94
330
87
100
AcDbEntity
  8
P-SANR-FIXT
100
AcDbLine
 10
915.9190762690652
 20
2481.202857119652
 30
0.0
 11
912.6392965088408
 21
2475.522111937307
 31
0.0
  0
LINE
  5
95
330
87
100
AcDbEntity
  8
P-SANR-FIXT
100
AcDbLine
 10
968.5419130941747
 20
2443.246721203359
 30
0.0
 11
971.8216928543993
 21
2448.927466385705
 31
0.0
  0
LWPOLYLINE
  5
96
330
87
100
AcDbEntity
  8
P-SANR-FIXT
100
AcDbPolyline
 90
       41
 70
   128
 43
0.0
 10
1066.164288350251
 20
2386.884416570332
 10
1066.506606676416
 20
2386.67754261988
 10
1066.840378432893
 20
2386.45714506458
 10
1067.165069656073
 20
2386.223576493504
 10
1067.480160909262
 20
2385.977210566541
 10
1067.785148113671
 20
2385.718441416619
 10
1068.079543354833
 20
2385.447683019176
 10
1068.362875663163
 20
2385.165368529891
 10
1068.63469176741
 20
2384.871949591721
 10
1068.89455681979
 20
2384.567895612375
 10
1069.142055091655
 20
2384.253693013359
 10
1069.376790638566
 20
2383.929844451805
 10
1069.598387933723
 20
2383.596868016327
 10
1069.806492468725
 20
2383.255296398192
 10
1070.00077132071
 20
2382.905676039122
 10
1070.180913684957
 20
2382.548566257111
 10
1070.346631372113
 20
2382.184538351631
 10
1070.49765926923
 20
2381.814174689676
 10
1070.633755763889
 20
2381.438067774098
 10
1070.754703130732
 20
2381.056819295729
 10
1070.860307879772
 20
2380.671039170808
 10
1070.950401065938
 20
2380.281344565237
 10
1071.024838559353
 20
2379.888358907257
 10
1071.083501275904
 20
2379.492710890085
 10
1071.12629536776
 20
2379.095033466152
 10
1071.153152373503
 20
2378.6959628345
 10
1071.164029327653
 20
2378.29613742301
 10
1071.158908829403
 20
2377.89619686705
 10
1071.137799070459
 20
2377.496780986191
 10
1071.100733821931
 20
2377.098528760641
 10
1071.047772380311
 20
2376.702077309003
 10
1070.978999472606
 20
2376.308060869028
 10
1070.894525120799
 20
2375.917109782969
 10
1070.794484465833
 20
2375.529849489163
 10
1070.679037551414
 20
2375.146899521471
 10
1070.548369067977
 20
2374.768872518148
 10
1070.402688057223
 20
2374.39637324176
 10
1070.242227577692
 20
2374.029997611685
 10
1070.067244331919
 20
2373.670331750775
 10
1069.878018255773
 20
2373.317951047685
 10
1069.824542388095
 20
2373.224162532488
  0
LWPOLYLINE
  5
97
330
87
100
AcDbEntity
  8
P-SANR-FIXT
100
AcDbPolyline
 90
       41
 70
   128
 43
0.0
 10
801.3566672149197
 20
2528.224162532489
 10
801.5635411653722
 20
2528.566480858655
 10
801.7839387206727
 20
2528.900252615132
 10
802.0175072917487
 20
2529.224943838312
 10
802.2638732187116
 20
2529.5400350915
 10
802.5226423686333
 20
2529.845022295909
 10
802.7934007660761
 20
2530.139417537071
 10
803.0757152553615
 20
2530.422749845401
 10
803.3691341935314
 20
2530.694565949648
 10
803.6731881728771
 20
2530.954431002028
 10
803.9873907718929
 20
2531.201929273893
 10
804.3112393334469
 20
2531.436664820803
 10
804.6442157689249
 20
2531.658262115961
 10
804.9857873870607
 20
2531.866366650963
 10
805.3354077461305
 20
2532.060645502947
 10
805.6925175281412
 20
2532.240787867195
 10
806.0565454336209
 20
2532.406505554351
 10
806.4269090955761
 20
2532.557533451468
 10
806.8030160111545
 20
2532.693629946127
 10
807.184264489523
 20
2532.81457731297
 10
807.5700446144448
 20
2532.92018206201
 10
807.9597392200152
 20
2533.010275248177
 10
808.352724877996
 20
2533.084712741591
 10
808.7483728951669
 20
2533.143375458142
 10
809.1460503191008
 20
2533.186169549998
 10
809.5451209507524
 20
2533.213026555741
 10
809.944946362242
 20
2533.22390350989
 10
810.3448869182027
 20
2533.218783011641
 10
810.7443027990608
 20
2533.197673252697
 10
811.1425550246115
 20
2533.16060800417
 10
811.5390064762495
 20
2533.107646562549
 10
811.9330229162242
 20
2533.038873654844
 10
812.3239740022837
 20
2532.954399303037
 10
812.7112342960892
 20
2532.854358648071
 10
813.0941842637815
 20
2532.738911733652
 10
813.4722112671038
 20
2532.608243250216
 10
813.8447105434925
 20
2532.462562239461
 10
814.2110861735673
 20
2532.30210175993
 10
814.5707520344767
 20
2532.127118514158
 10
814.9231327375671
 20
2531.937892438012
 10
815.0169212527641
 20
2531.884416570334
  0
LWPOLYLINE
  5
98
330
87
100
AcDbEntity
  8
P-SANR-FIXT
100
AcDbPolyline
 90
        3
 70
   128
 43
0.0
 10
815.0169212527641
 20
2531.884416570334
 10
815.1173668057914
 20
2531.826424303254
 10
815.2319768279578
 20
2531.760254176104
  0
LWPOLYLINE
  5
99
330
87
100
AcDbEntity
  8
P-SANR-FIXT
100
AcDbPolyline
 90
        3
 70
   128
 43
0.0
 10
1065.956260932553
 20
2387.004521255939
 10
1066.135015581683
 20
2386.901317211145
 10
1066.164288350251
 20
2386.884416570332
  0
LWPOLYLINE
  5
9A
330
87
100
AcDbEntity
  8
P-SANR-FIXT
100
AcDbPolyline
 90
       80
 70
   128
 43
0.0
 10
1066.164288350251
 20
2386.884416570332
 10
1066.063842797224
 20
2386.942408837411
 10
1065.7626668296
 20
2387.116292863392
 10
1065.26124226468
 20
2387.405790470927
 10
1064.560371274804
 20
2387.810438525599
 10
1063.661175104044
 20
2388.329589676843
 10
1062.565092274454
 20
2388.96241339356
 10
1061.273876284744
 20
2389.707897292801
 10
1059.789592805052
 20
2390.564848759355
 10
1058.114616372315
 20
2391.531896853682
 10
1056.251626591517
 20
2392.607494505123
 10
1054.203603848891
 20
2393.789920986885
 10
1051.973824543936
 20
2395.077284668834
 10
1049.565855847879
 20
2396.467526043703
 10
1046.983549996962
 20
2397.95842102186
 10
1044.231038129684
 20
2399.54758448938
 10
1041.31272367786
 20
2401.232474123721
 10
1038.233275322073
 20
2403.01039446089
 10
1034.997619522779
 20
2404.878501207618
 10
1031.61093263902
 20
2406.833805791617
 10
1028.078632647356
 20
2408.873180142663
 10
1024.406370474255
 20
2410.993361696837
 10
1020.600020955821
 20
2413.190958615936
 10
1016.665673439305
 20
2415.462455213682
 10
1012.609622041451
 20
2417.80421758008
 10
1008.438355579251
 20
2420.212499394892
 10
1004.158547189221
 20
2422.683447920956
 10
999.7770436518091
 20
2425.213110167736
 10
995.3008544380031
 20
2427.797439215271
 10
990.7371404956764
 20
2430.432300688378
 10
986.0932027935957
 20
2433.113479370774
 10
981.3764706414312
 20
2435.836685948522
 10
976.5944898044438
 20
2438.597563872016
 10
971.7549104318706
 20
2441.391696325535
 10
966.8654748183193
 20
2444.214613293205
 10
961.9340050177479
 20
2447.061798710066
 10
956.9683903298463
 20
2449.928697686817
 10
951.9765746788406
 20
2452.81072379667
 10
946.9665439049087
 20
2455.703266412648
 10
941.9463129885391
 20
2458.601698083608
 10
936.9239132282723
 20
2461.501381937176
 10
931.9073793923372
 20
2464.397679097752
 10
926.904736864734
 20
2467.285956107724
 10
921.9239888063336
 20
2470.161592340006
 10
916.9731033515263
 20
2473.019987390067
 10
912.0600008609075
 20
2475.856568435581
 10
907.1925412503896
 20
2478.666797551984
 10
902.3785114170127
 20
2481.44617897217
 10
897.6256127815728
 20
2484.190266278773
 10
892.9414489679887
 20
2486.894669517474
 10
888.333513639127
 20
2489.555062220001
 10
883.8091785085405
 20
2492.167188325549
 10
879.3756815472976
 20
2494.726868989574
 10
875.0401154047743
 20
2497.23000926905
 10
870.8094160619273
 20
2499.672604673503
 10
866.6903517352038
 20
2502.050747571346
 10
862.6895120488399
 20
2504.360633441252
 10
858.8132974928667
 20
2506.59856695858
 10
855.0679091836924
 20
2508.760967907102
 10
851.4593389436379
 20
2510.844376906587
 10
847.9933597152999
 20
2512.845460947073
 10
844.6755163260743
 20
2514.761018720972
 10
841.5111166176155
 20
2516.587985744474
 10
838.5052229544204
 20
2518.323439260075
 10
835.6626441251275
 20
2519.96460291236
 10
832.9879276494789
 20
2521.508851189582
 10
830.4853525032598
 20
2522.953713623919
 10
828.1589222728504
 20
2524.296878743696
 10
826.0123587503406
 20
2525.53619777125
 10
824.0490959794568
 20
2526.66968806051
 10
822.2722747618256
 20
2527.695536268811
 10
820.6847376323603
 20
2528.612101257856
 10
819.2890243118119
 20
2529.417916719186
 10
818.0873676437565
 20
2530.111693519962
 10
817.0816900225231
 20
2530.692321765299
 10
816.2736003177728
 20
2531.158872573865
 10
815.6643913006503
 20
2531.510599563894
 10
815.2550375756247
 20
2531.746940047231
 10
815.0461940213324
 20
2531.86751592952
 10
815.0169212527641
 20
2531.884416570334
  0
LINE
  5
9B
330
87
100
AcDbEntity
  8
P-SANR-FIXT
100
AcDbLine
 10
801.3566672149197
 20
2528.224162532489
 30
0.0
 11
784.6364469751444
 21
2499.263891563457
 31
0.0
  0
LINE
  5
9C
330
87
100
AcDbEntity
  8
P-SANR-FIXT
100
AcDbLine
 10
1053.10432214832
 20
2344.263891563455
 30
0.0
 11
1069.824542388095
 21
2373.224162532488
 31
0.0
  0
LINE
  5
9D
330
87
100
AcDbEntity
  8
P-SANR-FIXT
100
AcDbLine
 10
1053.104322148318
 20
2344.263891563454
 30
0.0
 11
784.636446975143
 21
2499.263891563455
 31
0.0
  0
LINE
  5
9E
330
87
100
AcDbEntity
  8
P-SANR-FIXT
100
AcDbLine
 10
915.919076269064
 20
2481.20285711965
 30
0.0
 11
971.8216928543979
 21
2448.927466385703
 31
0.0
  0
LINE
  5
9F
330
87
100
AcDbEntity
  8
P-SANR-FIXT
100
AcDbLine
 10
373.285599403054
 20
1814.999999999995
 30
0.0
 11
379.221087158889
 21
1804.719433639186
 31
0.0
  0
LINE
  5
A0
330
87
100
AcDbEntity
  8
P-SANR-FIXT
100
AcDbLine
 10
379.221087158889
 20
2195.280566360805
 30
0.0
 11
373.285599403054
 21
2184.999999999996
 31
0.0
  0
LINE
  5
A1
330
87
100
AcDbEntity
  8
P-SANR-FIXT
100
AcDbLine
 10
379.221087158889
 20
1759.999999999993
 30
0.0
 11
414.2210871588889
 21
1759.999999999993
 31
0.0
  0
LINE
  5
A2
330
87
100
AcDbEntity
  8
P-SANR-FIXT
100
AcDbLine
 10
414.2210871588889
 20
2239.999999999998
 30
0.0
 11
379.221087158889
 21
2239.999999999998
 31
0.0
  0
LINE
  5
A3
330
87
100
AcDbEntity
  8
P-SANR-FIXT
100
AcDbLine
 10
420.8008857256322
 20
1822.394850825757
 30
0.0
 11
454.0809011770198
 21
1834.507785845981
 31
0.0
  0
LINE
  5
A4
330
87
100
AcDbEntity
  8
P-SANR-FIXT
100
AcDbLine
 10
433.1013374246504
 20
2173.128150887763
 30
0.0
 11
420.8008857256322
 21
2177.605149174235
 31
0.0
  0
LINE
  5
A5
330
87
100
AcDbEntity
  8
P-SANR-FIXT
100
AcDbLine
 10
454.0809011770197
 20
1834.50778584598
 30
0.0
 11
679.0809011770175
 21
1834.50778584598
 31
0.0
  0
LINE
  5
A6
330
87
100
AcDbEntity
  8
P-SANR-FIXT
100
AcDbLine
 10
522.48901576306
 20
2165.492214154012
 30
0.0
 11
474.221087158889
 21
2165.492214154012
 31
0.0
  0
LWPOLYLINE
  5
A7
330
87
100
AcDbEntity
  8
P-SANR-FIXT
100
AcDbPolyline
 90
       11
 70
   128
 43
0.0
 10
719.4999165723217
 20
1842.007785845982
 10
715.2621825066177
 20
1840.475575611338
 10
710.9665661090481
 20
1839.114055145202
 10
706.6199394494997
 20
1837.925402589878
 10
702.2292562033968
 20
1836.911519535888
 10
697.801540527304
 20
1836.074027979836
 10
693.3438758217743
 20
1835.414267729557
 10
688.8633933994184
 20
1834.933294260707
 10
684.3672610763274
 20
1834.631877028237
 10
679.8626717050938
 20
1834.510498235419
 10
679.0809011770175
 20
1834.50778584598
  0
LINE
  5
A8
330
87
100
AcDbEntity
  8
P-SANR-FIXT
100
AcDbLine
 10
719.4999165723217
 20
1842.007785845982
 30
0.0
 11
1044.499916572322
 21
1842.007785845982
 31
0.0
  0
LINE
  5
A9
330
87
100
AcDbEntity
  8
P-SANR-FIXT
100
AcDbLine
 10
1044.499916572322
 20
2157.99221415401
 30
0.0
 11
995.8057826220214
 21
2157.99221415401
 31
0.0
  0
LINE
  5
AA
330
87
100
AcDbEntity
  8
P-SANR-FIXT
100
AcDbLine
 10
1044.499916572322
 20
1842.007785845981
 30
0.0
 11
1057.490297629089
 21
1834.507785845981
 31
0.0
  0
LINE
  5
AB
330
87
100
AcDbEntity
  8
P-SANR-FIXT
100
AcDbLine
 10
1057.490297629089
 20
2165.49221415401
 30
0.0
 11
1044.499916572322
 21
2157.99221415401
 31
0.0
  0
LINE
  5
AC
330
87
100
AcDbEntity
  8
P-SANR-FIXT
100
AcDbLine
 10
1057.490297629089
 20
1834.507785845982
 30
0.0
 11
1142.490297629089
 21
1834.507785845982
 31
0.0
  0
LINE
  5
AD
330
87
100
AcDbEntity
  8
P-SANR-FIXT
100
AcDbLine
 10
1122.35011164722
 20
2165.492214154009
 30
0.0
 11
1057.490297629089
 21
2165.492214154009
 31
0.0
  0
LINE
  5
AE
330
87
100
AcDbEntity
  8
P-SANR-FIXT
100
AcDbLine
 10
1142.490297629089
 20
1834.507785845981
 30
0.0
 11
1175.770313080477
 21
1822.394850825757
 31
0.0
  0
LINE
  5
AF
330
87
100
AcDbEntity
  8
P-SANR-FIXT
100
AcDbLine
 10
1175.770313080477
 20
2177.605149174235
 30
0.0
 11
1163.469861381459
 21
2173.128150887763
 31
0.0
  0
LWPOLYLINE
  5
B0
330
87
100
AcDbEntity
  8
P-SANR-FIXT
100
AcDbPolyline
 90
       32
 70
   128
 43
0.0
 10
1175.770313080477
 20
2177.605149174235
 10
1176.143354106585
 20
2177.749437291016
 10
1176.510326753941
 20
2177.908527654952
 10
1176.870643944591
 20
2178.082165755398
 10
1177.223729247894
 20
2178.270073808434
 10
1177.569017802685
 20
2178.47195120126
 10
1177.905957220935
 20
2178.687474973113
 10
1178.234008471451
 20
2178.916300331934
 10
1178.552646742213
 20
2179.158061205961
 10
1178.86136227996
 20
2179.41237082937
 10
1179.159661205686
 20
2179.678822361012
 10
1179.447066304746
 20
2179.956989535277
 10
1179.72311779029
 20
2180.246427344027
 10
1179.987374038829
 20
2180.546672748508
 10
1180.239412296738
 20
2180.857245420124
 10
1180.478829356568
 20
2181.177648508853
 10
1180.705242202097
 20
2181.5073694381
 10
1180.918288621071
 20
2181.845880724717
 10
1181.117627784667
 20
2182.192640822856
 10
1181.302940792747
 20
2182.547094990331
 10
1181.473931184029
 20
2182.908676176088
 10
1181.630325410364
 20
2183.276805927363
 10
1181.77187327435
 20
2183.650895315084
 10
1181.898348329602
 20
2184.030345876031
 10
1182.009548243011
 20
2184.414550570254
 10
1182.105295118436
 20
2184.802894752199
 10
1182.185435781302
 20
2185.194757154019
 10
1182.249842023644
 20
2185.589510879462
 10
1182.298410809214
 20
2185.986524406779
 10
1182.331064438315
 20
2186.385162599018
 10
1182.347750672107
 20
2186.784787720108
 10
1182.35011164722
 20
2187.002075382094
  0
LWPOLYLINE
  5
B1
330
87
100
AcDbEntity
  8
P-SANR-FIXT
100
AcDbPolyline
 90
       32
 70
   128
 43
0.0
 10
1182.35011164722
 20
1812.997924617897
 10
1182.34211271383
 20
1813.397817959764
 10
1182.318128710246
 20
1813.797071557589
 10
1182.278198005758
 20
1814.195046690787
 10
1182.222384480976
 20
1814.59110668404
 10
1182.150777425632
 20
1814.984617925848
 10
1182.06349139574
 20
1815.374950882169
 10
1181.960666030327
 20
1815.761481103538
 10
1181.842465828044
 20
1816.143590224059
 10
1181.709079883999
 20
1816.520666950648
 10
1181.560721587248
 20
1816.892108040984
 10
1181.397628279419
 20
1817.257319268557
 10
1181.220060875012
 20
1817.615716373312
 10
1181.028303443996
 20
1817.966725996335
 10
1180.822662757354
 20
1818.309786597106
 10
1180.603467796316
 20
1818.644349351847
 10
1180.371069226063
 20
1818.969879031521
 10
1180.125838834729
 20
1819.285854858082
 10
1179.868168938629
 20
1819.591771337612
 10
1179.598471754629
 20
1819.887139069003
 10
1179.317178740691
 20
1820.171485526893
 10
1179.024739905633
 20
1820.444355817606
 10
1178.721623089205
 20
1820.705313406887
 10
1178.408313213654
 20
1820.953940818261
 10
1178.085311507944
 20
1821.189840300908
 10
1177.753134705901
 20
1821.412634465976
 10
1177.412314219547
 20
1821.621966890331
 10
1177.063395288957
 20
1821.817502686746
 10
1176.706936109987
 20
1821.998929039662
 10
1176.343506941282
 20
1822.165955705615
 10
1175.973689191986
 20
1822.31831547757
 10
1175.770313080477
 20
1822.394850825757
  0
LINE
  5
B2
330
87
100
AcDbEntity
  8
P-SANR-FIXT
100
AcDbLine
 10
1182.35011164722
 20
1759.999999999993
 30
0.0
 11
1217.35011164722
 21
1759.999999999993
 31
0.0
  0
LINE
  5
B3
330
87
100
AcDbEntity
  8
P-SANR-FIXT
100
AcDbLine
 10
1217.35011164722
 20
2239.999999999998
 30
0.0
 11
1182.35011164722
 21
2239.999999999998
 31
0.0
  0
LINE
  5
B4
330
87
100
AcDbEntity
  8
P-SANR-FIXT
100
AcDbLine
 10
1217.350111647221
 20
1804.719433639187
 30
0.0
 11
1223.285599403055
 21
1814.999999999995
 31
0.0
  0
LINE
  5
B5
330
87
100
AcDbEntity
  8
P-SANR-FIXT
100
AcDbLine
 10
1223.285599403055
 20
2184.999999999996
 30
0.0
 11
1217.350111647221
 21
2195.280566360804
 31
0.0
  0
LWPOLYLINE
  5
B6
330
87
100
AcDbEntity
  8
P-SANR-FIXT
100
AcDbPolyline
 90
       32
 70
   128
 43
0.0
 10
414.2210871588892
 20
2187.002075382094
 10
414.2290860922795
 20
2186.602182040227
 10
414.2530700958629
 20
2186.202928442403
 10
414.2930008003504
 20
2185.804953309205
 10
414.348814325133
 20
2185.408893315951
 10
414.4204213804767
 20
2185.015382074144
 10
414.507707410369
 20
2184.625049117823
 10
414.6105327757815
 20
2184.238518896453
 10
414.7287329780649
 20
2183.856409775933
 10
414.8621189221099
 20
2183.479333049343
 10
415.0104772188603
 20
2183.107891959007
 10
415.1735705266896
 20
2182.742680731434
 10
415.3511379310964
 20
2182.38428362668
 10
415.5428953621128
 20
2182.033274003657
 10
415.7485360487551
 20
2181.690213402885
 10
415.9677310097924
 20
2181.355650648144
 10
416.2001295800464
 20
2181.03012096847
 10
416.44535997138
 20
2180.714145141909
 10
416.7030298674803
 20
2180.408228662379
 10
416.9727270514802
 20
2180.112860930988
 10
417.2540200654176
 20
2179.828514473099
 10
417.5464589004762
 20
2179.555644182386
 10
417.8495757169033
 20
2179.294686593104
 10
418.1628855924546
 20
2179.046059181731
 10
418.4858872981648
 20
2178.810159699084
 10
418.8180641002078
 20
2178.587365534015
 10
419.1588845865614
 20
2178.378033109661
 10
419.5078035171517
 20
2178.182497313245
 10
419.8642626961221
 20
2178.001070960329
 10
420.2276918648265
 20
2177.834044294376
 10
420.5975096141226
 20
2177.681684522422
 10
420.8008857256323
 20
2177.605149174235
  0
LWPOLYLINE
  5
B7
330
87
100
AcDbEntity
  8
P-SANR-FIXT
100
AcDbPolyline
 90
       32
 70
   128
 43
0.0
 10
420.8008857256323
 20
1822.394850825757
 10
420.4278446995237
 20
1822.250562708975
 10
420.0608720521681
 20
1822.091472345039
 10
419.7005548615181
 20
1821.917834244593
 10
419.3474695582152
 20
1821.729926191557
 10
419.0021810034236
 20
1821.528048798731
 10
418.6652415851735
 20
1821.312525026878
 10
418.3371903346574
 20
1821.083699668058
 10
418.0185520638959
 20
1820.84193879403
 10
417.7098365261493
 20
1820.587629170622
 10
417.4115376004224
 20
1820.321177638979
 10
417.1241325013626
 20
1820.043010464713
 10
416.8480810158187
 20
1819.753572655965
 10
416.5838247672796
 20
1819.453327251483
 10
416.3317865093712
 20
1819.142754579867
 10
416.0923694495411
 20
1818.822351491138
 10
415.865956604012
 20
1818.492630561891
 10
415.6529101850379
 20
1818.154119275274
 10
415.4535710214416
 20
1817.807359177135
 10
415.2682580133616
 20
1817.45290500966
 10
415.0972676220794
 20
1817.091323823903
 10
414.9408733957451
 20
1816.723194072628
 10
414.7993255317584
 20
1816.349104684908
 10
414.6728504765066
 20
1815.96965412396
 10
414.5616505630981
 20
1815.585449429738
 10
414.4659036876728
 20
1815.197105247792
 10
414.3857630248066
 20
1814.805242845973
 10
414.3213567824646
 20
1814.410489120529
 10
414.2727879968949
 20
1814.013475593212
 10
414.2401343677937
 20
1813.614837400974
 10
414.223448134002
 20
1813.215212279883
 10
414.2210871588892
 20
1812.997924617897
  0
LINE
  5
B8
330
87
100
AcDbEntity
  8
P-SANR-FIXT
100
AcDbLine
 10
474.221087158889
 20
2165.492214154012
 30
0.0
 11
474.221087158889
 21
2173.128150887763
 31
0.0
  0
LINE
  5
B9
330
87
100
AcDbEntity
  8
P-SANR-FIXT
100
AcDbLine
 10
1122.35011164722
 20
2173.128150887763
 30
0.0
 11
1122.35011164722
 21
2165.492214154009
 31
0.0
  0
LINE
  5
BA
330
87
100
AcDbEntity
  8
P-SANR-FIXT
100
AcDbLine
 10
887.4337307855435
 20
2439.91385208356
 30
0.0
 11
877.4337307855436
 21
2422.593344007871
 31
0.0
  0
LINE
  5
BB
330
87
100
AcDbEntity
  8
P-SANR-FIXT
100
AcDbLine
 10
935.8241609770804
 20
2388.881613418689
 30
0.0
 11
945.8241609770803
 21
2406.202121494378
 31
0.0
  0
LINE
  5
BC
330
87
100
AcDbEntity
  8
P-SANR-FIXT
100
AcDbLine
 10
877.4337307855441
 20
2422.593344007871
 30
0.0
 11
863.3383414737552
 21
2417.463041857986
 31
0.0
  0
LINE
  5
BD
330
87
100
AcDbEntity
  8
P-SANR-FIXT
100
AcDbLine
 10
938.4288836420841
 20
2374.109497123506
 30
0.0
 11
935.8241609770802
 21
2388.88161341869
 31
0.0
  0
LINE
  5
BE
330
87
100
AcDbEntity
  8
P-SANR-FIXT
100
AcDbLine
 10
863.3383414737552
 20
2417.463041857986
 30
0.0
 11
853.3383414737555
 21
2400.142533782297
 31
0.0
  0
LINE
  5
BF
330
87
100
AcDbEntity
  8
P-SANR-FIXT
100
AcDbLine
 10
928.4288836420838
 20
2356.788989047817
 30
0.0
 11
938.4288836420839
 21
2374.109497123506
 31
0.0
  0
LINE
  5
C0
330
87
100
AcDbEntity
  8
P-SANR-FIXT
100
AcDbLine
 10
827.3575793602221
 20
2415.142533782297
 30
0.0
 11
817.3575793602221
 21
2397.822025706609
 31
0.0
  0
LINE
  5
C1
330
87
100
AcDbEntity
  8
P-SANR-FIXT
100
AcDbLine
 10
944.4096457556176
 20
2324.468480972129
 30
0.0
 11
954.4096457556175
 21
2341.788989047817
 31
0.0
  0
LWPOLYLINE
  5
C2
330
87
100
AcDbEntity
  8
P-SANR-FIXT
100
AcDbPolyline
 90
       41
 70
   128
 43
0.0
 10
996.3711699826836
 20
2294.468480972128
 10
997.3981249611796
 20
2293.847859120771
 10
998.3994402306116
 20
2293.18666645487
 10
999.3735139001511
 20
2292.485960741642
 10
1000.318787659717
 20
2291.746862960753
 10
1001.233749272944
 20
2290.970555510988
 10
1002.116934996429
 20
2290.15828031866
 10
1002.966931921421
 20
2289.311336850803
 10
1003.78238023416
 20
2288.431080036294
 10
1004.5619753913
 20
2287.518918098257
 10
1005.304470206894
 20
2286.576310301208
 10
1006.008676847628
 20
2285.604764616547
 10
1006.673468733099
 20
2284.605835310113
 10
1007.297782338106
 20
2283.581120455705
 10
1007.880618894059
 20
2282.532259378497
 10
1008.421045986802
 20
2281.460930032465
 10
1008.918199048271
 20
2280.368846316025
 10
1009.37128273962
 20
2279.257755330159
 10
1009.779572223598
 20
2278.129434583424
 10
1010.142414324126
 20
2276.985689148319
 10
1010.459228571246
 20
2275.828348773554
 10
1010.729508129745
 20
2274.659264956842
 10
1010.952820609988
 20
2273.480307982899
 10
1011.128808759642
 20
2272.293363931387
 10
1011.257191035211
 20
2271.100331659586
 10
1011.33776205244
 20
2269.90311976463
 10
1011.37039291489
 20
2268.703643530162
 10
1011.355031420141
 20
2267.50382186228
 10
1011.291702143308
 20
2266.305574219705
 10
1011.180506397725
 20
2265.110817543053
 10
1011.021622072863
 20
2263.921463188139
 10
1010.81530334975
 20
2262.739413868215
 10
1010.561880294329
 20
2261.566560610036
 10
1010.261758329429
 20
2260.40477972862
 10
1009.915417586171
 20
2259.255929825544
 10
1009.523412135863
 20
2258.121848815576
 10
1009.0863691036
 20
2257.00435098641
 10
1008.604987665005
 20
2255.905224096185
 10
1008.080037927689
 20
2254.826226513458
 10
1007.512359699249
 20
2253.769084404186
 10
1007.351932096216
 20
2253.487718858595
  0
LWPOLYLINE
  5
C3
330
87
100
AcDbEntity
  8
P-SANR-FIXT
100
AcDbPolyline
 90
       41
 70
   128
 43
0.0
 10
724.4152930196224
 20
2416.841263593075
 10
725.0359148709793
 20
2417.868218571572
 10
725.697107536881
 20
2418.869533841004
 10
726.3978132501088
 20
2419.843607510542
 10
727.1369110309976
 20
2420.788881270109
 10
727.9132184807638
 20
2421.703842883335
 10
728.725493673091
 20
2422.587028606821
 10
729.572437140948
 20
2423.437025531812
 10
730.4526939554574
 20
2424.252473844552
 10
731.3648558934944
 20
2425.032069001692
 10
732.3074636905421
 20
2425.774563817286
 10
733.2790093752044
 20
2426.47877045802
 10
734.2779386816378
 20
2427.143562343492
 10
735.3026535360453
 20
2427.767875948497
 10
736.3515146132543
 20
2428.350712504451
 10
737.4228439592862
 20
2428.891139597194
 10
738.5149276757257
 20
2429.388292658662
 10
739.6260186615918
 20
2429.841376350012
 10
740.7543394083269
 20
2430.24966583399
 10
741.8980848434322
 20
2430.612507934517
 10
743.0554252181974
 20
2430.929322181637
 10
744.2245090349089
 20
2431.199601740137
 10
745.4034660088515
 20
2431.422914220379
 10
746.590410060364
 20
2431.598902370034
 10
747.7834423321654
 20
2431.727284645603
 10
748.9806542271207
 20
2431.807855662832
 10
750.1801304615894
 20
2431.840486525282
 10
751.3799521294713
 20
2431.825125030533
 10
752.578199772046
 20
2431.7617957537
 10
753.7729564486976
 20
2431.650600008116
 10
754.9623108036116
 20
2431.491715683254
 10
756.1443601235356
 20
2431.285396960141
 10
757.3172133817146
 20
2431.031973904721
 10
758.4789942631308
 20
2430.731851939821
 10
759.6278441662075
 20
2430.385511196563
 10
760.7619251761747
 20
2429.993505746255
 10
761.8794230053407
 20
2429.556462713992
 10
762.9785498955656
 20
2429.075081275397
 10
764.0575474782933
 20
2428.550131538081
 10
765.1146895875646
 20
2427.982453309641
 10
765.3960551331558
 20
2427.822025706608
  0
LWPOLYLINE
  5
C4
330
87
100
AcDbEntity
  8
P-SANR-FIXT
100
AcDbPolyline
 90
        3
 70
   128
 43
0.0
 10
765.3960551331558
 20
2427.822025706608
 10
765.4884328610797
 20
2427.768691400524
 10
765.7031047856626
 20
2427.644750507079
  0
LWPOLYLINE
  5
C5
330
87
100
AcDbEntity
  8
P-SANR-FIXT
100
AcDbPolyline
 90
        4
 70
   128
 43
0.0
 10
996.0786459810631
 20
2294.637369783209
 10
996.1521792536315
 20
2294.594915328497
 10
996.344248414044
 20
2294.48402414703
 10
996.3711699826836
 20
2294.468480972128
  0
LWPOLYLINE
  5
C6
330
87
100
AcDbEntity
  8
P-SANR-FIXT
100
AcDbPolyline
 90
       80
 70
   128
 43
0.0
 10
996.3711699826836
 20
2294.468480972128
 10
996.2787922547599
 20
2294.521815278212
 10
996.0018068556463
 20
2294.681732872952
 10
995.5406569028946
 20
2294.94797792231
 10
994.8960801380563
 20
2295.320124491003
 10
994.0691077464524
 20
2295.797577223908
 10
993.061062707498
 20
2296.379572298503
 10
991.8735576782172
 20
2297.065178646823
 10
990.5084924133358
 20
2297.853299444963
 10
988.9680507260798
 20
2298.742673867772
 10
987.2546969945387
 20
2299.731879105894
 10
985.3711722191865
 20
2300.819332641969
 10
983.3204896378671
 20
2302.003294782316
 10
981.1059299052544
 20
2303.281871440077
 10
978.731035844507
 20
2304.653017165346
 10
976.1996067795049
 20
2306.11453841746
 10
973.5156924567425
 20
2307.664097074189
 10
970.6835865665979
 20
2309.299214172237
 10
967.707819874346
 20
2311.017273873054
 10
964.5931529718977
 20
2312.815527647618
 10
961.3445686618698
 20
2314.691098673498
 10
957.9672639861641
 20
2316.640986437153
 10
954.4666419118083
 20
2318.662071534113
 10
950.8483026873621
 20
2320.751120659366
 10
947.1180348837133
 20
2322.904791779953
 10
943.2818061336
 20
2325.119639481503
 10
939.34575358467
 20
2327.392120480173
 10
935.3161740813558
 20
2329.718599291132
 10
931.1995140912642
 20
2332.095354044573
 10
927.0023593922061
 20
2334.518582439906
 10
922.7314245363542
 20
2336.984407828623
 10
918.3935421083939
 20
2339.488885416119
 10
913.9956517948446
 20
2342.028008572512
 10
909.5447892820409
 20
2344.597715242406
 10
905.0480750005371
 20
2347.193894443301
 10
900.5127027339355
 20
2349.812392842299
 10
895.9459281103681
 20
2352.449021400544
 10
891.3550569950395
 20
2355.099562074794
 10
886.7474338024003
 20
2357.759774565388
 10
882.130429746652
 20
2360.425403099824
 10
877.511431049375
 20
2363.092183241083
 10
872.8978271231513
 20
2365.755848709823
 10
868.2969987500801
 20
2368.412138209511
 10
863.7163062741004
 20
2371.056802243593
 10
859.163077826011
 20
2373.685609913779
 10
854.6445976000262
 20
2376.294355688579
 10
850.1680942006158
 20
2378.878866131257
 10
845.7407290782828
 20
2381.435006576437
 10
841.3695850727684
 20
2383.958687744687
 10
837.0616550820207
 20
2386.445872284496
 10
832.8238308750487
 20
2388.892581231169
 10
828.6628920665629
 20
2391.29490037233
 10
824.5854952710367
 20
2393.64898650982
 10
820.5981634535451
 20
2395.951073607997
 10
816.7072754944106
 20
2398.19747881859
 10
812.9190559843559
 20
2400.38460837247
 10
809.2395652664869
 20
2402.508963328912
 10
805.6746897410361
 20
2404.567145173158
 10
802.2301324483775
 20
2406.555861253314
 10
798.9114039453801
 20
2408.471930047887
 10
795.7238134896908
 20
2410.312286255545
 10
792.6724605460558
 20
2412.073985698945
 10
789.7622266282643
 20
2413.754210034787
 10
786.9977674897682
 20
2415.350271262562
 10
784.3835056754686
 20
2416.85961602478
 10
781.9236234465895
 20
2418.279829691797
 10
779.6220560899501
 20
2419.608640224711
 10
777.4824856223463
 20
2420.843921810133
 10
775.5083349001091
 20
2421.983698261037
 10
773.7027621432635
 20
2423.026146178243
 10
772.0686558830529
 20
2423.96959786746
 10
770.6086303409026
 20
2424.812544007245
 10
769.325021246225
 20
2425.553636063591
 10
768.2198820997489
 20
2426.191688447301
 10
767.2949808883585
 20
2426.725680410671
 10
766.5517972566905
 20
2427.154757680472
 10
765.9915201400179
 20
2427.478233824604
 10
765.6150458622081
 20
2427.69559135024
 10
765.4229767017954
 20
2427.806482531707
 10
765.3960551331558
 20
2427.822025706608
  0
LINE
  5
C7
330
87
100
AcDbEntity
  8
P-SANR-FIXT
100
AcDbLine
 10
724.4152930196223
 20
2416.841263593075
 30
0.0
 11
706.0856638881769
 21
2385.093414653517
 31
0.0
  0
LINE
  5
C8
330
87
100
AcDbEntity
  8
P-SANR-FIXT
100
AcDbLine
 10
989.0223029647714
 20
2221.739869919037
 30
0.0
 11
1007.351932096216
 21
2253.487718858595
 31
0.0
  0
LWPOLYLINE
  5
C9
330
87
100
AcDbEntity
  8
P-SANR-FIXT
100
AcDbPolyline
 90
       40
 70
   128
 43
0.0
 10
989.0223029647712
 20
2221.739869919037
 10
988.8292835733572
 20
2221.389552659482
 10
988.6504275308324
 20
2221.031796899421
 10
988.4860209687108
 20
2220.667174971754
 10
988.3363269024204
 20
2220.296270193782
 10
988.2015848105345
 20
2219.919675934029
 10
988.0820102516562
 20
2219.537994662976
 10
987.9777945195721
 20
2219.151836989233
 10
987.8891043372217
 20
2218.761820682703
 10
987.8160815899777
 20
2218.368569686277
 10
987.7588430986579
 20
2217.972713117662
 10
987.7174804326385
 20
2217.574884262922
 10
987.6920597633612
 20
2217.175719563358
 10
987.6826217584747
 20
2216.775857597339
 10
987.6891815167731
 20
2216.375938058713
 10
987.7117285440421
 20
2215.976600733428
 10
987.7502267698483
 20
2215.578484476018
 10
987.804614605243
 20
2215.182226187567
 10
987.8748050412914
 20
2214.788459796808
 10
987.9606857882688
 20
2214.397815245965
 10
988.0621194553009
 20
2214.010917482988
 10
988.1789437701581
 20
2213.628385461763
 10
988.3109718388579
 20
2213.250831151921
 10
988.4579924446546
 20
2212.878858559819
 10
988.6197703859423
 20
2212.513062762253
 10
988.796046852525
 20
2212.154028954467
 10
988.9865398396601
 20
2211.802331513963
 10
989.1909445992046
 20
2211.458533081622
 10
989.4089341271472
 20
2211.123183661596
 10
989.6401596867452
 20
2210.796819741419
 10
989.8842513664288
 20
2210.479963433744
 10
990.1408186715803
 20
2210.173121641069
 10
990.4094511492431
 20
2209.876785244808
 10
990.689719044758
 20
2209.591428319979
 10
990.9811739892798
 20
2209.317507376789
 10
991.2833497170705
 20
2209.055460630313
 10
991.595762811427
 20
2208.805707299446
 10
991.9179134780423
 20
2208.56864693624
 10
992.2492863445722
 20
2208.344658786705
 10
992.5893512851189
 20
2208.134101184098
  0
LWPOLYLINE
  5
CA
330
87
100
AcDbEntity
  8
P-SANR-FIXT
100
AcDbPolyline
 90
       41
 70
   128
 43
0.0
 10
692.4254098503435
 20
2381.433160615667
 10
692.7757271098885
 20
2381.240141224258
 10
693.1334828699492
 20
2381.061285181734
 10
693.4981047976166
 20
2380.896878619612
 10
693.8690095755877
 20
2380.747184553322
 10
694.2456038353403
 20
2380.612442461436
 10
694.6272851063944
 20
2380.492867902558
 10
695.0134427801374
 20
2380.388652170473
 10
695.403459086667
 20
2380.299961988123
 10
695.7967100830922
 20
2380.226939240879
 10
696.1925666517073
 20
2380.16970074956
 10
696.5903955064479
 20
2380.12833808354
 10
696.9895602060119
 20
2380.102917414263
 10
697.3894221720303
 20
2380.093479409376
 10
697.7893417106571
 20
2380.100039167674
 10
698.1886790359421
 20
2380.122586194943
 10
698.5867952933522
 20
2380.16108442075
 10
698.9830535818023
 20
2380.215472256144
 10
699.376819972562
 20
2380.285662692193
 10
699.7674645234043
 20
2380.37154343917
 10
700.1543622863817
 20
2380.472977106202
 10
700.5368943076068
 20
2380.589801421059
 10
700.9144486174482
 20
2380.721829489759
 10
701.2864212095507
 20
2380.868850095556
 10
701.652217007117
 20
2381.030628036844
 10
702.0112508149034
 20
2381.206904503426
 10
702.362948255407
 20
2381.397397490562
 10
702.7067466877477
 20
2381.601802250106
 10
703.0420961077736
 20
2381.819791778049
 10
703.3684600279501
 20
2382.051017337647
 10
703.6853163356258
 20
2382.29510901733
 10
703.9921581283002
 20
2382.551676322481
 10
704.2884945245615
 20
2382.820308800145
 10
704.5738514493907
 20
2383.10057669566
 10
704.8477723925811
 20
2383.392031640181
 10
705.1098191390567
 20
2383.694207367972
 10
705.3595724699235
 20
2384.006620462329
 10
705.5966328331301
 20
2384.328771128944
 10
705.8206209826655
 20
2384.660143995474
 10
706.0311785852721
 20
2385.000208936021
 10
706.0856638881769
 20
2385.093414653517
  0
LINE
  5
CB
330
87
100
AcDbEntity
  8
P-SANR-FIXT
100
AcDbLine
 10
669.6591007190342
 20
2394.577295321082
 30
0.0
 11
629.9151559015438
 21
2330.97368810935
 31
0.0
  0
LINE
  5
CC
330
87
100
AcDbEntity
  8
P-SANR-FIXT
100
AcDbLine
 10
995.805782622042
 20
2157.992214153997
 30
0.0
 11
1015.448866133914
 21
2194.935481175784
 31
0.0
  0
LINE
  5
CD
330
87
100
AcDbEntity
  8
P-SANR-FIXT
100
AcDbLine
 10
629.9151559015438
 20
2330.973688109351
 30
0.0
 11
636.4028512991837
 21
2326.919726090842
 31
0.0
  0
LWPOLYLINE
  5
CE
330
87
100
AcDbEntity
  8
P-SANR-FIXT
100
AcDbPolyline
 90
       41
 70
   128
 43
0.0
 10
639.5841396184161
 20
2313.140052486946
 10
639.7892673236769
 20
2313.483420063078
 10
639.9804999079016
 20
2313.834715902129
 10
640.1575314397498
 20
2314.193378005697
 10
640.3200787065353
 20
2314.558832590927
 10
640.4678816673061
 20
2314.930495008439
 10
640.6007038688545
 20
2315.307770677653
 10
640.7183328239918
 20
2315.690056037976
 10
640.8205803514832
 20
2316.076739514384
 10
640.9072828770955
 20
2316.4672024958
 10
640.9783016952838
 20
2316.86082032475
 10
641.0335231910888
 20
2317.256963296676
 10
641.0728590218973
 20
2317.654997667326
 10
641.0962462587709
 20
2318.054286666618
 10
641.1036474871196
 20
2318.45419151733
 10
641.0950508665573
 20
2318.854072457011
 10
641.0704701498428
 20
2319.253289761458
 10
641.0299446608791
 20
2319.651204768148
 10
640.973539231804
 20
2320.047180897953
 10
640.9013440992708
 20
2320.440584673535
 10
640.8134747600914
 20
2320.830786732777
 10
640.7100717864636
 20
2321.217162835621
 10
640.5913006010873
 20
2321.599094862727
 10
640.4573512125226
 20
2321.975971804324
 10
640.3084379112169
 20
2322.347190737703
 10
640.1447989266856
 20
2322.712157791758
 10
639.9666960463965
 20
2323.07028909706
 10
639.7744141969642
 20
2323.421011719917
 10
639.5682609883307
 20
2323.763764578949
 10
639.3485662216521
 20
2324.097999342697
 10
639.11568136169
 20
2324.423181306841
 10
638.8699789745401
 20
2324.738790249607
 10
638.6118521316087
 20
2325.044321264011
 10
638.3417137807801
 20
2325.339285565607
 10
638.0599960857892
 20
2325.623211274435
 10
637.7671497348517
 20
2325.895644169928
 10
637.4636432196582
 20
2326.15614841757
 10
637.1499620858886
 20
2326.404307266136
 10
636.8266081564418
 20
2326.639723714405
 10
636.4940987286269
 20
2326.86202114628
 10
636.4028512991839
 20
2326.919726090842
  0
LINE
  5
CF
330
87
100
AcDbEntity
  8
P-SANR-FIXT
100
AcDbLine
 10
639.584139618416
 20
2313.140052486946
 30
0.0
 11
602.006543062379
 21
2253.003327199945
 31
0.0
  0
LINE
  5
D0
330
87
100
AcDbEntity
  8
P-SANR-FIXT
100
AcDbLine
 10
602.0065430623788
 20
2253.003327199945
 30
0.0
 11
594.1659856210464
 21
2253.003327199945
 31
0.0
  0
LWPOLYLINE
  5
D1
330
87
100
AcDbEntity
  8
P-SANR-FIXT
100
AcDbPolyline
 90
       25
 70
   128
 43
0.0
 10
577.7829447352667
 20
2244.474855926966
 10
578.2547882164403
 20
2245.120826824523
 10
578.7520862192541
 20
2245.747412307611
 10
579.2740431729871
 20
2246.353609973119
 10
579.8198240578589
 20
2246.938450034098
 10
580.3885557408806
 20
2247.50099687121
 10
580.9793283726823
 20
2248.04035052952
 10
581.5911968430778
 20
2248.555648158229
 10
582.2231822930395
 20
2249.046065391057
 10
582.8742736806638
 20
2249.510817665047
 10
583.5434293986225
 20
2249.949161475703
 10
584.229578940513
 20
2250.360395566437
 10
584.9316246134385
 20
2250.743862050427
 10
585.648443294084
 20
2251.098947463103
 10
586.3788882254742
 20
2251.425083743551
 10
587.1217908515383
 20
2251.721749143293
 10
587.8759626865521
 20
2251.988469060978
 10
588.6401972164613
 20
2252.224816801632
 10
589.4132718290458
 20
2252.430414259289
 10
590.1939497698392
 20
2252.604932521876
 10
590.980982120672
 20
2252.748092397399
 10
591.7731097976743
 20
2252.859664860599
 10
592.5690655655413
 20
2252.939471419336
 10
593.3675760648386
 20
2252.987384400137
 10
594.1659856210466
 20
2253.003327199945
  0
LINE
  5
D2
330
87
100
AcDbEntity
  8
P-SANR-FIXT
100
AcDbLine
 10
577.7829447352667
 20
2244.474855926966
 30
0.0
 11
522.8548286473887
 21
2166.029376421964
 31
0.0
  0
LINE
  5
D3
330
87
100
AcDbEntity
  8
P-SANR-FIXT
100
AcDbLine
 10
522.4890157630599
 20
2165.492214154012
 30
0.0
 11
522.8548286473889
 21
2166.029376421964
 31
0.0
  0
LWPOLYLINE
  5
D4
330
87
100
AcDbEntity
  8
P-SANR-FIXT
100
AcDbPolyline
 90
       36
 70
   128
 43
0.0
 10
574.6169919953689
 20
2104.76099444285
 10
579.1486882541817
 20
2102.144618387939
 10
583.8630011677522
 20
2099.422808558245
 10
588.7523888410853
 20
2096.599919268874
 10
593.8090292969169
 20
2093.680466540504
 10
599.0248329892108
 20
2090.669120874718
 10
604.3914557447046
 20
2087.570699782195
 10
609.9003121118077
 20
2084.390160075721
 10
615.542589095493
 20
2081.132589940348
 10
621.3092602562077
 20
2077.803200793381
 10
627.1911001502529
 20
2074.407318947224
 10
633.1786990885233
 20
2070.950377088414
 10
639.2624781900042
 20
2067.437905586484
 10
645.4327047059368
 20
2063.875523646549
 10
651.6795075901405
 20
2060.26893031978
 10
657.9928932905807
 20
2056.623895386133
 10
664.3627617369201
 20
2052.946250123936
 10
670.7789224984779
 20
2049.241877981087
 10
677.2311110867433
 20
2045.516705162789
 10
683.7090053763688
 20
2041.776691150892
 10
690.2022421183677
 20
2038.027819169987
 10
696.7004335191031
 20
2034.276086615527
 10
703.1931838585405
 20
2030.527495459271
 10
709.6701061211832
 20
2026.788042647414
 10
716.1208386130806
 20
2023.063710506747
 10
722.5350615383286
 20
2019.360457174213
 10
728.902513508541
 20
2015.684207065159
 10
735.2130079588834
 20
2012.040841395534
 10
741.4564494444018
 20
2008.4361887732
 10
747.6228497905828
 20
2004.876015873402
 10
753.702344072301
 20
2001.366018213315
 10
759.6852063955951
 20
1997.911811040436
 10
765.5618654570239
 20
1994.518920349385
 10
771.3229198557096
 20
1991.192774041487
 10
776.9591531335736
 20
1987.938693241297
 10
781.8432671283265
 20
1985.118848711674
  0
LINE
  5
D5
330
87
100
AcDbEntity
  8
P-SANR-FIXT
100
AcDbLine
 10
1223.285599403053
 20
2184.999999999995
 30
0.0
 11
1223.285599403053
 21
1814.999999999995
 31
0.0
  0
LINE
  5
D6
330
87
100
AcDbEntity
  8
P-SANR-FIXT
100
AcDbLine
 10
373.2855994030531
 20
1814.999999999995
 30
0.0
 11
373.2855994030531
 21
2184.999999999995
 31
0.0
  0
LINE
  5
D7
330
87
100
AcDbEntity
  8
P-SANR-FIXT
100
AcDbLine
 10
379.2210871588881
 20
1759.999999999992
 30
0.0
 11
379.2210871588881
 21
2239.999999999997
 31
0.0
  0
LINE
  5
D8
330
87
100
AcDbEntity
  8
P-SANR-FIXT
100
AcDbLine
 10
414.221087158888
 20
1759.999999999992
 30
0.0
 11
414.221087158888
 21
2239.999999999997
 31
0.0
  0
SPLINE
  5
D9
330
87
100
AcDbEntity
  8
P-SANR-FIXT
100
AcDbSpline
210
0.0
220
0.0
230
1.0
 70
     8
 71
     3
 72
     9
 73
     5
 74
     0
 42
0.000000001
 43
0.0000000001
 40
-1.0
 40
-1.0
 40
-1.0
 40
-1.0
 40
-0.5
 40
0.0
 40
0.0
 40
0.0
 40
0.0
 10
454.0809011770187
 20
2163.048731605214
 30
0.0
 10
452.4772511375563
 20
2163.548989505692
 30
0.0
 10
449.1975630625146
 20
2164.60748583096
 30
0.0
 10
445.8719604286748
 20
2165.78194320485
 30
0.0
 10
444.2210871588876
 20
2166.398162153951
 30
0.0
  0
LWPOLYLINE
  5
DA
330
87
100
AcDbEntity
  8
P-SANR-FIXT
100
AcDbPolyline
 90
        3
 70
   128
 43
0.0
 10
444.2210871588875
 20
2166.398162153951
 10
435.1172858023699
 20
2169.764045367978
 10
426.0128273765444
 20
2173.128150887762
  0
SPLINE
  5
DB
330
87
100
AcDbEntity
  8
P-SANR-FIXT
100
AcDbSpline
210
0.0
220
0.0
230
1.0
 70
     8
 71
     3
 72
    18
 73
    14
 74
     0
 42
0.000000001
 43
0.0000000001
 40
0.0
 40
0.0
 40
0.0
 40
0.0
 40
0.1111111111111111
 40
0.2222222222222222
 40
0.3333333333333333
 40
0.4444444444444445
 40
0.5138888888888889
 40
0.5833333333333333
 40
0.6527777777777777
 40
0.7222222222222223
 40
0.7916666666666668
 40
0.861111111111111
 40
1.0
 40
1.0
 40
1.0
 40
1.0
 10
574.6169919953668
 20
2104.760994442851
 30
0.0
 10
569.8009430686206
 20
2107.570489105119
 30
0.0
 10
560.8690808230431
 20
2113.545593091287
 30
0.0
 10
549.4926466332978
 20
2123.39175081029
 30
0.0
 10
540.3756145575451
 20
2133.243236210168
 30
0.0
 10
534.3139621936543
 20
2141.328797376292
 30
0.0
 10
530.3720322264013
 20
2147.56082561031
 30
0.0
 10
527.7666323802653
 20
2152.201251518642
 30
0.0
 10
525.8459703400965
 20
2156.23079001819
 30
0.0
 10
524.4309935338712
 20
2159.573196948011
 30
0.0
 10
523.4681055498676
 20
2162.205473683386
 30
0.0
 10
522.6958489963281
 20
2164.728992116113
 30
0.0
 10
522.4646574101959
 20
2165.49221415401
 30
0.0
 10
522.4890157630591
 20
2165.49221415401
 30
0.0
  0
SPLINE
  5
DC
330
87
100
AcDbEntity
  8
P-SANR-FIXT
100
AcDbSpline
210
0.0
220
0.0
230
1.0
 70
     8
 71
     3
 72
    12
 73
     8
 74
     0
 42
0.000000001
 43
0.0000000001
 40
0.0
 40
0.0
 40
0.0
 40
0.0
 40
0.2
 40
0.4
 40
0.7
 40
0.85
 40
1.0
 40
1.0
 40
1.0
 40
1.0
 10
474.221087158888
 20
2165.49221415401
 30
0.0
 10
474.2108213443797
 20
2165.49221415401
 30
0.0
 10
473.6073180778915
 20
2165.378505562918
 30
0.0
 10
470.4365413923978
 20
2164.830474829048
 30
0.0
 10
465.296281495396
 20
2164.06621212952
 30
0.0
 10
459.2336678372896
 20
2163.417619854353
 30
0.0
 10
455.8649652973231
 20
2163.158200883056
 30
0.0
 10
454.0809011770189
 20
2163.048731605214
 30
0.0
  0
LINE
  5
DD
330
87
100
AcDbEntity
  8
P-SANR-FIXT
100
AcDbLine
 10
454.0809011770187
 20
1834.507785845979
 30
0.0
 11
454.0809011770189
 21
2163.048731605214
 31
0.0
  0
SPLINE
  5
DE
330
87
100
AcDbEntity
  8
P-SANR-FIXT
100
AcDbSpline
210
0.0
220
0.0
230
1.0
 70
     8
 71
     3
 72
    16
 73
    12
 74
     0
 42
0.000000001
 43
0.0000000001
 40
0.0
 40
0.0
 40
0.0
 40
0.0
 40
0.2
 40
0.4
 40
0.55
 40
0.5875
 40
0.625
 40
0.7
 40
0.775
 40
0.85
 40
1.0
 40
1.0
 40
1.0
 40
1.0
 10
995.8057826220198
 20
2157.992214154009
 30
0.0
 10
995.7783622006349
 20
2157.992214154009
 30
0.0
 10
994.8501560267574
 20
2157.312497472003
 30
0.0
 10
991.0192006429054
 20
2154.614440297654
 30
0.0
 10
987.0280312767679
 20
2151.787519466946
 30
0.0
 10
984.3854302177676
 20
2149.897113613326
 30
0.0
 10
982.5583382701372
 20
2148.574828743153
 30
0.0
 10
980.08346577951
 20
2146.808095786521
 30
0.0
 10
976.8973828608711
 20
2144.520250553705
 30
0.0
 10
972.4522854212972
 20
2141.263435528209
 30
0.0
 10
968.8291093573603
 20
2138.611132306283
 30
0.0
 10
966.2895414217661
 20
2136.767846080753
 30
0.0
  0
SPLINE
  5
DF
330
87
100
AcDbEntity
  8
P-SANR-FIXT
100
AcDbSpline
210
0.0
220
0.0
230
1.0
 70
     8
 71
     3
 72
     9
 73
     5
 74
     0
 42
0.000000001
 43
0.0000000001
 40
0.0
 40
0.0
 40
0.0
 40
0.0
 40
0.5
 40
1.0
 40
1.0
 40
1.0
 40
1.0
 10
966.2895414217661
 20
2136.767846080753
 30
0.0
 10
965.3647904435468
 20
2137.249647883333
 30
0.0
 10
963.5311332918607
 20
2138.205407387209
 30
0.0
 10
961.7291657496807
 20
2139.143737617635
 30
0.0
 10
960.836104380967
 20
2139.608100090007
 30
0.0
  0
SPLINE
  5
E0
330
87
100
AcDbEntity
  8
P-SANR-FIXT
100
AcDbSpline
210
0.0
220
0.0
230
1.0
 70
     8
 71
     3
 72
    33
 73
    29
 74
     0
 42
0.000000001
 43
0.0000000001
 40
0.0
 40
0.0
 40
0.0
 40
0.0
 40
0.0714285714285714
 40
0.1071428571428571
 40
0.1428571428571428
 40
0.1785714285714286
 40
0.2142857142857143
 40
0.25
 40
0.2678571428571428
 40
0.2857142857142857
 40
0.3214285714285714
 40
0.3571428571428571
 40
0.3928571428571428
 40
0.4107142857142857
 40
0.4285714285714286
 40
0.4464285714285714
 40
0.4642857142857144
 40
0.5
 40
0.5357142857142857
 40
0.5535714285714287
 40
0.5714285714285714
 40
0.6071428571428572
 40
0.6428571428571428
 40
0.6785714285714285
 40
0.7142857142857143
 40
0.7857142857142856
 40
0.8571428571428571
 40
1.0
 40
1.0
 40
1.0
 40
1.0
 10
960.836104380967
 20
2139.608100090007
 30
0.0
 10
960.5034980540944
 20
2139.779394286068
 30
0.0
 10
959.9745405822298
 20
2140.001412179242
 30
0.0
 10
959.2067321744035
 20
2140.229644401257
 30
0.0
 10
958.6044816103234
 20
2140.367745829547
 30
0.0
 10
957.9563502635283
 20
2140.471553236679
 30
0.0
 10
957.2657626056134
 20
2140.541601743654
 30
0.0
 10
956.6790637174362
 20
2140.574051033771
 30
0.0
 10
956.2129062559998
 20
2140.585120085789
 30
0.0
 10
955.7560226772366
 20
2140.587493611276
 30
0.0
 10
955.1857951107191
 20
2140.567887538528
 30
0.0
 10
954.4944127771012
 20
2140.510514104553
 30
0.0
 10
953.9255884533304
 20
2140.442361960982
 30
0.0
 10
953.4792525738636
 20
2140.379049566714
 30
0.0
 10
953.1509220679049
 20
2140.328886505969
 30
0.0
 10
952.8278285182755
 20
2140.274171251266
 30
0.0
 10
952.4009192001383
 20
2140.192249114799
 30
0.0
 10
951.8764419551722
 20
2140.076423371087
 30
0.0
 10
951.3647536561581
 20
2139.946844115106
 30
0.0
 10
950.9637171059793
 20
2139.837503014833
 30
0.0
 10
950.5684398790863
 20
2139.726075531637
 30
0.0
 10
950.0852261094484
 20
2139.578561779012
 30
0.0
 10
949.5217704852462
 20
2139.386398257038
 30
0.0
 10
948.9741226085303
 20
2139.182818883336
 30
0.0
 10
948.2635354229136
 20
2138.901488606921
 30
0.0
 10
947.4133446629457
 20
2138.525107653007
 30
0.0
 10
946.1333151883573
 20
2137.875207650739
 30
0.0
 10
945.2608543485094
 20
2137.346365619608
 30
0.0
 10
944.718879392966
 20
2136.970428339001
 30
0.0
  0
SPLINE
  5
E1
330
87
100
AcDbEntity
  8
P-SANR-FIXT
100
AcDbSpline
210
0.0
220
0.0
230
1.0
 70
     8
 71
     3
 72
    11
 73
     7
 74
     0
 42
0.000000001
 43
0.0000000001
 40
0.0
 40
0.0
 40
0.0
 40
0.0
 40
0.25
 40
0.5
 40
0.75
 40
1.0
 40
1.0
 40
1.0
 40
1.0
 10
944.718879392966
 20
2136.970428339001
 30
0.0
 10
940.1242549256739
 20
2133.86043016405
 30
0.0
 10
930.5820779986696
 20
2127.147522341278
 30
0.0
 10
915.0183711097062
 20
2116.086902920904
 30
0.0
 10
898.7791952858744
 20
2104.161960337913
 30
0.0
 10
887.7359232046696
 20
2095.630743399341
 30
0.0
 10
882.1405686345773
 20
2091.267872126663
 30
0.0
  0
SPLINE
  5
E2
330
87
100
AcDbEntity
  8
P-SANR-FIXT
100
AcDbSpline
210
0.0
220
0.0
230
1.0
 70
     8
 71
     3
 72
     9
 73
     5
 74
     0
 42
0.000000001
 43
0.0000000001
 40
0.0
 40
0.0
 40
0.0
 40
0.0
 40
0.5
 40
1.0
 40
1.0
 40
1.0
 40
1.0
 10
882.1405686345773
 20
2091.267872126663
 30
0.0
 10
882.5802088018292
 20
2090.258030875467
 30
0.0
 10
883.4796271472239
 20
2088.227708159269
 30
0.0
 10
884.4193215144001
 20
2086.177819645036
 30
0.0
 10
884.8992377034333
 20
2085.148405847803
 30
0.0
  0
SPLINE
  5
E3
330
87
100
AcDbEntity
  8
P-SANR-FIXT
100
AcDbSpline
210
0.0
220
0.0
230
1.0
 70
     8
 71
     3
 72
    12
 73
     8
 74
     0
 42
0.000000001
 43
0.0000000001
 40
0.0
 40
0.0
 40
0.0
 40
0.0
 40
0.25
 40
0.375
 40
0.5
 40
0.75
 40
1.0
 40
1.0
 40
1.0
 40
1.0
 10
884.8992377034333
 20
2085.148405847803
 30
0.0
 10
885.504235942988
 20
2083.826873569517
 30
0.0
 10
886.0721875364403
 20
2081.816291307465
 30
0.0
 10
886.1270695528052
 20
2078.9761475193
 30
0.0
 10
885.7432462915971
 20
2076.139974174682
 30
0.0
 10
884.4024459545568
 20
2072.676282506675
 30
0.0
 10
882.630615851534
 20
2070.242397024193
 30
0.0
 10
881.5516339379659
 20
2069.093921444407
 30
0.0
  0
SPLINE
  5
E4
330
87
100
AcDbEntity
  8
P-SANR-FIXT
100
AcDbSpline
210
0.0
220
0.0
230
1.0
 70
     8
 71
     3
 72
    13
 73
     9
 74
     0
 42
0.000000001
 43
0.0000000001
 40
0.0
 40
0.0
 40
0.0
 40
0.0
 40
0.2
 40
0.4
 40
0.5
 40
0.6
 40
0.8
 40
1.0
 40
1.0
 40
1.0
 40
1.0
 10
881.551633937966
 20
2069.093921444407
 30
0.0
 10
877.3090373142174
 20
2064.608475181451
 30
0.0
 10
869.0673767959054
 20
2055.262461332
 30
0.0
 10
859.2417923368858
 20
2042.785595373894
 30
0.0
 10
851.9054326243594
 20
2032.225889456437
 30
0.0
 10
844.9947778519707
 20
2021.296010704519
 30
0.0
 10
837.247895664657
 20
2006.889368361155
 30
0.0
 10
832.4517326106308
 20
1994.704649871951
 30
0.0
 10
830.3664469798704
 20
1988.487460798768
 30
0.0
  0
SPLINE
  5
E5
330
87
100
AcDbEntity
  8
P-SANR-FIXT
100
AcDbSpline
210
0.0
220
0.0
230
1.0
 70
     8
 71
     3
 72
    33
 73
    29
 74
     0
 42
0.000000001
 43
0.0000000001
 40
0.0
 40
0.0
 40
0.0
 40
0.0
 40
0.0714285714285714
 40
0.1071428571428571
 40
0.1428571428571428
 40
0.1785714285714286
 40
0.2142857142857143
 40
0.25
 40
0.2678571428571428
 40
0.2857142857142857
 40
0.3214285714285714
 40
0.3571428571428571
 40
0.3928571428571428
 40
0.4107142857142857
 40
0.4285714285714286
 40
0.4464285714285714
 40
0.4642857142857144
 40
0.5
 40
0.5357142857142857
 40
0.5714285714285714
 40
0.6071428571428572
 40
0.6428571428571428
 40
0.6785714285714287
 40
0.7142857142857144
 40
0.75
 40
0.7857142857142857
 40
0.8571428571428571
 40
1.0
 40
1.0
 40
1.0
 40
1.0
 10
830.3664469798704
 20
1988.487460798768
 30
0.0
 10
829.9062681616804
 20
1987.153591252506
 30
0.0
 10
829.0551288007604
 20
1985.308761841313
 30
0.0
 10
827.5914038525389
 20
1983.158473841612
 30
0.0
 10
826.3434343073253
 20
1981.703409288443
 30
0.0
 10
824.8882473302645
 20
1980.392688705248
 30
0.0
 10
823.2358073221146
 20
1979.228394134081
 30
0.0
 10
821.7653668936637
 20
1978.395391928901
 30
0.0
 10
820.5616006383221
 20
1977.818749690019
 30
0.0
 10
819.3619495896825
 20
1977.303037231188
 30
0.0
 10
817.8104078023142
 20
1976.788811624495
 30
0.0
 10
815.8474323241311
 20
1976.357746350237
 30
0.0
 10
814.1820093343929
 20
1976.124110918625
 30
0.0
 10
812.8517268953132
 20
1975.998226021511
 30
0.0
 10
811.8647026689762
 20
1975.92698135706
 30
0.0
 10
810.8806357152033
 20
1975.888344776432
 30
0.0
 10
809.5572706799934
 20
1975.892971799367
 30
0.0
 10
807.8958387549572
 20
1975.985064026151
 30
0.0
 10
805.9035983730892
 20
1976.20778266386
 30
0.0
 10
803.9354524020501
 20
1976.498044115814
 30
0.0
 10
801.9902201036982
 20
1976.86869296323
 30
0.0
 10
800.054283093508
 20
1977.343126206383
 30
0.0
 10
798.1363932079658
 20
1977.89096235013
 30
0.0
 10
796.2407192379537
 20
1978.487427829314
 30
0.0
 10
794.3673919357621
 20
1979.138931120099
 30
0.0
 10
791.8946090590345
 20
1980.103522250849
 30
0.0
 10
787.6418405625193
 20
1981.958484156202
 30
0.0
 10
784.1286159911998
 20
1983.77901504233
 30
0.0
 10
781.8432671283245
 20
1985.118848711674
 30
0.0
  0
LINE
  5
E6
330
87
100
AcDbEntity
  8
P-SANR-FIXT
100
AcDbLine
 10
719.4999165723203
 20
1842.007785845981
 30
0.0
 11
719.4999165723213
 21
2021.112798937364
 31
0.0
  0
LINE
  5
E7
330
87
100
AcDbEntity
  8
P-SANR-FIXT
100
AcDbLine
 10
1044.499916572321
 20
1842.00778584598
 30
0.0
 11
1044.499916572321
 21
2157.99221415401
 31
0.0
  0
LINE
  5
E8
330
87
100
AcDbEntity
  8
P-SANR-FIXT
100
AcDbLine
 10
1057.490297629087
 20
1834.507785845982
 30
0.0
 11
1057.490297629087
 21
2165.492214154009
 31
0.0
  0
SPLINE
  5
E9
330
87
100
AcDbEntity
  8
P-SANR-FIXT
100
AcDbSpline
210
0.0
220
0.0
230
1.0
 70
     8
 71
     3
 72
    12
 73
     8
 74
     0
 42
0.000000001
 43
0.0000000001
 40
0.0
 40
0.0
 40
0.0
 40
0.0
 40
0.2
 40
0.4
 40
0.7
 40
0.85
 40
1.0
 40
1.0
 40
1.0
 40
1.0
 10
1142.490297629088
 20
2163.048731605212
 30
0.0
 10
1140.111545468682
 20
2163.194690642334
 30
0.0
 10
1135.708260040934
 20
2163.559535696703
 30
0.0
 10
1129.05439588843
 20
2164.367556757663
 30
0.0
 10
1124.750973809825
 20
2165.067352191786
 30
0.0
 10
1122.700373929474
 20
2165.427718336762
 30
0.0
 10
1122.357811008099
 20
2165.492214154009
 30
0.0
 10
1122.350111647218
 20
2165.492214154009
 30
0.0
  0
LWPOLYLINE
  5
EA
330
87
100
AcDbEntity
  8
P-SANR-FIXT
100
AcDbPolyline
 90
        3
 70
   128
 43
0.0
 10
1170.558371429562
 20
2173.128150887763
 10
1161.453913003737
 20
2169.764045367978
 10
1152.350111647219
 20
2166.398162153951
  0
SPLINE
  5
EB
330
87
100
AcDbEntity
  8
P-SANR-FIXT
100
AcDbSpline
210
0.0
220
0.0
230
1.0
 70
     8
 71
     3
 72
     9
 73
     5
 74
     0
 42
0.000000001
 43
0.0000000001
 40
-1.0
 40
-1.0
 40
-1.0
 40
-1.0
 40
-0.5
 40
0.0
 40
0.0
 40
0.0
 40
0.0
 10
1152.350111647219
 20
2166.39816215395
 30
0.0
 10
1150.699238377431
 20
2165.78194320485
 30
0.0
 10
1147.373635743592
 20
2164.60748583096
 30
0.0
 10
1144.09394766855
 20
2163.548989505692
 30
0.0
 10
1142.490297629087
 20
2163.048731605213
 30
0.0
  0
LINE
  5
EC
330
87
100
AcDbEntity
  8
P-SANR-FIXT
100
AcDbLine
 10
1142.490297629087
 20
1834.50778584598
 30
0.0
 11
1142.490297629088
 21
2163.048731605213
 31
0.0
  0
LINE
  5
ED
330
87
100
AcDbEntity
  8
P-SANR-FIXT
100
AcDbLine
 10
1182.350111647218
 20
1759.999999999992
 30
0.0
 11
1182.350111647218
 21
2239.999999999997
 31
0.0
  0
LINE
  5
EE
330
87
100
AcDbEntity
  8
P-SANR-FIXT
100
AcDbLine
 10
1217.350111647218
 20
1759.999999999992
 30
0.0
 11
1217.350111647218
 21
2239.999999999997
 31
0.0
  0
LINE
  5
EF
330
87
100
AcDbEntity
  8
P-SANR-FIXT
100
AcDbLine
 10
444.2210871588876
 20
2173.128150887762
 30
0.0
 11
474.221087158888
 21
2173.128150887762
 31
0.0
  0
LINE
  5
F0
330
87
100
AcDbEntity
  8
P-SANR-FIXT
100
AcDbLine
 10
426.0128273765446
 20
2173.128150887762
 30
0.0
 11
444.2210871588878
 21
2173.128150887762
 31
0.0
  0
LINE
  5
F1
330
87
100
AcDbEntity
  8
P-SANR-FIXT
100
AcDbLine
 10
1122.350111647218
 20
2173.128150887762
 30
0.0
 11
1152.350111647218
 21
2173.128150887762
 31
0.0
  0
LINE
  5
F2
330
87
100
AcDbEntity
  8
P-SANR-FIXT
100
AcDbLine
 10
1152.350111647219
 20
2173.128150887762
 30
0.0
 11
1170.558371429562
 21
2173.128150887762
 31
0.0
  0
LINE
  5
F3
330
87
100
AcDbEntity
  8
P-SANR-FIXT
100
AcDbLine
 10
877.4337307855427
 20
2422.59334400787
 30
0.0
 11
935.8241609770789
 21
2388.881613418688
 31
0.0
  0
LINE
  5
F4
330
87
100
AcDbEntity
  8
P-SANR-FIXT
100
AcDbLine
 10
863.338341473754
 20
2417.463041857985
 30
0.0
 11
938.4288836420825
 21
2374.109497123505
 31
0.0
  0
LINE
  5
F5
330
87
100
AcDbEntity
  8
P-SANR-FIXT
100
AcDbLine
 10
827.3575793602205
 20
2415.142533782296
 30
0.0
 11
954.4096457556159
 21
2341.788989047816
 31
0.0
  0
LINE
  5
F6
330
87
100
AcDbEntity
  8
P-SANR-FIXT
100
AcDbLine
 10
669.6591007190333
 20
2394.577295321081
 30
0.0
 11
1015.448866133912
 21
2194.935481175782
 31
0.0
  0
LINE
  5
F7
330
87
100
AcDbEntity
  8
P-SANR-FIXT
100
AcDbLine
 10
629.9151559015426
 20
2330.973688109349
 30
0.0
 11
966.2895414217661
 21
2136.767846080753
 31
0.0
  0
LINE
  5
F8
330
87
100
AcDbEntity
  8
P-SANR-FIXT
100
AcDbLine
 10
602.0065430623779
 20
2253.003327199945
 30
0.0
 11
882.1405686345773
 21
2091.267872126662
 31
0.0
  0
ENDBLK
  5
FA
330
87
100
AcDbEntity
  8
0
100
AcDbBlockEnd
  0
BLOCK
  5
18F
330
FC
100
AcDbEntity
  8
0
100
AcDbBlockBegin
  2
Automatic flow rate regulator valve_Caleffi_121 DN15 - 1_2__-V1-Est - Idraulica
 70
     0
 10
0.0
 20
0.0
 30
0.0
  3
Automatic flow rate regulator valve_Caleffi_121 DN15 - 1_2__-V1-Est - Idraulica
  1

  0
ARC
  5
FD
330
FC
100
AcDbEntity
  8
P-SANR-FIXT
100
AcDbCircle
 10
1142.350111647222
 20
1124.300737862381
 30
0.0
 40
5.000000000000227
100
AcDbArc
 50
0.0
 51
180.0
  0
ARC
  5
FE
330
FC
100
AcDbEntity
  8
P-SANR-FIXT
100
AcDbCircle
 10
1142.350111647222
 20
1124.300737862381
 30
0.0
 40
5.0
100
AcDbArc
 50
180.0
 51
0.0
  0
ARC
  5
FF
330
FC
100
AcDbEntity
  8
P-SANR-FIXT
100
AcDbCircle
 10
1142.350111647222
 20
1124.300737862381
 30
0.0
 40
7.734747334993016
100
AcDbArc
 50
0.0
 51
180.0
  0
ARC
  5
100
330
FC
100
AcDbEntity
  8
P-SANR-FIXT
100
AcDbCircle
 10
1142.350111647222
 20
1124.300737862381
 30
0.0
 40
7.734747334992789
100
AcDbArc
 50
180.0
 51
0.0
  0
ARC
  5
101
330
FC
100
AcDbEntity
  8
P-SANR-FIXT
100
AcDbCircle
 10
454.2210871588917
 20
1124.300737862378
 30
0.0
 40
5.0
100
AcDbArc
 50
0.0
 51
180.0000000000022
  0
ARC
  5
102
330
FC
100
AcDbEntity
  8
P-SANR-FIXT
100
AcDbCircle
 10
454.2210871588917
 20
1124.300737862378
 30
0.0
 40
5.000000000000274
100
AcDbArc
 50
180.0000000000013
 51
359.9999999999984
  0
ARC
  5
103
330
FC
100
AcDbEntity
  8
P-SANR-FIXT
100
AcDbCircle
 10
454.2210871588917
 20
1124.300737862378
 30
0.0
 40
7.734747334992858
100
AcDbArc
 50
359.9999999999994
 51
180.0000000000015
  0
ARC
  5
104
330
FC
100
AcDbEntity
  8
P-SANR-FIXT
100
AcDbCircle
 10
454.2210871588917
 20
1124.300737862378
 30
0.0
 40
7.734747334992935
100
AcDbArc
 50
180.0000000000009
 51
359.9999999999988
  0
LINE
  5
105
330
FC
100
AcDbEntity
  8
P-SANR-FIXT
100
AcDbLine
 10
943.8703845617357
 20
1156.576128596327
 30
0.0
 11
940.5906048015113
 21
1156.576128596327
 31
0.0
  0
LINE
  5
106
330
FC
100
AcDbEntity
  8
P-SANR-FIXT
100
AcDbLine
 10
940.5906048015118
 20
1092.025347128433
 30
0.0
 11
943.8703845617364
 21
1092.025347128433
 31
0.0
  0
LWPOLYLINE
  5
107
330
FC
100
AcDbEntity
  8
P-SANR-FIXT
100
AcDbPolyline
 90
       41
 70
   128
 43
0.0
 10
1071.164288350255
 20
1124.300737862381
 10
1071.057841797545
 20
1130.445578359693
 10
1070.738650849949
 20
1136.581003186587
 10
1070.207161496948
 20
1142.69760823955
 10
1069.464116583868
 20
1148.786012516212
 10
1068.510555117535
 20
1154.83686958524
 10
1067.347811316792
 20
1160.840878962283
 10
1065.977513430201
 20
1166.788797365438
 10
1064.401582349128
 20
1172.67144982798
 10
1062.622230049924
 20
1178.479740651498
 10
1060.64195790376
 20
1184.204664189288
 10
1058.463554896764
 20
1189.837315457866
 10
1056.090095806041
 20
1195.368900583846
 10
1053.524939378697
 20
1200.790747104153
 10
1050.771726560682
 20
1206.094314149603
 10
1047.834378819681
 20
1211.271202555104
 10
1044.717096600969
 20
1216.313164953819
 10
1041.424357946522
 20
1221.212115927321
 10
1037.960917295315
 20
1225.960142298313
 10
1034.331804466146
 20
1230.549513666313
 10
1030.542323803214
 20
1234.97269329872
 10
1026.598053438894
 20
1239.222349498734
 10
1022.504844597827
 20
1243.291367576372
 10
1018.268820832108
 20
1247.172862547733
 10
1013.896377039997
 20
1250.860192679181
 10
1009.394178081642
 20
1254.346973975647
 10
1004.769156766948
 20
1257.62709568469
 10
1000.028510955595
 20
1260.694736849158
 10
995.1796994804951
 20
1263.544383891403
 10
990.2304365871373
 20
1266.170849151369
 10
985.1886845760393
 20
1268.569290231522
 10
980.0626443471319
 20
1270.735229926288
 10
974.8607435760927
 20
1272.664576436657
 10
969.5916223049565
 20
1274.35364349708
 10
964.2641158027029
 20
1275.799169977751
 10
958.8872346440902
 20
1276.998338476939
 10
953.47014206276
 20
1277.948792391234
 10
948.022128751673
 20
1278.648650951029
 10
942.5525854026551
 20
1279.096521737335
 10
937.0709733887036
 20
1279.291510254767
 10
935.5906048015098
 20
1279.30073786238
  0
LWPOLYLINE
  5
108
330
FC
100
AcDbEntity
  8
P-SANR-FIXT
100
AcDbPolyline
 90
       41
 70
   128
 43
0.0
 10
935.5906048015127
 20
969.3007378623802
 10
941.07384683476
 20
969.4273833785604
 10
946.5475820640593
 20
969.8070663639368
 10
952.0023352525221
 20
970.4390279381643
 10
957.4286936759328
 20
971.3220092643005
 10
962.817336859568
 20
972.4542602650137
 10
968.1590645840735
 20
973.8335513835862
 10
973.4448227288702
 20
975.4571879853461
 10
978.6657266300762
 20
977.3220269285708
 10
983.8130817476613
 20
979.4244947969907
 10
988.8784015548402
 20
981.7606072788422
 10
993.8534226736416
 20
984.32598919757
 10
998.7301173777222
 20
987.1158947423909
 10
1003.500703662332
 20
990.1252275073685
 10
1008.157653139404
 20
993.3485600192327
 10
1012.693697052544
 20
996.7801525107953
 10
1017.101830723347
 20
1000.413970773024
 10
1021.375316739511
 20
1004.243702990163
 10
1025.50768717964
 20
1008.262775525455
 10
1029.492745143284
 20
1012.464367677967
 10
1033.32456582099
 20
1016.84142547278
 10
1036.997497301395
 20
1021.386674577359
 10
1040.506161273356
 20
1026.092632457012
 10
1043.845453743181
 20
1030.951619893077
 10
1047.01054585175
 20
1035.955771990437
 10
1049.996884844818
 20
1041.097048797606
 10
1052.800195222787
 20
1046.367245654598
 10
1055.416480073847
 20
1051.758003372426
 10
1057.842022576598
 20
1057.260818334676
 10
1060.073387644808
 20
1062.867052597116
 10
1062.107423677374
 20
1068.567944046635
 10
1063.941264370405
 20
1074.35461666649
 10
1065.572330545053
 20
1080.218090941341
 10
1066.998331943874
 20
1086.149294423196
 10
1068.217268949541
 20
1092.139072468251
 10
1069.227434182382
 20
1098.178199144906
 10
1070.027413936947
 20
1104.257388304821
 10
1070.616089422564
 20
1110.367304801847
 10
1070.9926377781
 20
1116.498575837908
 10
1071.156532837027
 20
1122.641802410348
 10
1071.164288350255
 20
1124.300737862381
  0
LINE
  5
109
330
FC
100
AcDbEntity
  8
P-SANR-FIXT
100
AcDbLine
 10
935.5906048015102
 20
1279.30073786238
 30
0.0
 11
918.8703845617347
 21
1279.30073786238
 31
0.0
  0
LINE
  5
10A
330
FC
100
AcDbEntity
  8
P-SANR-FIXT
100
AcDbLine
 10
918.8703845617377
 20
969.3007378623798
 30
0.0
 11
935.590604801513
 21
969.3007378623802
 31
0.0
  0
ELLIPSE
  5
10B
330
FC
100
AcDbEntity
  8
P-SANR-FIXT
100
AcDbEllipse
 10
918.8703845617341
 20
1124.30073786238
 30
0.0
 11
0.0
 21
155.0
 31
0.0
210
0.0
220
0.0
230
1.0
 40
0.8660254037844358
 41
0.0000000000000093
 42
1.570796326794894
  0
ELLIPSE
  5
10C
330
FC
100
AcDbEntity
  8
P-SANR-FIXT
100
AcDbEllipse
 10
918.8703845617341
 20
1124.30073786238
 30
0.0
 11
0.0
 21
155.0
 31
0.0
210
0.0
220
0.0
230
1.0
 40
0.8660254037844358
 41
1.570796326794899
 42
3.141592653589798
  0
ELLIPSE
  5
10D
330
FC
100
AcDbEntity
  8
P-SANR-FIXT
100
AcDbEllipse
 10
943.8703845617345
 20
1124.30073786238
 30
0.0
 11
0.0
 21
32.27539073394701
 31
0.0
210
0.0
220
0.0
230
1.0
 40
0.8660254037844293
 41
4.712388980384685
 42
7.85398163397447
  0
ELLIPSE
  5
10E
330
FC
100
AcDbEntity
  8
P-SANR-FIXT
100
AcDbEllipse
 10
943.8703845617345
 20
1124.30073786238
 30
0.0
 11
0.0
 21
32.27539073394678
 31
0.0
210
0.0
220
0.0
230
1.0
 40
0.866025403784446
 41
1.570796326794898
 42
4.712388980384685
  0
ELLIPSE
  5
10F
330
FC
100
AcDbEntity
  8
P-SANR-FIXT
100
AcDbEllipse
 10
940.5906048015101
 20
1124.30073786238
 30
0.0
 11
0.0
 21
32.27539073394701
 31
0.0
210
0.0
220
0.0
230
1.0
 40
0.8660254037844397
 41
0.0000000000000016
 42
1.570796326794891
  0
ELLIPSE
  5
110
330
FC
100
AcDbEntity
  8
P-SANR-FIXT
100
AcDbEllipse
 10
940.5906048015101
 20
1124.30073786238
 30
0.0
 11
0.0
 21
32.27539073394701
 31
0.0
210
0.0
220
0.0
230
1.0
 40
0.8660254037844397
 41
1.570796326794898
 42
3.141592653589793
  0
LINE
  5
111
330
FC
100
AcDbEntity
  8
P-SANR-FIXT
100
AcDbLine
 10
379.2210871588917
 20
1319.581304223187
 30
0.0
 11
373.2855994030569
 21
1309.300737862377
 31
0.0
  0
LINE
  5
112
330
FC
100
AcDbEntity
  8
P-SANR-FIXT
100
AcDbLine
 10
373.2855994030584
 20
939.3007378623773
 30
0.0
 11
379.2210871588935
 21
929.020171501568
 31
0.0
  0
LINE
  5
113
330
FC
100
AcDbEntity
  8
P-SANR-FIXT
100
AcDbLine
 10
414.2210871588916
 20
1364.30073786238
 30
0.0
 11
379.2210871588915
 21
1364.30073786238
 31
0.0
  0
LINE
  5
114
330
FC
100
AcDbEntity
  8
P-SANR-FIXT
100
AcDbLine
 10
379.2210871588937
 20
884.3007378623743
 30
0.0
 11
414.2210871588937
 21
884.3007378623747
 31
0.0
  0
LINE
  5
115
330
FC
100
AcDbEntity
  8
P-SANR-FIXT
100
AcDbLine
 10
454.0809011770228
 20
1289.792952016393
 30
0.0
 11
420.8008857256351
 21
1301.905887036617
 31
0.0
  0
LINE
  5
116
330
FC
100
AcDbEntity
  8
P-SANR-FIXT
100
AcDbLine
 10
420.8008857256366
 20
946.6955886881383
 30
0.0
 11
454.0809011770241
 21
958.808523708363
 31
0.0
  0
LINE
  5
117
330
FC
100
AcDbEntity
  8
P-SANR-FIXT
100
AcDbLine
 10
588.0688767769588
 20
1289.792952016394
 30
0.0
 11
454.0809011770226
 21
1289.792952016394
 31
0.0
  0
LINE
  5
118
330
FC
100
AcDbEntity
  8
P-SANR-FIXT
100
AcDbLine
 10
454.080901177024
 20
958.8085237083618
 30
0.0
 11
588.1225703063519
 21
958.8085237083623
 31
0.0
  0
LINE
  5
119
330
FC
100
AcDbEntity
  8
P-SANR-FIXT
100
AcDbLine
 10
1044.499916572325
 20
1282.292952016394
 30
0.0
 11
948.0413040566629
 21
1282.292952016393
 31
0.0
  0
LINE
  5
11A
330
FC
100
AcDbEntity
  8
P-SANR-FIXT
100
AcDbLine
 10
948.0413040566634
 20
966.3085237083659
 30
0.0
 11
1044.499916572327
 21
966.3085237083661
 31
0.0
  0
LINE
  5
11B
330
FC
100
AcDbEntity
  8
P-SANR-FIXT
100
AcDbLine
 10
1057.490297629092
 20
1289.792952016394
 30
0.0
 11
1044.499916572325
 21
1282.292952016395
 31
0.0
  0
LINE
  5
11C
330
FC
100
AcDbEntity
  8
P-SANR-FIXT
100
AcDbLine
 10
1044.499916572327
 20
966.3085237083656
 30
0.0
 11
1057.490297629093
 21
958.8085237083653
 31
0.0
  0
LINE
  5
11D
330
FC
100
AcDbEntity
  8
P-SANR-FIXT
100
AcDbLine
 10
1142.490297629092
 20
1289.792952016394
 30
0.0
 11
1057.490297629092
 21
1289.792952016394
 31
0.0
  0
LINE
  5
11E
330
FC
100
AcDbEntity
  8
P-SANR-FIXT
100
AcDbLine
 10
1057.490297629093
 20
958.808523708366
 30
0.0
 11
1142.490297629093
 21
958.8085237083667
 31
0.0
  0
LINE
  5
11F
330
FC
100
AcDbEntity
  8
P-SANR-FIXT
100
AcDbLine
 10
1175.770313080479
 20
1301.90588703662
 30
0.0
 11
1142.490297629092
 21
1289.792952016395
 31
0.0
  0
LINE
  5
120
330
FC
100
AcDbEntity
  8
P-SANR-FIXT
100
AcDbLine
 10
1142.490297629093
 20
958.8085237083653
 30
0.0
 11
1175.770313080481
 21
946.6955886881413
 31
0.0
  0
LWPOLYLINE
  5
121
330
FC
100
AcDbEntity
  8
P-SANR-FIXT
100
AcDbPolyline
 90
       32
 70
   128
 43
0.0
 10
1175.770313080479
 20
1301.90588703662
 10
1176.143354106588
 20
1302.050175153401
 10
1176.510326753944
 20
1302.209265517336
 10
1176.870643944593
 20
1302.382903617783
 10
1177.223729247897
 20
1302.570811670819
 10
1177.569017802688
 20
1302.772689063645
 10
1177.905957220938
 20
1302.988212835498
 10
1178.234008471454
 20
1303.217038194318
 10
1178.552646742216
 20
1303.458799068345
 10
1178.861362279962
 20
1303.713108691754
 10
1179.159661205689
 20
1303.979560223397
 10
1179.447066304749
 20
1304.257727397662
 10
1179.723117790293
 20
1304.547165206411
 10
1179.987374038832
 20
1304.847410610893
 10
1180.23941229674
 20
1305.157983282509
 10
1180.47882935657
 20
1305.478386371238
 10
1180.7052422021
 20
1305.808107300485
 10
1180.918288621074
 20
1306.146618587102
 10
1181.11762778467
 20
1306.493378685241
 10
1181.30294079275
 20
1306.847832852716
 10
1181.473931184032
 20
1307.209414038473
 10
1181.630325410367
 20
1307.577543789748
 10
1181.771873274353
 20
1307.951633177468
 10
1181.898348329605
 20
1308.331083738416
 10
1182.009548243014
 20
1308.715288432638
 10
1182.105295118439
 20
1309.103632614584
 10
1182.185435781305
 20
1309.495495016403
 10
1182.249842023647
 20
1309.890248741847
 10
1182.298410809217
 20
1310.287262269164
 10
1182.331064438318
 20
1310.685900461402
 10
1182.34775067211
 20
1311.085525582492
 10
1182.350111647222
 20
1311.302813244479
  0
LWPOLYLINE
  5
122
330
FC
100
AcDbEntity
  8
P-SANR-FIXT
100
AcDbPolyline
 90
       32
 70
   128
 43
0.0
 10
1182.350111647224
 20
937.2986624802825
 10
1182.342112713834
 20
937.6985558221486
 10
1182.31812871025
 20
938.0978094199736
 10
1182.278198005763
 20
938.4957845531717
 10
1182.22238448098
 20
938.891844546425
 10
1182.150777425636
 20
939.2853557882331
 10
1182.063491395744
 20
939.6756887445535
 10
1181.960666030332
 20
940.0622189659236
 10
1181.842465828049
 20
940.4443280864434
 10
1181.709079884003
 20
940.821404813033
 10
1181.560721587253
 20
941.1928459033688
 10
1181.397628279424
 20
941.5580571309424
 10
1181.220060875017
 20
941.916454235697
 10
1181.028303444001
 20
942.2674638587196
 10
1180.822662757358
 20
942.6105244594912
 10
1180.603467796321
 20
942.9450872142325
 10
1180.371069226067
 20
943.2706168939059
 10
1180.125838834733
 20
943.586592720467
 10
1179.868168938632
 20
943.8925091999969
 10
1179.598471754633
 20
944.1878769313879
 10
1179.317178740695
 20
944.4722233892772
 10
1179.024739905637
 20
944.7450936799908
 10
1178.721623089209
 20
945.0060512692719
 10
1178.408313213658
 20
945.2546786806459
 10
1178.085311507948
 20
945.4905781632922
 10
1177.753134705905
 20
945.7133723283611
 10
1177.412314219551
 20
945.9227047527154
 10
1177.063395288961
 20
946.1182405491316
 10
1176.706936109991
 20
946.2996669020471
 10
1176.343506941287
 20
946.466693568
 10
1175.97368919199
 20
946.6190533399544
 10
1175.770313080481
 20
946.6955886881409
  0
LINE
  5
123
330
FC
100
AcDbEntity
  8
P-SANR-FIXT
100
AcDbLine
 10
1217.350111647222
 20
1364.300737862383
 30
0.0
 11
1182.350111647223
 21
1364.300737862383
 31
0.0
  0
LINE
  5
124
330
FC
100
AcDbEntity
  8
P-SANR-FIXT
100
AcDbLine
 10
1182.350111647224
 20
884.3007378623783
 30
0.0
 11
1217.350111647225
 21
884.3007378623783
 31
0.0
  0
LINE
  5
125
330
FC
100
AcDbEntity
  8
P-SANR-FIXT
100
AcDbLine
 10
1223.285599403058
 20
1309.300737862381
 30
0.0
 11
1217.350111647223
 21
1319.58130422319
 31
0.0
  0
LINE
  5
126
330
FC
100
AcDbEntity
  8
P-SANR-FIXT
100
AcDbLine
 10
1217.350111647224
 20
929.0201715015713
 30
0.0
 11
1223.285599403059
 21
939.3007378623805
 31
0.0
  0
LWPOLYLINE
  5
127
330
FC
100
AcDbEntity
  8
P-SANR-FIXT
100
AcDbPolyline
 90
       32
 70
   128
 43
0.0
 10
414.221087158892
 20
1311.302813244476
 10
414.2290860922823
 20
1310.902919902609
 10
414.2530700958659
 20
1310.503666304784
 10
414.2930008003534
 20
1310.105691171586
 10
414.3488143251359
 20
1309.709631178333
 10
414.4204213804797
 20
1309.316119936525
 10
414.5077074103717
 20
1308.925786980204
 10
414.6105327757843
 20
1308.539256758834
 10
414.7287329780676
 20
1308.157147638314
 10
414.8621189221127
 20
1307.780070911724
 10
415.0104772188631
 20
1307.408629821389
 10
415.1735705266924
 20
1307.043418593816
 10
415.351137931099
 20
1306.685021489061
 10
415.5428953621155
 20
1306.334011866038
 10
415.7485360487578
 20
1305.990951265266
 10
415.9677310097952
 20
1305.656388510525
 10
416.2001295800489
 20
1305.330858830851
 10
416.4453599713827
 20
1305.014883004291
 10
416.703029867483
 20
1304.70896652476
 10
416.9727270514829
 20
1304.41359879337
 10
417.2540200654204
 20
1304.12925233548
 10
417.5464589004788
 20
1303.856382044767
 10
417.8495757169062
 20
1303.595424455486
 10
418.1628855924574
 20
1303.346797044112
 10
418.4858872981674
 20
1303.110897561466
 10
418.8180641002106
 20
1302.888103396396
 10
419.1588845865643
 20
1302.678770972042
 10
419.5078035171546
 20
1302.483235175626
 10
419.8642626961249
 20
1302.30180882271
 10
420.2276918648292
 20
1302.134782156758
 10
420.5975096141253
 20
1301.982422384803
 10
420.8008857256351
 20
1301.905887036616
  0
LWPOLYLINE
  5
128
330
FC
100
AcDbEntity
  8
P-SANR-FIXT
100
AcDbPolyline
 90
       32
 70
   128
 43
0.0
 10
420.8008857256366
 20
946.6955886881379
 10
420.4278446995281
 20
946.5513005713569
 10
420.0608720521724
 20
946.3922102074207
 10
419.7005548615225
 20
946.2185721069749
 10
419.3474695582194
 20
946.0306640539387
 10
419.0021810034277
 20
945.8287866611122
 10
418.6652415851778
 20
945.6132628892596
 10
418.3371903346618
 20
945.3844375304393
 10
418.0185520639001
 20
945.1426766564118
 10
417.7098365261535
 20
944.8883670330031
 10
417.4115376004267
 20
944.6219155013606
 10
417.124132501367
 20
944.3437483270951
 10
416.848081015823
 20
944.0543105183461
 10
416.5838247672838
 20
943.7540651138643
 10
416.3317865093755
 20
943.4434924422479
 10
416.0923694495454
 20
943.1230893535195
 10
415.8659566040162
 20
942.7933684242722
 10
415.6529101850421
 20
942.4548571376558
 10
415.4535710214458
 20
942.1080970395168
 10
415.2682580133659
 20
941.7536428720413
 10
415.0972676220836
 20
941.3920616862842
 10
414.9408733957494
 20
941.0239319350093
 10
414.7993255317627
 20
940.6498425472888
 10
414.6728504765108
 20
940.2703919863412
 10
414.5616505631023
 20
939.8861872921187
 10
414.4659036876771
 20
939.4978431101737
 10
414.3857630248111
 20
939.1059807083541
 10
414.3213567824688
 20
938.7112269829101
 10
414.2727879968992
 20
938.3142134555933
 10
414.2401343677979
 20
937.9155752633552
 10
414.2234481340063
 20
937.5159501422652
 10
414.2210871588936
 20
937.2986624802788
  0
LWPOLYLINE
  5
129
330
FC
100
AcDbEntity
  8
P-SANR-FIXT
100
AcDbPolyline
 90
       10
 70
   128
 43
0.0
 10
912.4946472356507
 20
1279.037800961096
 10
908.794413109789
 20
1280.410165240815
 10
903.0549249012967
 20
1282.24997865362
 10
897.243997953686
 20
1283.826643154253
 10
891.3723916129605
 20
1285.136121812672
 10
885.451183309107
 20
1286.175005173509
 10
879.4917192135342
 20
1286.940550506715
 10
873.5055582956372
 20
1287.430714719291
 10
867.5044109471436
 20
1287.644179660065
 10
865.8836125579224
 20
1287.654282596859
  0
LWPOLYLINE
  5
12A
330
FC
100
AcDbEntity
  8
P-SANR-FIXT
100
AcDbPolyline
 90
        9
 70
   128
 43
0.0
 10
865.8836125579254
 20
960.9471931278999
 10
871.8867851964924
 20
961.0858446861342
 10
877.8781496802738
 20
961.5014246758564
 10
883.8459658196168
 20
962.1928138520479
 10
889.7786275335661
 20
963.1581626398078
 10
895.6647254525263
 20
964.3949142002998
 10
901.4931044561301
 20
965.8998354049014
 10
907.2529148941102
 20
967.6690545113714
 10
912.5508093768267
 20
969.5613586238028
  0
LINE
  5
12B
330
FC
100
AcDbEntity
  8
P-SANR-FIXT
100
AcDbLine
 10
865.883612557922
 20
1287.654282596859
 30
0.0
 11
847.5539834264766
 21
1287.65428259686
 31
0.0
  0
LINE
  5
12C
330
FC
100
AcDbEntity
  8
P-SANR-FIXT
100
AcDbLine
 10
847.5539834264798
 20
960.9471931278996
 30
0.0
 11
865.8836125579252
 21
960.9471931278999
 31
0.0
  0
LINE
  5
12D
330
FC
100
AcDbEntity
  8
P-SANR-FIXT
100
AcDbLine
 10
853.0114520854999
 20
1323.57703454838
 30
0.0
 11
815.6714017662528
 21
1326.189704577772
 31
0.0
  0
LINE
  5
12E
330
FC
100
AcDbEntity
  8
P-SANR-FIXT
100
AcDbLine
 10
815.6714017662565
 20
922.4117711469869
 30
0.0
 11
853.0114520855038
 21
925.0244411763803
 31
0.0
  0
LWPOLYLINE
  5
12F
330
FC
100
AcDbEntity
  8
P-SANR-FIXT
100
AcDbPolyline
 90
        3
 70
   128
 43
0.0
 10
785.7805430730319
 20
1325.238797949572
 10
784.8436791349375
 20
1325.448374022684
 10
781.38090538412
 20
1326.100788500117
  0
LINE
  5
130
330
FC
100
AcDbEntity
  8
P-SANR-FIXT
100
AcDbLine
 10
781.3809053841239
 20
922.5006872246421
 30
0.0
 11
785.7102991100336
 21
923.3697304226962
 31
0.0
  0
LINE
  5
131
330
FC
100
AcDbEntity
  8
P-SANR-FIXT
100
AcDbLine
 10
781.3809053841201
 20
1326.100788500117
 30
0.0
 11
734.7763109484802
 21
1334.350807731904
 31
0.0
  0
LINE
  5
132
330
FC
100
AcDbEntity
  8
P-SANR-FIXT
100
AcDbLine
 10
734.7763109484841
 20
914.250667992853
 30
0.0
 11
781.380905384124
 21
922.5006872246421
 31
0.0
  0
LWPOLYLINE
  5
133
330
FC
100
AcDbEntity
  8
P-SANR-FIXT
100
AcDbPolyline
 90
       35
 70
   128
 43
0.0
 10
734.7763109484803
 20
1334.350807731904
 10
727.2001177013172
 20
1335.513381264343
 10
719.5846688036077
 20
1336.325734640597
 10
711.9438818936575
 20
1336.785995007514
 10
704.2917879130369
 20
1336.89309626357
 10
696.642468800675
 20
1336.646789807581
 10
689.0099939551682
 20
1336.047647065447
 10
681.4083570009731
 20
1335.097053693744
 10
673.8514143771186
 20
1333.797195691752
 10
666.3528271657364
 20
1332.151037969528
 10
658.92600740099
 20
1330.162296196876
 10
651.5840698621131
 20
1327.835402978311
 10
644.3397900768874
 20
1325.175469550231
 10
637.2055689657916
 20
1322.188244272801
 10
630.1934042637294
 20
1318.88006919178
 10
623.3148685848792
 20
1315.257835881782
 10
616.5810937619528
 20
1311.328941663841
 10
610.002760904333
 20
1307.101247131295
 10
603.5900954852993
 20
1302.583035734317
 10
597.3528666872381
 20
1297.782975980042
 10
591.3003902017832
 20
1292.710086615325
 10
585.441533692664
 20
1287.373704983302
 10
579.7847241744415
 20
1281.783458590783
 10
574.337956631179
 20
1275.949239795582
 10
569.1088032866514
 20
1269.881183423177
 10
564.1044230338731
 20
1263.589647050131
 10
559.3315706297655
 20
1257.085193645529
 10
554.7966053553511
 20
1250.378576238121
 10
550.5054989290511
 20
1243.480724272137
 10
546.4638425380003
 20
1236.402731324941
 10
542.6768529183715
 20
1229.155843880968
 10
539.14937747013
 20
1221.751450885348
 10
535.8858984347388
 20
1214.201073834192
 10
532.8905361968091
 20
1206.516357194333
 10
532.3535709761773
 20
1205.04626682804
  0
LWPOLYLINE
  5
134
330
FC
100
AcDbEntity
  8
P-SANR-FIXT
100
AcDbPolyline
 90
       35
 70
   128
 43
0.0
 10
532.3535709761776
 20
1043.555208896717
 10
535.2977020906426
 20
1035.846362296952
 10
538.5106900821114
 20
1028.269636087273
 10
541.9884828167637
 20
1020.836696968139
 10
545.7266668373592
 20
1013.559090461875
 10
549.7204642186419
 20
1006.448231374457
 10
553.9647285611218
 20
999.5153939630249
 10
558.4539400571655
 20
992.7717016087617
 10
563.1821995939503
 20
986.2281157588165
 10
568.1432218988432
 20
979.8954238667404
 10
573.3303277849962
 20
973.7842260308873
 10
578.7364356188489
 20
967.9049200072375
 10
584.3540522064918
 20
962.2676842605123
 10
590.1752633813202
 20
956.8824587190514
 10
596.1917246688464
 20
951.7589229186063
 10
602.3946525022628
 20
946.90647126186
 10
608.7748165593831
 20
942.3341851873095
 10
615.3225338813321
 20
938.0508021355769
 10
622.0276655080732
 20
934.0646813238114
 10
628.879616416765
 20
930.3837664883138
 10
635.8673395670067
 20
927.0155459277525
 10
642.9793448337516
 20
923.9670103672926
 10
650.2037135370888
 20
921.2446093576653
 10
657.5281191539712
 20
918.8542071098014
 10
664.9398546198611
 20
916.8010388304393
 10
672.42586640237
 20
915.0896687515237
 10
679.9727952636043
 20
913.7239511213284
 10
687.5670233373988
 20
912.7069954358763
 10
695.1947268504388
 20
912.0411371270717
 10
702.8419335336527
 20
911.7279147868885
 10
710.4945835241001
 20
911.7680547989969
 10
718.1385923681375
 20
912.1614639815904
 10
725.7599146201235
 20
912.9072305348399
 10
733.3446064975732
 20
914.0036332550421
 10
734.7763109484843
 20
914.250667992853
  0
LINE
  5
135
330
FC
100
AcDbEntity
  8
P-SANR-FIXT
100
AcDbLine
 10
1223.285599403056
 20
1309.300737862381
 30
0.0
 11
1223.285599403057
 21
1124.300737862381
 31
0.0
  0
LINE
  5
136
330
FC
100
AcDbEntity
  8
P-SANR-FIXT
100
AcDbLine
 10
1223.285599403057
 20
1124.300737862381
 30
0.0
 11
1223.285599403058
 21
939.3007378623808
 31
0.0
  0
LINE
  5
137
330
FC
100
AcDbEntity
  8
P-SANR-FIXT
100
AcDbLine
 10
373.2855994030568
 20
1124.300737862377
 30
0.0
 11
373.285599403056
 21
1309.300737862377
 31
0.0
  0
LINE
  5
138
330
FC
100
AcDbEntity
  8
P-SANR-FIXT
100
AcDbLine
 10
373.2855994030576
 20
939.3007378623773
 30
0.0
 11
373.2855994030568
 21
1124.300737862377
 31
0.0
  0
LINE
  5
139
330
FC
100
AcDbEntity
  8
P-SANR-FIXT
100
AcDbLine
 10
379.2210871588917
 20
1124.300737862377
 30
0.0
 11
379.2210871588907
 21
1364.30073786238
 31
0.0
  0
LINE
  5
13A
330
FC
100
AcDbEntity
  8
P-SANR-FIXT
100
AcDbLine
 10
379.2210871588928
 20
884.3007378623749
 30
0.0
 11
379.2210871588917
 21
1124.300737862377
 31
0.0
  0
LINE
  5
13B
330
FC
100
AcDbEntity
  8
P-SANR-FIXT
100
AcDbLine
 10
414.2210871588916
 20
1124.300737862377
 30
0.0
 11
414.2210871588906
 21
1364.30073786238
 31
0.0
  0
LINE
  5
13C
330
FC
100
AcDbEntity
  8
P-SANR-FIXT
100
AcDbLine
 10
414.2210871588927
 20
884.3007378623752
 30
0.0
 11
414.2210871588916
 21
1124.300737862377
 31
0.0
  0
SPLINE
  5
13D
330
FC
100
AcDbEntity
  8
P-SANR-FIXT
100
AcDbSpline
210
0.0
220
0.0
230
1.0
 70
     8
 71
     3
 72
    10
 73
     6
 74
     0
 42
0.000000001
 43
0.0000000001
 40
-1.0
 40
-1.0
 40
-1.0
 40
-1.0
 40
-0.6666666666666666
 40
-0.3333333333333333
 40
0.0
 40
0.0
 40
0.0
 40
0.0
 10
433.1013374246532
 20
1124.300737862378
 30
0.0
 10
433.0846111774597
 20
1127.789708943637
 30
0.0
 10
432.5356238388549
 20
1134.664841477107
 30
0.0
 10
430.0350588568406
 20
1144.745969825369
 30
0.0
 10
427.5109184356676
 20
1151.158624885857
 30
0.0
 10
426.0128273765479
 20
1154.300737862378
 30
0.0
  0
SPLINE
  5
13E
330
FC
100
AcDbEntity
  8
P-SANR-FIXT
100
AcDbSpline
210
0.0
220
0.0
230
1.0
 70
     8
 71
     3
 72
     8
 73
     4
 74
     0
 42
0.000000001
 43
0.0000000001
 40
-0.75
 40
-0.75
 40
-0.75
 40
-0.75
 40
-0.7375233841700611
 40
-0.7375233841700611
 40
-0.7375233841700611
 40
-0.7375233841700611
 10
446.7034172630677
 20
1154.197806646233
 30
0.0
 10
446.7447635114134
 20
1154.194373785638
 30
0.0
 10
446.7861209615544
 20
1154.190940485293
 30
0.0
 10
446.8274875936319
 20
1154.187493832035
 30
0.0
  0
SPLINE
  5
13F
330
FC
100
AcDbEntity
  8
P-SANR-FIXT
100
AcDbSpline
210
0.0
220
0.0
230
1.0
 70
     8
 71
     3
 72
     8
 73
     4
 74
     0
 42
0.000000001
 43
0.0000000001
 40
-0.5
 40
-0.5
 40
-0.5
 40
-0.5
 40
-0.4751267225347274
 40
-0.4751267225347274
 40
-0.4751267225347274
 40
-0.4751267225347274
 10
449.1860844228187
 20
1153.887032023175
 30
0.0
 10
449.2682320370891
 20
1153.873246031896
 30
0.0
 10
449.3502362461318
 20
1153.858451608415
 30
0.0
 10
449.432111169653
 20
1153.842747363393
 30
0.0
  0
SPLINE
  5
140
330
FC
100
AcDbEntity
  8
P-SANR-FIXT
100
AcDbSpline
210
0.0
220
0.0
230
1.0
 70
     8
 71
     3
 72
     8
 73
     4
 74
     0
 42
0.000000001
 43
0.0000000001
 40
-0.25
 40
-0.25
 40
-0.25
 40
-0.25
 40
-0.214862998887464
 40
-0.214862998887464
 40
-0.214862998887464
 40
-0.214862998887464
 10
451.6513700390797
 20
1153.36595696658
 30
0.0
 10
451.7661742308341
 20
1153.336608476834
 30
0.0
 10
451.8805985471193
 20
1153.305374296792
 30
0.0
 10
451.9947449493908
 20
1153.272757081788
 30
0.0
  0
SPLINE
  5
141
330
FC
100
AcDbEntity
  8
P-SANR-FIXT
100
AcDbSpline
210
0.0
220
0.0
230
1.0
 70
     8
 71
     3
 72
     8
 73
     4
 74
     0
 42
0.000000001
 43
0.0000000001
 40
-0.7851370011124912
 40
-0.7851370011124912
 40
-0.7851370011124912
 40
-0.7851370011124912
 40
-0.75
 40
-0.75
 40
-0.75
 40
-0.75
 10
451.9954208946731
 20
1095.325645228026
 30
0.0
 10
451.8808607084676
 20
1095.294909422299
 30
0.0
 10
451.7662012901086
 20
1095.264210535835
 30
0.0
 10
451.6514412134833
 20
1095.233791398825
 30
0.0
  0
SPLINE
  5
142
330
FC
100
AcDbEntity
  8
P-SANR-FIXT
100
AcDbSpline
210
0.0
220
0.0
230
1.0
 70
     8
 71
     3
 72
     8
 73
     4
 74
     0
 42
0.000000001
 43
0.0000000001
 40
-0.5248732774652347
 40
-0.5248732774652347
 40
-0.5248732774652347
 40
-0.5248732774652347
 40
-0.5
 40
-0.5
 40
-0.5
 40
-0.5
 10
449.4324390037035
 20
1094.756845071945
 30
0.0
 10
449.350351244943
 20
1094.742363489281
 30
0.0
 10
449.2682315073623
 20
1094.727903039931
 30
0.0
 10
449.1860844228186
 20
1094.714443701581
 30
0.0
  0
SPLINE
  5
143
330
FC
100
AcDbEntity
  8
P-SANR-FIXT
100
AcDbSpline
210
0.0
220
0.0
230
1.0
 70
     8
 71
     3
 72
     8
 73
     4
 74
     0
 42
0.000000001
 43
0.0000000001
 40
-0.2624766158299042
 40
-0.2624766158299042
 40
-0.2624766158299042
 40
-0.2624766158299042
 40
-0.25
 40
-0.25
 40
-0.25
 40
-0.25
 10
446.8274560641681
 20
1094.414226554985
 30
0.0
 10
446.7861098996736
 20
1094.410621077419
 30
0.0
 10
446.7447707187958
 20
1094.407265117398
 30
0.0
 10
446.7034378574241
 20
1094.404135343717
 30
0.0
  0
SPLINE
  5
144
330
FC
100
AcDbEntity
  8
P-SANR-FIXT
100
AcDbSpline
210
0.0
220
0.0
230
1.0
 70
     8
 71
     3
 72
    10
 73
     6
 74
     0
 42
0.000000001
 43
0.0000000001
 40
-1.0
 40
-1.0
 40
-1.0
 40
-1.0
 40
-0.6666666666666666
 40
-0.3333333333333333
 40
0.0
 40
0.0
 40
0.0
 40
0.0
 10
426.0128273765482
 20
1094.300737862378
 30
0.0
 10
427.5109184356681
 20
1097.442850838899
 30
0.0
 10
430.0350588568414
 20
1103.855505899388
 30
0.0
 10
432.5356238388553
 20
1113.936634247649
 30
0.0
 10
433.0846111774599
 20
1120.81176678112
 30
0.0
 10
433.1013374246532
 20
1124.300737862378
 30
0.0
  0
LINE
  5
145
330
FC
100
AcDbEntity
  8
P-SANR-FIXT
100
AcDbLine
 10
454.0809011770222
 20
1152.634182191083
 30
0.0
 11
454.0809011770218
 21
1289.791914954959
 31
0.0
  0
LINE
  5
146
330
FC
100
AcDbEntity
  8
P-SANR-FIXT
100
AcDbLine
 10
454.0809011770222
 20
1152.642792253409
 30
0.0
 11
454.0809011770222
 21
1152.626383657198
 31
0.0
  0
SPLINE
  5
147
330
FC
100
AcDbEntity
  8
P-SANR-FIXT
100
AcDbSpline
210
0.0
220
0.0
230
1.0
 70
     8
 71
     3
 72
     8
 73
     4
 74
     0
 42
0.000000001
 43
0.0000000001
 40
0.0
 40
0.0
 40
0.0
 40
0.0
 40
0.0114937723966002
 40
0.0114937723966002
 40
0.0114937723966002
 40
0.0114937723966002
 10
454.0809011770222
 20
1152.634182191084
 30
0.0
 10
454.2176083585709
 20
1152.585909895201
 30
0.0
 10
454.3537305545575
 20
1152.536833607155
 30
0.0
 10
454.489272855064
 20
1152.486949001236
 30
0.0
  0
SPLINE
  5
148
330
FC
100
AcDbEntity
  8
P-SANR-FIXT
100
AcDbSpline
210
0.0
220
0.0
230
1.0
 70
     8
 71
     3
 72
     8
 73
     4
 74
     0
 42
0.000000001
 43
0.0000000001
 40
0.0666666666666667
 40
0.0666666666666667
 40
0.0666666666666667
 40
0.0666666666666667
 40
0.0815713946289564
 40
0.0815713946289564
 40
0.0815713946289564
 40
0.0815713946289564
 10
456.4016571553128
 20
1151.712219354301
 30
0.0
 10
456.5703563799154
 20
1151.637338245735
 30
0.0
 10
456.7380468298278
 20
1151.561013175075
 30
0.0
 10
456.9047646590239
 20
1151.483251402389
 30
0.0
  0
SPLINE
  5
149
330
FC
100
AcDbEntity
  8
P-SANR-FIXT
100
AcDbSpline
210
0.0
220
0.0
230
1.0
 70
     8
 71
     3
 72
     8
 73
     4
 74
     0
 42
0.000000001
 43
0.0000000001
 40
0.1333333333333333
 40
0.1333333333333333
 40
0.1333333333333333
 40
0.1333333333333333
 40
0.1525855246898107
 40
0.1525855246898107
 40
0.1525855246898107
 40
0.1525855246898107
 10
458.6102893397201
 20
1150.622900552238
 30
0.0
 10
458.8176890395735
 20
1150.509824251082
 30
0.0
 10
459.0234689297714
 20
1150.394262581298
 30
0.0
 10
459.2277778635906
 20
1150.276272189677
 30
0.0
  0
SPLINE
  5
14A
330
FC
100
AcDbEntity
  8
P-SANR-FIXT
100
AcDbSpline
210
0.0
220
0.0
230
1.0
 70
     8
 71
     3
 72
     9
 73
     5
 74
     0
 42
0.000000001
 43
0.0000000001
 40
0.2
 40
0.2
 40
0.2
 40
0.2
 40
0.4
 40
0.6
 40
0.6
 40
0.6
 40
0.6
 10
460.7127572941331
 20
1149.361161165874
 30
0.0
 10
462.7641296548453
 20
1148.011523281018
 30
0.0
 10
466.6101311766357
 20
1144.79316367684
 30
0.0
 10
469.3576050570645
 20
1140.692981748419
 30
0.0
 10
470.5377209806833
 20
1138.522409751427
 30
0.0
  0
SPLINE
  5
14B
330
FC
100
AcDbEntity
  8
P-SANR-FIXT
100
AcDbSpline
210
0.0
220
0.0
230
1.0
 70
     8
 71
     3
 72
     8
 73
     4
 74
     0
 42
0.000000001
 43
0.0000000001
 40
0.6473534842062059
 40
0.6473534842062059
 40
0.6473534842062059
 40
0.6473534842062059
 40
0.6666666666666666
 40
0.6666666666666666
 40
0.6666666666666666
 40
0.6666666666666666
 10
471.4058594539664
 20
1136.980423037537
 30
0.0
 10
471.5067203310839
 20
1136.764424363992
 30
0.0
 10
471.6038483134307
 20
1136.546919732125
 30
0.0
 10
471.6984943712449
 20
1136.32831555146
 30
0.0
  0
SPLINE
  5
14C
330
FC
100
AcDbEntity
  8
P-SANR-FIXT
100
AcDbSpline
210
0.0
220
0.0
230
1.0
 70
     8
 71
     3
 72
     8
 73
     4
 74
     0
 42
0.000000001
 43
0.0000000001
 40
0.7178232396857501
 40
0.7178232396857501
 40
0.7178232396857501
 40
0.7178232396857501
 40
0.7333333333333333
 40
0.7333333333333333
 40
0.7333333333333333
 40
0.7333333333333333
 10
472.4058347011275
 20
1134.571341202441
 30
0.0
 10
472.4714520617606
 20
1134.391532730318
 30
0.0
 10
472.5370300483223
 20
1134.211510916976
 30
0.0
 10
472.6019633592827
 20
1134.031166470805
 30
0.0
  0
SPLINE
  5
14D
330
FC
100
AcDbEntity
  8
P-SANR-FIXT
100
AcDbSpline
210
0.0
220
0.0
230
1.0
 70
     8
 71
     3
 72
     8
 73
     4
 74
     0
 42
0.000000001
 43
0.0000000001
 40
0.7884849107748062
 40
0.7884849107748062
 40
0.7884849107748062
 40
0.7884849107748062
 40
0.8
 40
0.8
 40
0.8
 40
0.8
 10
473.1941042121531
 20
1132.078266152387
 30
0.0
 10
473.2309664727464
 20
1131.941093440403
 30
0.0
 10
473.2677821376951
 20
1131.803878745755
 30
0.0
 10
473.3040220041346
 20
1131.666516829861
 30
0.0
  0
SPLINE
  5
14E
330
FC
100
AcDbEntity
  8
P-SANR-FIXT
100
AcDbSpline
210
0.0
220
0.0
230
1.0
 70
     8
 71
     3
 72
     8
 73
     4
 74
     0
 42
0.000000001
 43
0.0000000001
 40
0.8595933365609711
 40
0.8595933365609711
 40
0.8595933365609711
 40
0.8595933365609711
 40
0.8666666666666666
 40
0.8666666666666666
 40
0.8666666666666666
 40
0.8666666666666666
 10
473.7637203837592
 20
1129.511249596052
 30
0.0
 10
473.7788171163739
 20
1129.425382971334
 30
0.0
 10
473.7928310927015
 20
1129.33927698892
 30
0.0
 10
473.8058694862191
 20
1129.252955407047
 30
0.0
  0
SPLINE
  5
14F
330
FC
100
AcDbEntity
  8
P-SANR-FIXT
100
AcDbSpline
210
0.0
220
0.0
230
1.0
 70
     8
 71
     3
 72
     8
 73
     4
 74
     0
 42
0.000000001
 43
0.0000000001
 40
0.9302861770529309
 40
0.9302861770529309
 40
0.9302861770529309
 40
0.9302861770529309
 40
0.9333333333333332
 40
0.9333333333333332
 40
0.9333333333333332
 40
0.9333333333333332
 10
474.1036724237129
 20
1126.91396962285
 30
0.0
 10
474.1069484068266
 20
1126.876297657801
 30
0.0
 10
474.1100251564844
 20
1126.838574371798
 30
0.0
 10
474.1129198264295
 20
1126.800804188183
 30
0.0
  0
SPLINE
  5
150
330
FC
100
AcDbEntity
  8
P-SANR-FIXT
100
AcDbSpline
210
0.0
220
0.0
230
1.0
 70
     8
 71
     3
 72
    14
 73
    10
 74
     0
 42
0.000000001
 43
0.0000000001
 40
0.0
 40
0.0
 40
0.0
 40
0.0
 40
0.1111111111111111
 40
0.2222222222222222
 40
0.2777777777777778
 40
0.3333333333333333
 40
0.3888888888888888
 40
0.4444444444444445
 40
0.5555555555555556
 40
0.5555555555555556
 40
0.5555555555555556
 40
0.5555555555555556
 10
522.4890157630626
 20
1124.300737862379
 30
0.0
 10
522.4695290807722
 20
1130.290154771066
 30
0.0
 10
522.6662936302557
 20
1142.260217315344
 30
0.0
 10
523.3932839105417
 20
1157.034552267728
 30
0.0
 10
524.4584552359436
 20
1168.620913938545
 30
0.0
 10
525.5446523398021
 20
1177.144681498689
 30
0.0
 10
526.9680708184652
 20
1185.482523736054
 30
0.0
 10
529.3715964787825
 20
1196.267694894924
 30
0.0
 10
531.8213027089776
 20
1203.938555585611
 30
0.0
 10
533.7909238720787
 20
1208.801734492191
 30
0.0
  0
SPLINE
  5
151
330
FC
100
AcDbEntity
  8
P-SANR-FIXT
100
AcDbSpline
210
0.0
220
0.0
230
1.0
 70
     8
 71
     3
 72
    14
 73
    10
 74
     0
 42
0.000000001
 43
0.0000000001
 40
0.4444444444444445
 40
0.4444444444444445
 40
0.4444444444444445
 40
0.4444444444444445
 40
0.5138888888888889
 40
0.5833333333333333
 40
0.6527777777777777
 40
0.7222222222222223
 40
0.7916666666666668
 40
0.861111111111111
 40
1.0
 40
1.0
 40
1.0
 40
1.0
 10
533.7909238720792
 20
1039.799741232566
 30
0.0
 10
532.5619933193231
 20
1042.840146375852
 30
0.0
 10
530.372032226405
 20
1049.11666332372
 30
0.0
 10
527.7666323802689
 20
1059.009754342859
 30
0.0
 10
525.8459703401
 20
1069.338598262063
 30
0.0
 10
524.4309935338749
 20
1079.9652182109
 30
0.0
 10
523.4681055498712
 20
1090.849903304583
 30
0.0
 10
522.6958489963317
 20
1105.593124796262
 30
0.0
 10
522.4646574101996
 20
1116.81396672652
 30
0.0
 10
522.4890157630627
 20
1124.300737862379
 30
0.0
  0
SPLINE
  5
152
330
FC
100
AcDbEntity
  8
P-SANR-FIXT
100
AcDbSpline
210
0.0
220
0.0
230
1.0
 70
     8
 71
     3
 72
     8
 73
     4
 74
     0
 42
0.000000001
 43
0.0000000001
 40
0.0666666666666667
 40
0.0666666666666667
 40
0.0666666666666667
 40
0.0666666666666667
 40
0.0697095931091282
 40
0.0697095931091282
 40
0.0697095931091282
 40
0.0697095931091282
 10
474.1132665728578
 20
1121.800734476599
 30
0.0
 10
474.1101358855334
 20
1121.763096597039
 30
0.0
 10
474.1069338814421
 20
1121.725478423188
 30
0.0
 10
474.1036607302519
 20
1121.687879692876
 30
0.0
  0
SPLINE
  5
153
330
FC
100
AcDbEntity
  8
P-SANR-FIXT
100
AcDbSpline
210
0.0
220
0.0
230
1.0
 70
     8
 71
     3
 72
     8
 73
     4
 74
     0
 42
0.000000001
 43
0.0000000001
 40
0.1333333333333333
 40
0.1333333333333333
 40
0.1333333333333333
 40
0.1333333333333333
 40
0.1403995821602147
 40
0.1403995821602147
 40
0.1403995821602147
 40
0.1403995821602147
 10
473.8087651159845
 20
1119.350916985362
 30
0.0
 10
473.7945044522574
 20
1119.265169623754
 30
0.0
 10
473.779853143808
 20
1119.179518242273
 30
0.0
 10
473.7648164329113
 20
1119.093956888286
 30
0.0
  0
SPLINE
  5
154
330
FC
100
AcDbEntity
  8
P-SANR-FIXT
100
AcDbSpline
210
0.0
220
0.0
230
1.0
 70
     8
 71
     3
 72
     8
 73
     4
 74
     0
 42
0.000000001
 43
0.0000000001
 40
0.2
 40
0.2
 40
0.2
 40
0.2
 40
0.2115069121630598
 40
0.2115069121630598
 40
0.2115069121630598
 40
0.2115069121630598
 10
473.3052257965895
 20
1116.944592152621
 30
0.0
 10
473.2704839021649
 20
1116.807268111561
 30
0.0
 10
473.2348507051887
 20
1116.670030596256
 30
0.0
 10
473.1983135052587
 20
1116.53291493926
 30
0.0
  0
SPLINE
  5
155
330
FC
100
AcDbEntity
  8
P-SANR-FIXT
100
AcDbSpline
210
0.0
220
0.0
230
1.0
 70
     8
 71
     3
 72
     8
 73
     4
 74
     0
 42
0.000000001
 43
0.0000000001
 40
0.2666666666666666
 40
0.2666666666666666
 40
0.2666666666666666
 40
0.2666666666666666
 40
0.2821695371860493
 40
0.2821695371860493
 40
0.2821695371860493
 40
0.2821695371860493
 10
472.601862950779
 20
1114.57982444773
 30
0.0
 10
472.5397194399597
 20
1114.398511892034
 30
0.0
 10
472.4760232193001
 20
1114.217535391335
 30
0.0
 10
472.4107198075905
 20
1114.037007914663
 30
0.0
  0
SPLINE
  5
156
330
FC
100
AcDbEntity
  8
P-SANR-FIXT
100
AcDbSpline
210
0.0
220
0.0
230
1.0
 70
     8
 71
     3
 72
     8
 73
     4
 74
     0
 42
0.000000001
 43
0.0000000001
 40
0.3333333333333333
 40
0.3333333333333333
 40
0.3333333333333333
 40
0.3333333333333333
 40
0.3526412108477961
 40
0.3526412108477961
 40
0.3526412108477961
 40
0.3526412108477961
 10
471.7041762258112
 20
1112.273709161617
 30
0.0
 10
471.6083616875423
 20
1112.05461256348
 30
0.0
 10
471.5102424303799
 20
1111.836311224816
 30
0.0
 10
471.4095751009621
 20
1111.619180509777
 30
0.0
  0
SPLINE
  5
157
330
FC
100
AcDbEntity
  8
P-SANR-FIXT
100
AcDbSpline
210
0.0
220
0.0
230
1.0
 70
     8
 71
     3
 72
     9
 73
     5
 74
     0
 42
0.000000001
 43
0.0000000001
 40
0.4
 40
0.4
 40
0.4
 40
0.4
 40
0.7
 40
0.8
 40
0.8
 40
0.8
 40
0.8
 10
470.6192365967326
 20
1110.048099290611
 30
0.0
 10
468.8549229625547
 20
1106.780990043594
 30
0.0
 10
465.6327470095694
 20
1102.978767835376
 30
0.0
 10
461.78684812399
 20
1099.861032095251
 30
0.0
 10
460.7546429592325
 20
1099.192233068056
 30
0.0
  0
SPLINE
  5
158
330
FC
100
AcDbEntity
  8
P-SANR-FIXT
100
AcDbSpline
210
0.0
220
0.0
230
1.0
 70
     8
 71
     3
 72
     9
 73
     5
 74
     0
 42
0.000000001
 43
0.0000000001
 40
0.84741193716587
 40
0.84741193716587
 40
0.84741193716587
 40
0.84741193716587
 40
0.85
 40
0.8666666666666666
 40
0.8666666666666666
 40
0.8666666666666666
 40
0.8666666666666666
 10
459.2320615807086
 20
1098.328080093996
 30
0.0
 10
459.2045058875203
 20
1098.31217288963
 30
0.0
 10
458.9994883785494
 20
1098.193882216173
 30
0.0
 10
458.7904062552405
 20
1098.082175868879
 30
0.0
 10
458.6070345531728
 20
1097.989363787394
 30
0.0
  0
SPLINE
  5
159
330
FC
100
AcDbEntity
  8
P-SANR-FIXT
100
AcDbSpline
210
0.0
220
0.0
230
1.0
 70
     8
 71
     3
 72
     8
 73
     4
 74
     0
 42
0.000000001
 43
0.0000000001
 40
0.9184269760440335
 40
0.9184269760440335
 40
0.9184269760440335
 40
0.9184269760440335
 40
0.9333333333333332
 40
0.9333333333333332
 40
0.9333333333333332
 40
0.9333333333333332
 10
456.9055349100485
 20
1097.118376790125
 30
0.0
 10
456.7385681922792
 20
1097.040614138531
 30
0.0
 10
456.569144832998
 20
1096.966526735576
 30
0.0
 10
456.3981019102337
 20
1096.894865908935
 30
0.0
  0
SPLINE
  5
15A
330
FC
100
AcDbEntity
  8
P-SANR-FIXT
100
AcDbSpline
210
0.0
220
0.0
230
1.0
 70
     8
 71
     3
 72
     8
 73
     4
 74
     0
 42
0.000000001
 43
0.0000000001
 40
0.988505992733439
 40
0.988505992733439
 40
0.988505992733439
 40
0.988505992733439
 40
1.0
 40
1.0
 40
1.0
 40
1.0
 10
454.4892725709886
 20
1096.114518792973
 30
0.0
 10
454.3537296438895
 20
1096.064638019867
 30
0.0
 10
454.2176081501078
 20
1096.015565002478
 30
0.0
 10
454.0809011770226
 20
1095.967293533673
 30
0.0
  0
LINE
  5
15B
330
FC
100
AcDbEntity
  8
P-SANR-FIXT
100
AcDbLine
 10
454.0809011770226
 20
1095.975092067559
 30
0.0
 11
454.0809011770226
 21
1095.95868347135
 31
0.0
  0
LINE
  5
15C
330
FC
100
AcDbEntity
  8
P-SANR-FIXT
100
AcDbLine
 10
454.080901177023
 20
958.8095607697965
 30
0.0
 11
454.0809011770226
 21
1095.967293533672
 31
0.0
  0
LINE
  5
15D
330
FC
100
AcDbEntity
  8
P-SANR-FIXT
100
AcDbLine
 10
1044.499916572324
 20
1216.615060521653
 30
0.0
 11
1044.499916572324
 21
1282.292952016394
 31
0.0
  0
LINE
  5
15E
330
FC
100
AcDbEntity
  8
P-SANR-FIXT
100
AcDbLine
 10
1044.499916572325
 20
966.3085237083658
 30
0.0
 11
1044.499916572325
 21
1031.973591817959
 31
0.0
  0
LINE
  5
15F
330
FC
100
AcDbEntity
  8
P-SANR-FIXT
100
AcDbLine
 10
1057.49029762909
 20
1192.245132987897
 30
0.0
 11
1057.49029762909
 21
1289.792952016394
 31
0.0
  0
SPLINE
  5
160
330
FC
100
AcDbEntity
  8
P-SANR-FIXT
100
AcDbSpline
210
0.0
220
0.0
230
1.0
 70
     8
 71
     3
 72
     8
 73
     4
 74
     0
 42
0.000000001
 43
0.0000000001
 40
0.0666666666666667
 40
0.0666666666666667
 40
0.0666666666666667
 40
0.0666666666666667
 40
0.0697095931090913
 40
0.0697095931090913
 40
0.0697095931090913
 40
0.0697095931090913
 10
1122.457932233256
 20
1126.80074124816
 30
0.0
 10
1122.46106292058
 20
1126.838379127719
 30
0.0
 10
1122.464264924671
 20
1126.875997301571
 30
0.0
 10
1122.467538075861
 20
1126.913596031882
 30
0.0
  0
SPLINE
  5
161
330
FC
100
AcDbEntity
  8
P-SANR-FIXT
100
AcDbSpline
210
0.0
220
0.0
230
1.0
 70
     8
 71
     3
 72
     8
 73
     4
 74
     0
 42
0.000000001
 43
0.0000000001
 40
0.1333333333333333
 40
0.1333333333333333
 40
0.1333333333333333
 40
0.1333333333333333
 40
0.1403995821601771
 40
0.1403995821601771
 40
0.1403995821601771
 40
0.1403995821601771
 10
1122.762433690129
 20
1129.250558739398
 30
0.0
 10
1122.776694353856
 20
1129.336306101005
 30
0.0
 10
1122.791345662305
 20
1129.421957482485
 30
0.0
 10
1122.806382373202
 20
1129.507518836473
 30
0.0
  0
SPLINE
  5
162
330
FC
100
AcDbEntity
  8
P-SANR-FIXT
100
AcDbSpline
210
0.0
220
0.0
230
1.0
 70
     8
 71
     3
 72
     8
 73
     4
 74
     0
 42
0.000000001
 43
0.0000000001
 40
0.2
 40
0.2
 40
0.2
 40
0.2
 40
0.2115069121630232
 40
0.2115069121630232
 40
0.2115069121630232
 40
0.2115069121630232
 10
1123.265973009524
 20
1131.656883572138
 30
0.0
 10
1123.300714903949
 20
1131.794207613197
 30
0.0
 10
1123.336348100925
 20
1131.931445128502
 30
0.0
 10
1123.372885300854
 20
1132.068560785499
 30
0.0
  0
SPLINE
  5
163
330
FC
100
AcDbEntity
  8
P-SANR-FIXT
100
AcDbSpline
210
0.0
220
0.0
230
1.0
 70
     8
 71
     3
 72
     8
 73
     4
 74
     0
 42
0.000000001
 43
0.0000000001
 40
0.2666666666666666
 40
0.2666666666666666
 40
0.2666666666666666
 40
0.2666666666666666
 40
0.2821695371860222
 40
0.2821695371860222
 40
0.2821695371860222
 40
0.2821695371860222
 10
1123.969335855335
 20
1134.02165127703
 30
0.0
 10
1124.031479366154
 20
1134.202963832725
 30
0.0
 10
1124.095175586814
 20
1134.383940333424
 30
0.0
 10
1124.160478998523
 20
1134.564467810095
 30
0.0
  0
SPLINE
  5
164
330
FC
100
AcDbEntity
  8
P-SANR-FIXT
100
AcDbSpline
210
0.0
220
0.0
230
1.0
 70
     8
 71
     3
 72
     8
 73
     4
 74
     0
 42
0.000000001
 43
0.0000000001
 40
0.3333333333333333
 40
0.3333333333333333
 40
0.3333333333333333
 40
0.3333333333333333
 40
0.3526412108477656
 40
0.3526412108477656
 40
0.3526412108477656
 40
0.3526412108477656
 10
1124.867022580303
 20
1136.327766563142
 30
0.0
 10
1124.962837118571
 20
1136.546863161279
 30
0.0
 10
1125.060956375734
 20
1136.765164499943
 30
0.0
 10
1125.161623705151
 20
1136.982295214981
 30
0.0
  0
SPLINE
  5
165
330
FC
100
AcDbEntity
  8
P-SANR-FIXT
100
AcDbSpline
210
0.0
220
0.0
230
1.0
 70
     8
 71
     3
 72
     9
 73
     5
 74
     0
 42
0.000000001
 43
0.0000000001
 40
0.4
 40
0.4
 40
0.4
 40
0.4
 40
0.7
 40
0.8
 40
0.8
 40
0.8
 40
0.8
 10
1125.951962209381
 20
1138.553376434148
 30
0.0
 10
1127.716275843559
 20
1141.820485681165
 30
0.0
 10
1130.938451796545
 20
1145.622707889383
 30
0.0
 10
1134.784350682124
 20
1148.740443629507
 30
0.0
 10
1135.816555846882
 20
1149.409242656703
 30
0.0
  0
SPLINE
  5
166
330
FC
100
AcDbEntity
  8
P-SANR-FIXT
100
AcDbSpline
210
0.0
220
0.0
230
1.0
 70
     8
 71
     3
 72
     9
 73
     5
 74
     0
 42
0.000000001
 43
0.0000000001
 40
0.847411937165843
 40
0.847411937165843
 40
0.847411937165843
 40
0.847411937165843
 40
0.85
 40
0.8666666666666666
 40
0.8666666666666666
 40
0.8666666666666666
 40
0.8666666666666666
 10
1137.339137225404
 20
1150.273395630762
 30
0.0
 10
1137.366692918593
 20
1150.289302835129
 30
0.0
 10
1137.571710427564
 20
1150.407593508586
 30
0.0
 10
1137.780792550875
 20
1150.51929985588
 30
0.0
 10
1137.964164252942
 20
1150.612111937365
 30
0.0
  0
SPLINE
  5
167
330
FC
100
AcDbEntity
  8
P-SANR-FIXT
100
AcDbSpline
210
0.0
220
0.0
230
1.0
 70
     8
 71
     3
 72
     8
 73
     4
 74
     0
 42
0.000000001
 43
0.0000000001
 40
0.918426976044015
 40
0.918426976044015
 40
0.918426976044015
 40
0.918426976044015
 40
0.9333333333333332
 40
0.9333333333333332
 40
0.9333333333333332
 40
0.9333333333333332
 10
1139.665663896065
 20
1151.483098934634
 30
0.0
 10
1139.832630613834
 20
1151.560861586228
 30
0.0
 10
1140.002053973115
 20
1151.634948989183
 30
0.0
 10
1140.17309689588
 20
1151.706609815824
 30
0.0
  0
SPLINE
  5
168
330
FC
100
AcDbEntity
  8
P-SANR-FIXT
100
AcDbSpline
210
0.0
220
0.0
230
1.0
 70
     8
 71
     3
 72
     8
 73
     4
 74
     0
 42
0.000000001
 43
0.0000000001
 40
0.9885059927334321
 40
0.9885059927334321
 40
0.9885059927334321
 40
0.9885059927334321
 40
1.0
 40
1.0
 40
1.0
 40
1.0
 10
1142.081926235125
 20
1152.486956931786
 30
0.0
 10
1142.217469162224
 20
1152.536837704893
 30
0.0
 10
1142.353590656006
 20
1152.585910722281
 30
0.0
 10
1142.490297629091
 20
1152.634182191086
 30
0.0
  0
LINE
  5
169
330
FC
100
AcDbEntity
  8
P-SANR-FIXT
100
AcDbLine
 10
1057.490297629092
 20
958.8085237083667
 30
0.0
 11
1057.490297629091
 21
1056.45298497681
 31
0.0
  0
SPLINE
  5
16A
330
FC
100
AcDbEntity
  8
P-SANR-FIXT
100
AcDbSpline
210
0.0
220
0.0
230
1.0
 70
     8
 71
     3
 72
     8
 73
     4
 74
     0
 42
0.000000001
 43
0.0000000001
 40
0.0
 40
0.0
 40
0.0
 40
0.0
 40
0.011494007266571
 40
0.011494007266571
 40
0.011494007266571
 40
0.011494007266571
 10
1142.490297629091
 20
1095.967293533676
 30
0.0
 10
1142.353590656006
 20
1096.015565002481
 30
0.0
 10
1142.217468640899
 20
1096.064640512184
 30
0.0
 10
1142.081926489188
 20
1096.114524393015
 30
0.0
  0
SPLINE
  5
16B
330
FC
100
AcDbEntity
  8
P-SANR-FIXT
100
AcDbSpline
210
0.0
220
0.0
230
1.0
 70
     8
 71
     3
 72
     8
 73
     4
 74
     0
 42
0.000000001
 43
0.0000000001
 40
0.0666666666666667
 40
0.0666666666666667
 40
0.0666666666666667
 40
0.0666666666666667
 40
0.0815730239559787
 40
0.0815730239559787
 40
0.0815730239559787
 40
0.0815730239559787
 10
1140.169587872663
 20
1096.889227247642
 30
0.0
 10
1140.000873142327
 20
1096.964114614569
 30
0.0
 10
1139.833167277205
 20
1097.040446334051
 30
0.0
 10
1139.666434103186
 20
1097.118215150737
 30
0.0
  0
SPLINE
  5
16C
330
FC
100
AcDbEntity
  8
P-SANR-FIXT
100
AcDbSpline
210
0.0
220
0.0
230
1.0
 70
     8
 71
     3
 72
     8
 73
     4
 74
     0
 42
0.000000001
 43
0.0000000001
 40
0.1333333333333333
 40
0.1333333333333333
 40
0.1333333333333333
 40
0.1333333333333333
 40
0.1525880628341368
 40
0.1525880628341368
 40
0.1525880628341368
 40
0.1525880628341368
 10
1137.960986611394
 20
1097.978525114805
 30
0.0
 10
1137.753561651894
 20
1098.091614862153
 30
0.0
 10
1137.547756644365
 20
1098.207190828854
 30
0.0
 10
1137.343422660346
 20
1098.325196355121
 30
0.0
  0
SPLINE
  5
16D
330
FC
100
AcDbEntity
  8
P-SANR-FIXT
100
AcDbSpline
210
0.0
220
0.0
230
1.0
 70
     8
 71
     3
 72
     9
 73
     5
 74
     0
 42
0.000000001
 43
0.0000000001
 40
0.2
 40
0.2
 40
0.2
 40
0.2
 40
0.4
 40
0.6
 40
0.6
 40
0.6
 40
0.6
 10
1135.858529376088
 20
1099.240256737821
 30
0.0
 10
1133.807155997365
 20
1100.589895106315
 30
0.0
 10
1129.961079132576
 20
1103.808301508492
 30
0.0
 10
1127.213636055534
 20
1107.908406405022
 30
0.0
 10
1126.033536170524
 20
1110.078922874309
 30
0.0
  0
SPLINE
  5
16E
330
FC
100
AcDbEntity
  8
P-SANR-FIXT
100
AcDbSpline
210
0.0
220
0.0
230
1.0
 70
     8
 71
     3
 72
     8
 73
     4
 74
     0
 42
0.000000001
 43
0.0000000001
 40
0.647358789152214
 40
0.647358789152214
 40
0.647358789152214
 40
0.647358789152214
 40
0.6666666666666666
 40
0.6666666666666666
 40
0.6666666666666666
 40
0.6666666666666666
 10
1125.165328568985
 20
1111.621033376081
 30
0.0
 10
1125.06449802762
 20
1111.836968230922
 30
0.0
 10
1124.96739821523
 20
1112.054408534776
 30
0.0
 10
1124.872779067512
 20
1112.272947906721
 30
0.0
  0
SPLINE
  5
16F
330
FC
100
AcDbEntity
  8
P-SANR-FIXT
100
AcDbSpline
210
0.0
220
0.0
230
1.0
 70
     8
 71
     3
 72
     8
 73
     4
 74
     0
 42
0.000000001
 43
0.0000000001
 40
0.717830462813968
 40
0.717830462813968
 40
0.717830462813968
 40
0.717830462813968
 40
0.7333333333333333
 40
0.7333333333333333
 40
0.7333333333333333
 40
0.7333333333333333
 10
1124.165353018143
 20
1114.030136102288
 30
0.0
 10
1124.09976797198
 20
1114.209858035816
 30
0.0
 10
1124.034222197906
 20
1114.389792793399
 30
0.0
 10
1123.96932017531
 20
1114.570049744304
 30
0.0
  0
SPLINE
  5
170
330
FC
100
AcDbEntity
  8
P-SANR-FIXT
100
AcDbSpline
210
0.0
220
0.0
230
1.0
 70
     8
 71
     3
 72
     8
 73
     4
 74
     0
 42
0.000000001
 43
0.0000000001
 40
0.7884930878369497
 40
0.7884930878369497
 40
0.7884930878369497
 40
0.7884930878369497
 40
0.8
 40
0.8
 40
0.8
 40
0.8
 10
1123.377092372771
 20
1116.523221636518
 30
0.0
 10
1123.340257121801
 20
1116.660296800319
 30
0.0
 10
1123.30346835871
 20
1116.797413832463
 30
0.0
 10
1123.267254227741
 20
1116.934677945571
 30
0.0
  0
SPLINE
  5
171
330
FC
100
AcDbEntity
  8
P-SANR-FIXT
100
AcDbSpline
210
0.0
220
0.0
230
1.0
 70
     8
 71
     3
 72
     8
 73
     4
 74
     0
 42
0.000000001
 43
0.0000000001
 40
0.859600417839804
 40
0.859600417839804
 40
0.859600417839804
 40
0.859600417839804
 40
0.8666666666666666
 40
0.8666666666666666
 40
0.8666666666666666
 40
0.8666666666666666
 10
1122.807493597757
 20
1119.090227396748
 30
0.0
 10
1122.792412042925
 20
1119.176010238738
 30
0.0
 10
1122.778411065214
 20
1119.262032298376
 30
0.0
 10
1122.765383806653
 20
1119.348269853728
 30
0.0
  0
SPLINE
  5
172
330
FC
100
AcDbEntity
  8
P-SANR-FIXT
100
AcDbSpline
210
0.0
220
0.0
230
1.0
 70
     8
 71
     3
 72
     8
 73
     4
 74
     0
 42
0.000000001
 43
0.0000000001
 40
0.9302904068908809
 40
0.9302904068908809
 40
0.9302904068908809
 40
0.9302904068908809
 40
0.9333333333333332
 40
0.9333333333333332
 40
0.9333333333333332
 40
0.9333333333333332
 10
1122.467547587801
 20
1121.68750479899
 30
0.0
 10
1122.464275904958
 20
1121.725126418909
 30
0.0
 10
1122.461202901878
 20
1121.762799270288
 30
0.0
 10
1122.458311494841
 20
1121.800518943286
 30
0.0
  0
LINE
  5
173
330
FC
100
AcDbEntity
  8
P-SANR-FIXT
100
AcDbLine
 10
1142.490297629091
 20
1152.634182191085
 30
0.0
 11
1142.49029762909
 21
1289.791914954961
 31
0.0
  0
LINE
  5
174
330
FC
100
AcDbEntity
  8
P-SANR-FIXT
100
AcDbLine
 10
1142.490297629091
 20
1152.642792253412
 30
0.0
 11
1142.490297629091
 21
1152.626383657201
 31
0.0
  0
SPLINE
  5
175
330
FC
100
AcDbEntity
  8
P-SANR-FIXT
100
AcDbSpline
210
0.0
220
0.0
230
1.0
 70
     8
 71
     3
 72
     8
 73
     4
 74
     0
 42
0.000000001
 43
0.0000000001
 40
-0.7851370011125272
 40
-0.7851370011125272
 40
-0.7851370011125272
 40
-0.7851370011125272
 40
-0.75
 40
-0.75
 40
-0.75
 40
-0.75
 10
1144.57577791144
 20
1153.275830496732
 30
0.0
 10
1144.690338097646
 20
1153.306566302459
 30
0.0
 10
1144.804997516005
 20
1153.337265188924
 30
0.0
 10
1144.91975759263
 20
1153.367684325934
 30
0.0
  0
SPLINE
  5
176
330
FC
100
AcDbEntity
  8
P-SANR-FIXT
100
AcDbSpline
210
0.0
220
0.0
230
1.0
 70
     8
 71
     3
 72
     8
 73
     4
 74
     0
 42
0.000000001
 43
0.0000000001
 40
-0.5248732774652443
 40
-0.5248732774652443
 40
-0.5248732774652443
 40
-0.5248732774652443
 40
-0.5
 40
-0.5
 40
-0.5
 40
-0.5
 10
1147.13875980241
 20
1153.844630652813
 30
0.0
 10
1147.22084756117
 20
1153.859112235477
 30
0.0
 10
1147.302967298751
 20
1153.873572684827
 30
0.0
 10
1147.385114383295
 20
1153.887032023177
 30
0.0
  0
SPLINE
  5
177
330
FC
100
AcDbEntity
  8
P-SANR-FIXT
100
AcDbSpline
210
0.0
220
0.0
230
1.0
 70
     8
 71
     3
 72
     8
 73
     4
 74
     0
 42
0.000000001
 43
0.0000000001
 40
-0.2624766158298966
 40
-0.2624766158298966
 40
-0.2624766158298966
 40
-0.2624766158298966
 40
-0.25
 40
-0.25
 40
-0.25
 40
-0.25
 10
1149.743742741945
 20
1154.187249169773
 30
0.0
 10
1149.78508890644
 20
1154.19085464734
 30
0.0
 10
1149.826428087318
 20
1154.194210607361
 30
0.0
 10
1149.867760948689
 20
1154.197340381041
 30
0.0
  0
SPLINE
  5
178
330
FC
100
AcDbEntity
  8
P-SANR-FIXT
100
AcDbSpline
210
0.0
220
0.0
230
1.0
 70
     8
 71
     3
 72
    10
 73
     6
 74
     0
 42
0.000000001
 43
0.0000000001
 40
-1.0
 40
-1.0
 40
-1.0
 40
-1.0
 40
-0.6666666666666666
 40
-0.3333333333333333
 40
0.0
 40
0.0
 40
0.0
 40
0.0
 10
1170.558371429565
 20
1154.300737862381
 30
0.0
 10
1169.060280370446
 20
1151.15862488586
 30
0.0
 10
1166.536139949272
 20
1144.745969825372
 30
0.0
 10
1164.035574967259
 20
1134.66484147711
 30
0.0
 10
1163.486587628654
 20
1127.78970894364
 30
0.0
 10
1163.46986138146
 20
1124.300737862381
 30
0.0
  0
SPLINE
  5
179
330
FC
100
AcDbEntity
  8
P-SANR-FIXT
100
AcDbSpline
210
0.0
220
0.0
230
1.0
 70
     8
 71
     3
 72
    10
 73
     6
 74
     0
 42
0.000000001
 43
0.0000000001
 40
-1.0
 40
-1.0
 40
-1.0
 40
-1.0
 40
-0.6666666666666666
 40
-0.3333333333333333
 40
0.0
 40
0.0
 40
0.0
 40
0.0
 10
1163.46986138146
 20
1124.300737862381
 30
0.0
 10
1163.486587628654
 20
1120.811766781123
 30
0.0
 10
1164.035574967259
 20
1113.936634247652
 30
0.0
 10
1166.536139949272
 20
1103.855505899391
 30
0.0
 10
1169.060280370446
 20
1097.442850838902
 30
0.0
 10
1170.558371429566
 20
1094.300737862381
 30
0.0
  0
SPLINE
  5
17A
330
FC
100
AcDbEntity
  8
P-SANR-FIXT
100
AcDbSpline
210
0.0
220
0.0
230
1.0
 70
     8
 71
     3
 72
     8
 73
     4
 74
     0
 42
0.000000001
 43
0.0000000001
 40
-0.75
 40
-0.75
 40
-0.75
 40
-0.75
 40
-0.737523384170053
 40
-0.737523384170053
 40
-0.737523384170053
 40
-0.737523384170053
 10
1149.867781543046
 20
1094.403669078525
 30
0.0
 10
1149.8264352947
 20
1094.40710193912
 30
0.0
 10
1149.785077844559
 20
1094.410535239465
 30
0.0
 10
1149.743711212482
 20
1094.413981892724
 30
0.0
  0
SPLINE
  5
17B
330
FC
100
AcDbEntity
  8
P-SANR-FIXT
100
AcDbSpline
210
0.0
220
0.0
230
1.0
 70
     8
 71
     3
 72
     8
 73
     4
 74
     0
 42
0.000000001
 43
0.0000000001
 40
-0.5
 40
-0.5
 40
-0.5
 40
-0.5
 40
-0.4751267225347214
 40
-0.4751267225347214
 40
-0.4751267225347214
 40
-0.4751267225347214
 10
1147.385114383295
 20
1094.714443701584
 30
0.0
 10
1147.302966769024
 20
1094.728229692862
 30
0.0
 10
1147.220962559982
 20
1094.743024116344
 30
0.0
 10
1147.13908763646
 20
1094.758728361366
 30
0.0
  0
SPLINE
  5
17C
330
FC
100
AcDbEntity
  8
P-SANR-FIXT
100
AcDbSpline
210
0.0
220
0.0
230
1.0
 70
     8
 71
     3
 72
     8
 73
     4
 74
     0
 42
0.000000001
 43
0.0000000001
 40
-0.25
 40
-0.25
 40
-0.25
 40
-0.25
 40
-0.2148629988875075
 40
-0.2148629988875075
 40
-0.2148629988875075
 40
-0.2148629988875075
 10
1144.919828767034
 20
1095.235518758179
 30
0.0
 10
1144.80502457528
 20
1095.264867247925
 30
0.0
 10
1144.690600258994
 20
1095.296101427967
 30
0.0
 10
1144.576453856723
 20
1095.328718642971
 30
0.0
  0
LINE
  5
17D
330
FC
100
AcDbEntity
  8
P-SANR-FIXT
100
AcDbLine
 10
1142.490297629091
 20
1095.975092067562
 30
0.0
 11
1142.490297629091
 21
1095.958683471352
 31
0.0
  0
LINE
  5
17E
330
FC
100
AcDbEntity
  8
P-SANR-FIXT
100
AcDbLine
 10
1142.490297629092
 20
958.8095607698003
 30
0.0
 11
1142.490297629091
 21
1095.967293533675
 31
0.0
  0
LINE
  5
17F
330
FC
100
AcDbEntity
  8
P-SANR-FIXT
100
AcDbLine
 10
1182.350111647222
 20
1124.30073786238
 30
0.0
 11
1182.350111647221
 21
1364.300737862383
 31
0.0
  0
LINE
  5
180
330
FC
100
AcDbEntity
  8
P-SANR-FIXT
100
AcDbLine
 10
1182.350111647223
 20
884.3007378623784
 30
0.0
 11
1182.350111647222
 21
1124.30073786238
 31
0.0
  0
LINE
  5
181
330
FC
100
AcDbEntity
  8
P-SANR-FIXT
100
AcDbLine
 10
1217.350111647222
 20
1124.30073786238
 30
0.0
 11
1217.350111647221
 21
1364.300737862383
 31
0.0
  0
LINE
  5
182
330
FC
100
AcDbEntity
  8
P-SANR-FIXT
100
AcDbLine
 10
1217.350111647222
 20
884.3007378623784
 30
0.0
 11
1217.350111647222
 21
1124.30073786238
 31
0.0
  0
ARC
  5
183
330
FC
100
AcDbEntity
  8
P-SANR-FIXT
100
AcDbCircle
 10
444.2210871588915
 20
1124.300737862378
 30
0.0
 40
29.99999999999998
100
AcDbArc
 50
269.9999999999989
 51
89.99999999999925
  0
LINE
  5
184
330
FC
100
AcDbEntity
  8
P-SANR-FIXT
100
AcDbLine
 10
444.2210871588917
 20
1154.300737862378
 30
0.0
 11
426.0128273765478
 21
1154.300737862378
 31
0.0
  0
LINE
  5
185
330
FC
100
AcDbEntity
  8
P-SANR-FIXT
100
AcDbLine
 10
426.0128273765482
 20
1094.300737862378
 30
0.0
 11
444.2210871588915
 21
1094.300737862378
 31
0.0
  0
ARC
  5
186
330
FC
100
AcDbEntity
  8
P-SANR-FIXT
100
AcDbCircle
 10
1152.350111647222
 20
1124.300737862381
 30
0.0
 40
30.0
100
AcDbArc
 50
89.99999999999957
 51
269.9999999999997
  0
LINE
  5
187
330
FC
100
AcDbEntity
  8
P-SANR-FIXT
100
AcDbLine
 10
1152.350111647222
 20
1094.300737862381
 30
0.0
 11
1170.558371429566
 21
1094.300737862381
 31
0.0
  0
LINE
  5
188
330
FC
100
AcDbEntity
  8
P-SANR-FIXT
100
AcDbLine
 10
1170.558371429565
 20
1154.300737862381
 30
0.0
 11
1152.350111647222
 21
1154.300737862381
 31
0.0
  0
ELLIPSE
  5
189
330
FC
100
AcDbEntity
  8
P-SANR-FIXT
100
AcDbEllipse
 10
842.5539834264764
 20
1124.300737862379
 30
0.0
 11
0.0
 21
199.6418141452983
 31
0.0
210
0.0
220
0.0
230
1.0
 40
0.8660254037844362
 41
5.591210575340955
 42
7.777089506089415
  0
ELLIPSE
  5
18A
330
FC
100
AcDbEntity
  8
P-SANR-FIXT
100
AcDbEllipse
 10
842.5539834264764
 20
1124.300737862379
 30
0.0
 11
0.0
 21
199.6418141452982
 31
0.0
210
0.0
220
0.0
230
1.0
 40
0.8660254037844385
 41
1.570796326794893
 42
3.801149759891062
  0
ELLIPSE
  5
18B
330
FC
100
AcDbEntity
  8
P-SANR-FIXT
100
AcDbEllipse
 10
805.0768274132602
 20
1124.300737862379
 30
0.0
 11
0.0
 21
202.259276397986
 31
0.0
210
0.0
220
0.0
230
0.9999999999999998
 40
0.8660254037844383
 41
6.201070151645686
 42
7.85398163397448
  0
ELLIPSE
  5
18C
330
FC
100
AcDbEntity
  8
P-SANR-FIXT
100
AcDbEllipse
 10
805.0768274132602
 20
1124.300737862379
 30
0.0
 11
0.0
 21
202.259276397986
 31
0.0
210
0.0
220
0.0
230
0.9999999999999998
 40
0.8660254037844378
 41
1.570796326794893
 42
3.223707809123702
  0
ELLIPSE
  5
18D
330
FC
100
AcDbEntity
  8
P-SANR-FIXT
100
AcDbEllipse
 10
764.337517558576
 20
1124.300737862379
 30
0.0
 11
0.0
 21
187.4436636463845
 31
0.0
210
0.0
220
0.0
230
0.9999999999999998
 40
0.8660254037844383
 41
0.2045915727847611
 42
1.570796326794894
  0
ELLIPSE
  5
18E
330
FC
100
AcDbEntity
  8
P-SANR-FIXT
100
AcDbEllipse
 10
764.337517558576
 20
1124.300737862379
 30
0.0
 11
0.0
 21
187.4436636463846
 31
0.0
210
0.0
220
0.0
230
1.0
 40
0.8660254037844378
 41
1.570796326794893
 42
2.937001080805035
  0
ENDBLK
  5
190
330
FC
100
AcDbEntity
  8
0
100
AcDbBlockEnd
  0
BLOCK
  5
1E1
330
192
100
AcDbEntity
  8
0
100
AcDbBlockBegin
  2
Automatic flow rate regulator valve_Caleffi_121 DN15 - 1_2__-V2-Est - Idraulica
 70
     0
 10
0.0
 20
0.0
 30
0.0
  3
Automatic flow rate regulator valve_Caleffi_121 DN15 - 1_2__-V2-Est - Idraulica
  1

  0
LWPOLYLINE
  5
193
330
192
100
AcDbEntity
  8
P-SANR-FIXT
100
AcDbPolyline
 90
       41
 70
   128
 43
0.0
 10
1828.278244810765
 20
2450.706721382504
 10
1828.426110398323
 20
2454.403823205544
 10
1828.868118762165
 20
2458.083736211067
 10
1829.599681514254
 20
2461.730234908922
 10
1830.613698370493
 20
2465.328855799739
 10
1831.901245663971
 20
2468.867415679064
 10
1833.452325524769
 20
2472.336210032267
 10
1835.256550258887
 20
2475.727924963909
 10
1837.303679438432
 20
2479.037343241706
 10
1839.58397763341
 20
2482.260939505507
 10
1842.088401759109
 20
2485.396448324264
 10
1844.808651300967
 20
2488.44246421957
 10
1847.737123016178
 20
2491.398106382452
 10
1850.866809071057
 20
2494.262759388248
 10
1854.191169481684
 20
2497.035887052472
 10
1857.704000337868
 20
2499.716909066298
 10
1861.399310963449
 20
2502.305127395976
 10
1865.271216818384
 20
2504.799689724098
 10
1869.31385062826
 20
2507.199578961022
 10
1873.521291583022
 20
2509.503620085519
 10
1877.887511022686
 20
2511.71049773993
 10
1882.406332410732
 20
2513.818779858326
 10
1887.071403267014
 20
2515.826944074962
 10
1891.876176869633
 20
2517.733404764376
 10
1896.813901796593
 20
2519.5365393612
 10
1901.877617678022
 20
2521.234713163361
 10
1907.060155821713
 20
2522.82630219751
 10
1912.35414363621
 20
2524.309713970328
 10
1917.752011998508
 20
2525.683406082965
 10
1923.246004897205
 20
2526.945902776701
 10
1928.828190830061
 20
2528.095809527297
 10
1934.490475552371
 20
2529.131825827564
 10
1940.224615864497
 20
2530.052756302716
 10
1946.022234198202
 20
2530.857520297774
 10
1951.874833816264
 20
2531.545160064994
 10
1957.773814481706
 20
2532.114847665056
 10
1963.710488484724
 20
2532.565890680137
 10
1969.676096939215
 20
2532.897736821138
 10
1975.661826278467
 20
2533.109977495899
 10
1981.658824892457
 20
2533.202350390199
 10
1983.278244810765
 20
2533.206721382505
  0
LWPOLYLINE
  5
194
330
192
100
AcDbEntity
  8
P-SANR-FIXT
100
AcDbPolyline
 90
       41
 70
   128
 43
0.0
 10
2138.278244810765
 20
2450.706721382504
 10
2138.130379223207
 20
2454.403823205543
 10
2137.688370859365
 20
2458.083736211067
 10
2136.956808107275
 20
2461.730234908922
 10
2135.942791251037
 20
2465.328855799738
 10
2134.655243957559
 20
2468.867415679064
 10
2133.104164096761
 20
2472.336210032267
 10
2131.299939362643
 20
2475.727924963909
 10
2129.252810183098
 20
2479.037343241705
 10
2126.97251198812
 20
2482.260939505507
 10
2124.468087862421
 20
2485.396448324263
 10
2121.747838320563
 20
2488.44246421957
 10
2118.819366605352
 20
2491.398106382451
 10
2115.689680550473
 20
2494.262759388247
 10
2112.365320139846
 20
2497.035887052472
 10
2108.852489283663
 20
2499.716909066298
 10
2105.15717865808
 20
2502.305127395976
 10
2101.285272803146
 20
2504.799689724098
 10
2097.242638993269
 20
2507.199578961022
 10
2093.035198038508
 20
2509.503620085518
 10
2088.668978598844
 20
2511.71049773993
 10
2084.150157210798
 20
2513.818779858326
 10
2079.485086354516
 20
2515.826944074962
 10
2074.680312751897
 20
2517.733404764376
 10
2069.742587824937
 20
2519.536539361199
 10
2064.678871943509
 20
2521.234713163361
 10
2059.496333799817
 20
2522.826302197509
 10
2054.20234598532
 20
2524.309713970328
 10
2048.804477623022
 20
2525.683406082965
 10
2043.310484724325
 20
2526.945902776701
 10
2037.728298791469
 20
2528.095809527297
 10
2032.066014069159
 20
2529.131825827563
 10
2026.331873757033
 20
2530.052756302716
 10
2020.534255423328
 20
2530.857520297774
 10
2014.681655805267
 20
2531.545160064994
 10
2008.782675139825
 20
2532.114847665056
 10
2002.846001136806
 20
2532.565890680137
 10
1996.880392682315
 20
2532.897736821138
 10
1990.894663343063
 20
2533.109977495899
 10
1984.897664729073
 20
2533.202350390199
 10
1983.278244810766
 20
2533.206721382505
  0
LINE
  5
195
330
192
100
AcDbEntity
  8
P-SANR-FIXT
100
AcDbLine
 10
1828.278244810765
 20
2450.706721382504
 30
0.0
 11
1828.278244810765
 21
2421.746450413472
 31
0.0
  0
LINE
  5
196
330
192
100
AcDbEntity
  8
P-SANR-FIXT
100
AcDbLine
 10
2138.278244810765
 20
2421.746450413472
 30
0.0
 11
2138.278244810765
 21
2450.706721382504
 31
0.0
  0
ELLIPSE
  5
197
330
192
100
AcDbEntity
  8
P-SANR-FIXT
100
AcDbEllipse
 10
1983.278244810762
 20
2421.746450413471
 30
0.0
 11
155.0
 21
0.0
 31
0.0
210
0.0
220
0.0
230
1.0
 40
0.5000000000000029
 41
1.570796326794895
 42
3.598327381383751
  0
ELLIPSE
  5
198
330
192
100
AcDbEntity
  8
P-SANR-FIXT
100
AcDbEllipse
 10
1983.278244810762
 20
2421.746450413471
 30
0.0
 11
154.9999999999998
 21
0.0
 31
0.0
210
0.0
220
0.0
230
1.0
 40
0.5000000000000027
 41
5.826353528072108
 42
7.853981633974475
  0
LWPOLYLINE
  5
199
330
192
100
AcDbEntity
  8
P-SANR-FIXT
100
AcDbPolyline
 90
       38
 70
   128
 43
0.0
 10
1822.796877949924
 20
2353.98584972922
 10
1823.078216061617
 20
2354.984567185332
 10
1824.780856500403
 20
2359.665183263379
 10
1826.801143931681
 20
2364.184438690616
 10
1829.112127435227
 20
2368.529809929082
 10
1831.68804777082
 20
2372.694971675995
 10
1834.50540263541
 20
2376.678567570455
 10
1837.543499580103
 20
2380.48289961474
 10
1840.784596387259
 20
2384.112713689623
 10
1844.213753721889
 20
2387.574179366932
 10
1847.818516952838
 20
2390.874097956878
 10
1851.588519766315
 20
2394.019330241351
 10
1855.515074033967
 20
2397.016412831249
 10
1859.590785418127
 20
2399.871324122419
 10
1863.809215156015
 20
2402.589361705204
 10
1868.164595506913
 20
2405.175098333098
 10
1872.651598416332
 20
2407.632390247896
 10
1877.265152680807
 20
2409.964418156643
 10
1882.000303047206
 20
2412.173746714783
 10
1886.852104295386
 20
2414.262392775626
 10
1891.815543767274
 20
2416.231895977728
 10
1896.885486590937
 20
2418.083387631235
 10
1902.056638749447
 20
2419.817655530378
 10
1907.323524021477
 20
2421.435203443889
 10
1912.680471606206
 20
2422.936304769024
 10
1918.121611914776
 20
2424.321050294498
 10
1923.64087856289
 20
2425.589390289733
 10
1929.232015044517
 20
2426.741171284764
 10
1934.888584919953
 20
2427.776167970628
 10
1940.603984628152
 20
2428.69411066429
 10
1946.371458247935
 20
2429.49470876523
 10
1952.184113697895
 20
2430.177670596197
 10
1958.034939991053
 20
2430.742719976815
 10
1963.916825256088
 20
2431.189609831032
 10
1969.822575308941
 20
2431.518133080945
 10
1975.74493261202
 20
2431.728131032058
 10
1981.676595497098
 20
2431.819499409196
 10
1983.278244810765
 20
2431.823822443091
  0
LWPOLYLINE
  5
19A
330
192
100
AcDbEntity
  8
P-SANR-FIXT
100
AcDbPolyline
 90
       38
 70
   128
 43
0.0
 10
2143.759611671606
 20
2353.98584972922
 10
2143.478273559912
 20
2354.984567185331
 10
2141.775633121127
 20
2359.665183263379
 10
2139.755345689849
 20
2364.184438690615
 10
2137.444362186303
 20
2368.529809929082
 10
2134.86844185071
 20
2372.694971675995
 10
2132.05108698612
 20
2376.678567570454
 10
2129.012990041427
 20
2380.482899614739
 10
2125.771893234272
 20
2384.112713689622
 10
2122.342735899641
 20
2387.574179366931
 10
2118.737972668693
 20
2390.874097956877
 10
2114.967969855216
 20
2394.019330241351
 10
2111.041415587564
 20
2397.016412831248
 10
2106.965704203402
 20
2399.871324122418
 10
2102.747274465516
 20
2402.589361705203
 10
2098.391894114617
 20
2405.175098333098
 10
2093.904891205198
 20
2407.632390247896
 10
2089.291336940723
 20
2409.964418156643
 10
2084.556186574324
 20
2412.173746714782
 10
2079.704385326144
 20
2414.262392775626
 10
2074.740945854257
 20
2416.231895977728
 10
2069.671003030594
 20
2418.083387631235
 10
2064.499850872083
 20
2419.817655530378
 10
2059.232965600053
 20
2421.435203443889
 10
2053.876018015325
 20
2422.936304769024
 10
2048.434877706754
 20
2424.321050294498
 10
2042.91561105864
 20
2425.589390289733
 10
2037.324474577014
 20
2426.741171284764
 10
2031.667904701578
 20
2427.776167970627
 10
2025.952504993378
 20
2428.69411066429
 10
2020.185031373594
 20
2429.49470876523
 10
2014.372375923636
 20
2430.177670596197
 10
2008.521549630478
 20
2430.742719976815
 10
2002.639664365442
 20
2431.189609831032
 10
1996.73391431259
 20
2431.518133080945
 10
1990.81155700951
 20
2431.728131032058
 10
1984.879894124432
 20
2431.819499409196
 10
1983.278244810766
 20
2431.823822443091
  0
LINE
  5
19B
330
192
100
AcDbEntity
  8
P-SANR-FIXT
100
AcDbLine
 10
1783.677010662194
 20
2296.751487880225
 30
0.0
 11
1781.060080445393
 21
2231.865535545256
 31
0.0
  0
LINE
  5
19C
330
192
100
AcDbEntity
  8
P-SANR-FIXT
100
AcDbLine
 10
2185.496409176137
 20
2231.865535545255
 30
0.0
 11
2182.879478959335
 21
2296.751487880225
 31
0.0
  0
LINE
  5
19D
330
192
100
AcDbEntity
  8
P-SANR-FIXT
100
AcDbLine
 10
1798.346969267379
 20
2222.50280122335
 30
0.0
 11
1796.955062873228
 21
2187.990924916587
 31
0.0
  0
LINE
  5
19E
330
192
100
AcDbEntity
  8
P-SANR-FIXT
100
AcDbLine
 10
2169.602317497598
 20
2187.968839071119
 30
0.0
 11
2168.20952035415
 21
2222.50280122335
 31
0.0
  0
LWPOLYLINE
  5
19F
330
192
100
AcDbEntity
  8
P-SANR-FIXT
100
AcDbPolyline
 90
       40
 70
   128
 43
0.0
 10
1779.381177823708
 20
2147.53474088451
 10
1780.120673163158
 20
2152.7700730713
 10
1781.2674633848
 20
2157.938212843583
 10
1782.806990623016
 20
2163.014722805697
 10
1784.721712791282
 20
2167.979874636897
 10
1786.992587699113
 20
2172.818878172272
 10
1789.600374004325
 20
2177.521573576329
 10
1792.526610804059
 20
2182.081761552201
 10
1795.754236117195
 20
2186.49635975833
 10
1799.267878419338
 20
2190.764541372683
 10
1803.053894917583
 20
2194.886959769652
 10
1807.100240032513
 20
2198.865112199077
 10
1811.396238404488
 20
2202.700856194985
 10
1815.932319220056
 20
2206.396067891809
 10
1820.699750118313
 20
2209.952419358339
 10
1825.690393238642
 20
2213.371248648539
 10
1830.896494382003
 20
2216.653497869151
 10
1836.310508586023
 20
2219.799698467235
 10
1841.924960857646
 20
2222.809987444856
 10
1847.732338457816
 20
2225.68414240541
 10
1853.725010209633
 20
2228.421626843858
 10
1859.895168220353
 20
2231.021639830026
 10
1866.234787770755
 20
2233.483166267553
 10
1872.735601681704
 20
2235.805025364587
 10
1879.38908607053
 20
2237.985915957255
 10
1886.186454981081
 20
2240.024457999486
 10
1893.118661875098
 20
2241.919229967546
 10
1900.176406397694
 20
2243.66880219644
 10
1907.350145178014
 20
2245.271766321649
 10
1914.630105705565
 20
2246.726761081119
 10
1922.006302543495
 20
2248.032494765777
 10
1929.46855531252
 20
2249.187764610022
 10
1937.006508012626
 20
2250.191473398826
 10
1944.609649352134
 20
2251.042643543256
 10
1952.267333831836
 20
2251.740428846309
 10
1959.968803391013
 20
2252.284124149215
 10
1967.703209466415
 20
2252.673173016428
 10
1975.459635348027
 20
2252.907173586434
 10
1983.227118738976
 20
2252.985882685619
 10
1983.278244810765
 20
2252.985886049961
  0
LWPOLYLINE
  5
1A0
330
192
100
AcDbEntity
  8
P-SANR-FIXT
100
AcDbPolyline
 90
       40
 70
   128
 43
0.0
 10
2187.175311797822
 20
2147.534740884509
 10
2186.435816458372
 20
2152.7700730713
 10
2185.289026236731
 20
2157.938212843582
 10
2183.749498998514
 20
2163.014722805696
 10
2181.834776830248
 20
2167.979874636897
 10
2179.563901922417
 20
2172.818878172271
 10
2176.956115617207
 20
2177.521573576328
 10
2174.029878817473
 20
2182.0817615522
 10
2170.802253504335
 20
2186.49635975833
 10
2167.288611202192
 20
2190.764541372682
 10
2163.502594703949
 20
2194.886959769652
 10
2159.456249589019
 20
2198.865112199076
 10
2155.160251217043
 20
2202.700856194985
 10
2150.624170401475
 20
2206.396067891808
 10
2145.856739503218
 20
2209.952419358339
 10
2140.866096382889
 20
2213.371248648539
 10
2135.659995239528
 20
2216.65349786915
 10
2130.245981035508
 20
2219.799698467235
 10
2124.631528763885
 20
2222.809987444855
 10
2118.824151163715
 20
2225.684142405409
 10
2112.831479411898
 20
2228.421626843858
 10
2106.661321401178
 20
2231.021639830026
 10
2100.321701850776
 20
2233.483166267552
 10
2093.820887939827
 20
2235.805025364587
 10
2087.167403551001
 20
2237.985915957255
 10
2080.37003464045
 20
2240.024457999486
 10
2073.437827746433
 20
2241.919229967546
 10
2066.380083223837
 20
2243.66880219644
 10
2059.206344443516
 20
2245.271766321649
 10
2051.926383915966
 20
2246.726761081119
 10
2044.550187078036
 20
2248.032494765777
 10
2037.087934309011
 20
2249.187764610022
 10
2029.549981608905
 20
2250.191473398826
 10
2021.946840269397
 20
2251.042643543256
 10
2014.289155789695
 20
2251.740428846308
 10
2006.587686230519
 20
2252.284124149215
 10
1998.853280155116
 20
2252.673173016428
 10
1991.096854273505
 20
2252.907173586434
 10
1983.329370882555
 20
2252.985882685619
 10
1983.278244810766
 20
2252.985886049961
  0
LINE
  5
1A1
330
192
100
AcDbEntity
  8
P-SANR-FIXT
100
AcDbLine
 10
1779.381177823708
 20
2147.53474088451
 30
0.0
 11
1776.81717647287
 21
2122.18681919243
 31
0.0
  0
LINE
  5
1A2
330
192
100
AcDbEntity
  8
P-SANR-FIXT
100
AcDbLine
 10
2189.73931314866
 20
2122.186819192432
 30
0.0
 11
2187.175311797822
 21
2147.534740884509
 31
0.0
  0
ARC
  5
1A3
330
192
100
AcDbEntity
  8
P-SANR-FIXT
100
AcDbCircle
 10
1983.278244810762
 20
1999.982558850011
 30
0.0
 40
150.0000000000001
100
AcDbArc
 50
90.0000000000009
 51
270.0000000000001
  0
ARC
  5
1A4
330
192
100
AcDbEntity
  8
P-SANR-FIXT
100
AcDbCircle
 10
1983.278244810762
 20
1999.982558850011
 30
0.0
 40
150.0000000000002
100
AcDbArc
 50
270.0000000000001
 51
89.99999999999984
  0
ARC
  5
1A5
330
192
100
AcDbEntity
  8
P-SANR-FIXT
100
AcDbCircle
 10
1983.278244810762
 20
1999.982558850011
 30
0.0
 40
184.9999999999998
100
AcDbArc
 50
89.9999999999998
 51
269.9999999999994
  0
ARC
  5
1A6
330
192
100
AcDbEntity
  8
P-SANR-FIXT
100
AcDbCircle
 10
1983.278244810762
 20
1999.982558850011
 30
0.0
 40
184.9999999999998
100
AcDbArc
 50
269.9999999999996
 51
89.99999999999971
  0
ARC
  5
1A7
330
192
100
AcDbEntity
  8
P-SANR-FIXT
100
AcDbCircle
 10
1983.278244810762
 20
1999.982558850011
 30
0.0
 40
195.2805663608092
100
AcDbArc
 50
89.99999999999982
 51
269.9999999999993
  0
ARC
  5
1A8
330
192
100
AcDbEntity
  8
P-SANR-FIXT
100
AcDbCircle
 10
1983.278244810762
 20
1999.982558850011
 30
0.0
 40
195.2805663608091
100
AcDbArc
 50
269.9999999999996
 51
89.99999999999975
  0
ARC
  5
1A9
330
192
100
AcDbEntity
  8
P-SANR-FIXT
100
AcDbCircle
 10
1983.278244810762
 20
1999.982558850011
 30
0.0
 40
240.000000000002
100
AcDbArc
 50
89.99999999999968
 51
269.9999999999992
  0
ARC
  5
1AA
330
192
100
AcDbEntity
  8
P-SANR-FIXT
100
AcDbCircle
 10
1983.278244810762
 20
1999.982558850011
 30
0.0
 40
240.000000000002
100
AcDbArc
 50
269.9999999999994
 51
89.99999999999969
  0
ELLIPSE
  5
1AB
330
192
100
AcDbEntity
  8
P-SANR-FIXT
100
AcDbEllipse
 10
1983.278244810762
 20
2423.040545638983
 30
0.0
 11
33.7117305891818
 21
0.0
 31
0.0
210
0.0
220
0.0
230
1.0
 40
0.5000000000000075
 41
1.570796326794896
 42
2.702157178712513
  0
ELLIPSE
  5
1AC
330
192
100
AcDbEntity
  8
P-SANR-FIXT
100
AcDbEllipse
 10
1983.278244810762
 20
2423.040545638983
 30
0.0
 11
33.7117305891818
 21
0.0
 31
0.0
210
0.0
220
0.0
230
1.0
 40
0.4999999999999967
 41
0.4394143404524013
 42
1.570796326794889
  0
ELLIPSE
  5
1AD
330
192
100
AcDbEntity
  8
P-SANR-FIXT
100
AcDbEllipse
 10
1983.278244810762
 20
2294.738947098447
 30
0.0
 11
199.6418141452982
 21
0.0
 31
0.0
210
0.0
220
0.0
230
1.0
 40
0.5000000000000017
 41
1.647514096113332
 42
3.128418534931098
  0
ELLIPSE
  5
1AE
330
192
100
AcDbEntity
  8
P-SANR-FIXT
100
AcDbEllipse
 10
1983.278244810762
 20
2294.738947098447
 30
0.0
 11
199.641814145298
 21
0.0
 31
0.0
210
0.0
220
0.0
230
1.0
 40
0.5000000000000017
 41
0.0144647239079397
 42
1.570796326794895
  0
ELLIPSE
  5
1AF
330
192
100
AcDbEntity
  8
P-SANR-FIXT
100
AcDbEllipse
 10
1983.278244810762
 20
2229.826608760371
 30
0.0
 11
202.2592763979859
 21
0.0
 31
0.0
210
0.0
220
0.0
230
1.0
 40
0.5000000000000018
 41
1.570796326794902
 42
3.542709506670798
  0
ELLIPSE
  5
1B0
330
192
100
AcDbEntity
  8
P-SANR-FIXT
100
AcDbEllipse
 10
1983.278244810762
 20
2229.826608760371
 30
0.0
 11
202.2592763979862
 21
0.0
 31
0.0
210
0.0
220
0.0
230
1.0
 40
0.5000000000000006
 41
5.882068454098577
 42
7.853981633974481
  0
ARC
  5
1B1
330
192
100
AcDbEntity
  8
P-SANR-FIXT
100
AcDbCircle
 10
1983.278244810762
 20
1999.982558850011
 30
0.0
 40
150.0000000000001
100
AcDbArc
 50
94.60261081645571
 51
96.0603167675778
  0
ARC
  5
1B2
330
192
100
AcDbEntity
  8
P-SANR-FIXT
100
AcDbCircle
 10
1983.278244810762
 20
1999.982558850011
 30
0.0
 40
149.9999999999998
100
AcDbArc
 50
99.24286938427083
 51
100.9086616948905
  0
ARC
  5
1B3
330
192
100
AcDbEntity
  8
P-SANR-FIXT
100
AcDbCircle
 10
1983.278244810762
 20
1999.982558850011
 30
0.0
 40
149.9999999999999
100
AcDbArc
 50
103.9776482684237
 51
105.5839985704774
  0
ARC
  5
1B4
330
192
100
AcDbEntity
  8
P-SANR-FIXT
100
AcDbCircle
 10
1983.278244810762
 20
1999.982558850011
 30
0.0
 40
149.9999999999999
100
AcDbArc
 50
119.4160014295232
 51
121.0223517315762
  0
ARC
  5
1B5
330
192
100
AcDbEntity
  8
P-SANR-FIXT
100
AcDbCircle
 10
1983.278244810762
 20
1999.982558850011
 30
0.0
 40
149.9999999999999
100
AcDbArc
 50
124.0913383051098
 51
125.7571306157301
  0
ARC
  5
1B6
330
192
100
AcDbEntity
  8
P-SANR-FIXT
100
AcDbCircle
 10
1983.278244810762
 20
1999.982558850011
 30
0.0
 40
149.9999999999998
100
AcDbArc
 50
128.9396832324248
 51
130.3973891835443
  0
ARC
  5
1B7
330
192
100
AcDbEntity
  8
P-SANR-FIXT
100
AcDbCircle
 10
1983.278244810762
 20
1999.982558850011
 30
0.0
 40
150.0000000000001
100
AcDbArc
 50
139.6026108164568
 51
141.0603167675762
  0
ARC
  5
1B8
330
192
100
AcDbEntity
  8
P-SANR-FIXT
100
AcDbCircle
 10
1983.278244810762
 20
1999.982558850011
 30
0.0
 40
150.0000000000001
100
AcDbArc
 50
144.2428693842679
 51
145.9086616948933
  0
ARC
  5
1B9
330
192
100
AcDbEntity
  8
P-SANR-FIXT
100
AcDbCircle
 10
1983.278244810762
 20
1999.982558850011
 30
0.0
 40
149.9999999999998
100
AcDbArc
 50
148.9776482684224
 51
150.5839985704772
  0
ARC
  5
1BA
330
192
100
AcDbEntity
  8
P-SANR-FIXT
100
AcDbCircle
 10
1983.278244810762
 20
1999.982558850011
 30
0.0
 40
149.9999999999999
100
AcDbArc
 50
164.4160014295255
 51
166.0223517315728
  0
ARC
  5
1BB
330
192
100
AcDbEntity
  8
P-SANR-FIXT
100
AcDbCircle
 10
1983.278244810762
 20
1999.982558850011
 30
0.0
 40
149.9999999999999
100
AcDbArc
 50
169.0913383051131
 51
170.7571306157277
  0
ARC
  5
1BC
330
192
100
AcDbEntity
  8
P-SANR-FIXT
100
AcDbCircle
 10
1983.278244810762
 20
1999.982558850011
 30
0.0
 40
149.9999999999998
100
AcDbArc
 50
173.9396832324204
 51
175.3973891835459
  0
ARC
  5
1BD
330
192
100
AcDbEntity
  8
P-SANR-FIXT
100
AcDbCircle
 10
1983.278244810762
 20
1999.982558850011
 30
0.0
 40
149.9999999999998
100
AcDbArc
 50
184.6026108164562
 51
186.0603167675758
  0
ARC
  5
1BE
330
192
100
AcDbEntity
  8
P-SANR-FIXT
100
AcDbCircle
 10
1983.278244810762
 20
1999.982558850011
 30
0.0
 40
149.9999999999999
100
AcDbArc
 50
189.2428693842729
 51
190.9086616948869
  0
ARC
  5
1BF
330
192
100
AcDbEntity
  8
P-SANR-FIXT
100
AcDbCircle
 10
1983.278244810762
 20
1999.982558850011
 30
0.0
 40
149.9999999999999
100
AcDbArc
 50
193.9776482684236
 51
195.5839985704772
  0
ARC
  5
1C0
330
192
100
AcDbEntity
  8
P-SANR-FIXT
100
AcDbCircle
 10
1983.278244810762
 20
1999.982558850011
 30
0.0
 40
150.0
100
AcDbArc
 50
209.4160014295216
 51
211.0223517315781
  0
ARC
  5
1C1
330
192
100
AcDbEntity
  8
P-SANR-FIXT
100
AcDbCircle
 10
1983.278244810762
 20
1999.982558850011
 30
0.0
 40
149.9999999999999
100
AcDbArc
 50
214.0913383051114
 51
215.757130615728
  0
ARC
  5
1C2
330
192
100
AcDbEntity
  8
P-SANR-FIXT
100
AcDbCircle
 10
1983.278244810762
 20
1999.982558850011
 30
0.0
 40
149.9999999999999
100
AcDbArc
 50
218.9396832324241
 51
220.3973891835435
  0
ARC
  5
1C3
330
192
100
AcDbEntity
  8
P-SANR-FIXT
100
AcDbCircle
 10
1983.278244810762
 20
1999.982558850011
 30
0.0
 40
150.0
100
AcDbArc
 50
229.602610816455
 51
231.0603167675769
  0
ARC
  5
1C4
330
192
100
AcDbEntity
  8
P-SANR-FIXT
100
AcDbCircle
 10
1983.278244810762
 20
1999.982558850011
 30
0.0
 40
149.9999999999999
100
AcDbArc
 50
234.2428693842701
 51
235.9086616948903
  0
ARC
  5
1C5
330
192
100
AcDbEntity
  8
P-SANR-FIXT
100
AcDbCircle
 10
1983.278244810762
 20
1999.982558850011
 30
0.0
 40
149.9999999999997
100
AcDbArc
 50
238.9776482684201
 51
240.5839985704791
  0
ARC
  5
1C6
330
192
100
AcDbEntity
  8
P-SANR-FIXT
100
AcDbCircle
 10
1983.278244810762
 20
1999.982558850011
 30
0.0
 40
149.9999999999999
100
AcDbArc
 50
254.4160014295226
 51
256.0223517315762
  0
ARC
  5
1C7
330
192
100
AcDbEntity
  8
P-SANR-FIXT
100
AcDbCircle
 10
1983.278244810762
 20
1999.982558850011
 30
0.0
 40
150.0
100
AcDbArc
 50
259.0913383051102
 51
260.7571306157297
  0
ARC
  5
1C8
330
192
100
AcDbEntity
  8
P-SANR-FIXT
100
AcDbCircle
 10
1983.278244810762
 20
1999.982558850011
 30
0.0
 40
149.9999999999999
100
AcDbArc
 50
263.9396832324203
 51
265.3973891835448
  0
ARC
  5
1C9
330
192
100
AcDbEntity
  8
P-SANR-FIXT
100
AcDbCircle
 10
1983.278244810762
 20
1999.982558850011
 30
0.0
 40
150.0000000000002
100
AcDbArc
 50
274.6026108164539
 51
276.0603167675802
  0
ARC
  5
1CA
330
192
100
AcDbEntity
  8
P-SANR-FIXT
100
AcDbCircle
 10
1983.278244810762
 20
1999.982558850011
 30
0.0
 40
150.0000000000004
100
AcDbArc
 50
279.242869384268
 51
280.9086616948907
  0
ARC
  5
1CB
330
192
100
AcDbEntity
  8
P-SANR-FIXT
100
AcDbCircle
 10
1983.278244810762
 20
1999.982558850011
 30
0.0
 40
150.0000000000001
100
AcDbArc
 50
283.9776482684215
 51
285.5839985704779
  0
ARC
  5
1CC
330
192
100
AcDbEntity
  8
P-SANR-FIXT
100
AcDbCircle
 10
1983.278244810762
 20
1999.982558850011
 30
0.0
 40
150.0000000000002
100
AcDbArc
 50
299.4160014295201
 51
301.0223517315793
  0
ARC
  5
1CD
330
192
100
AcDbEntity
  8
P-SANR-FIXT
100
AcDbCircle
 10
1983.278244810762
 20
1999.982558850011
 30
0.0
 40
150.0000000000004
100
AcDbArc
 50
304.0913383051064
 51
305.7571306157316
  0
ARC
  5
1CE
330
192
100
AcDbEntity
  8
P-SANR-FIXT
100
AcDbCircle
 10
1983.278244810762
 20
1999.982558850011
 30
0.0
 40
150.0000000000003
100
AcDbArc
 50
308.9396832324245
 51
310.3973891835428
  0
ARC
  5
1CF
330
192
100
AcDbEntity
  8
P-SANR-FIXT
100
AcDbCircle
 10
1983.278244810762
 20
1999.982558850011
 30
0.0
 40
150.0000000000003
100
AcDbArc
 50
319.6026108164535
 51
321.0603167675803
  0
ARC
  5
1D0
330
192
100
AcDbEntity
  8
P-SANR-FIXT
100
AcDbCircle
 10
1983.278244810762
 20
1999.982558850011
 30
0.0
 40
150.0000000000001
100
AcDbArc
 50
324.2428693842688
 51
325.9086616948887
  0
ARC
  5
1D1
330
192
100
AcDbEntity
  8
P-SANR-FIXT
100
AcDbCircle
 10
1983.278244810762
 20
1999.982558850011
 30
0.0
 40
150.0000000000002
100
AcDbArc
 50
328.9776482684197
 51
330.583998570479
  0
ARC
  5
1D2
330
192
100
AcDbEntity
  8
P-SANR-FIXT
100
AcDbCircle
 10
1983.278244810762
 20
1999.982558850011
 30
0.0
 40
150.0000000000001
100
AcDbArc
 50
344.4160014295226
 51
346.0223517315758
  0
ARC
  5
1D3
330
192
100
AcDbEntity
  8
P-SANR-FIXT
100
AcDbCircle
 10
1983.278244810762
 20
1999.982558850011
 30
0.0
 40
150.0000000000001
100
AcDbArc
 50
349.0913383051091
 51
350.7571306157286
  0
ARC
  5
1D4
330
192
100
AcDbEntity
  8
P-SANR-FIXT
100
AcDbCircle
 10
1983.278244810762
 20
1999.982558850011
 30
0.0
 40
150.0000000000002
100
AcDbArc
 50
353.9396832324245
 51
355.3973891835426
  0
ARC
  5
1D5
330
192
100
AcDbEntity
  8
P-SANR-FIXT
100
AcDbCircle
 10
1983.278244810762
 20
1999.982558850011
 30
0.0
 40
150.0000000000001
100
AcDbArc
 50
4.602610816453787
 51
6.060316767579537
  0
ARC
  5
1D6
330
192
100
AcDbEntity
  8
P-SANR-FIXT
100
AcDbCircle
 10
1983.278244810762
 20
1999.982558850011
 30
0.0
 40
149.9999999999998
100
AcDbArc
 50
9.242869384269141
 51
10.90866169488898
  0
ARC
  5
1D7
330
192
100
AcDbEntity
  8
P-SANR-FIXT
100
AcDbCircle
 10
1983.278244810762
 20
1999.982558850011
 30
0.0
 40
150.0000000000001
100
AcDbArc
 50
13.97764826842412
 51
15.58399857047688
  0
ARC
  5
1D8
330
192
100
AcDbEntity
  8
P-SANR-FIXT
100
AcDbCircle
 10
1983.278244810762
 20
1999.982558850011
 30
0.0
 40
149.9999999999998
100
AcDbArc
 50
29.41600142952235
 51
31.02235173157599
  0
ARC
  5
1D9
330
192
100
AcDbEntity
  8
P-SANR-FIXT
100
AcDbCircle
 10
1983.278244810762
 20
1999.982558850011
 30
0.0
 40
149.9999999999999
100
AcDbArc
 50
34.09133830510937
 51
35.75713061572927
  0
ARC
  5
1DA
330
192
100
AcDbEntity
  8
P-SANR-FIXT
100
AcDbCircle
 10
1983.278244810762
 20
1999.982558850011
 30
0.0
 40
149.9999999999998
100
AcDbArc
 50
38.93968323242371
 51
40.39738918354319
  0
ARC
  5
1DB
330
192
100
AcDbEntity
  8
P-SANR-FIXT
100
AcDbCircle
 10
1983.278244810762
 20
1999.982558850011
 30
0.0
 40
149.9999999999997
100
AcDbArc
 50
49.60261081645452
 51
51.06031676757659
  0
ARC
  5
1DC
330
192
100
AcDbEntity
  8
P-SANR-FIXT
100
AcDbCircle
 10
1983.278244810762
 20
1999.982558850011
 30
0.0
 40
149.9999999999999
100
AcDbArc
 50
54.24286938426936
 51
55.90866169489012
  0
ARC
  5
1DD
330
192
100
AcDbEntity
  8
P-SANR-FIXT
100
AcDbCircle
 10
1983.278244810762
 20
1999.982558850011
 30
0.0
 40
149.9999999999998
100
AcDbArc
 50
58.97764826842137
 51
60.5839985704778
  0
ARC
  5
1DE
330
192
100
AcDbEntity
  8
P-SANR-FIXT
100
AcDbCircle
 10
1983.278244810762
 20
1999.982558850011
 30
0.0
 40
149.9999999999998
100
AcDbArc
 50
74.41600142952158
 51
76.02235173157801
  0
ARC
  5
1DF
330
192
100
AcDbEntity
  8
P-SANR-FIXT
100
AcDbCircle
 10
1983.278244810762
 20
1999.982558850011
 30
0.0
 40
149.9999999999998
100
AcDbArc
 50
79.09133830510805
 51
80.75713061572995
  0
ARC
  5
1E0
330
192
100
AcDbEntity
  8
P-SANR-FIXT
100
AcDbCircle
 10
1983.278244810762
 20
1999.982558850011
 30
0.0
 40
150.0
100
AcDbArc
 50
83.9396832324229
 51
85.3973891835435
  0
ENDBLK
  5
1E2
330
192
100
AcDbEntity
  8
0
100
AcDbBlockEnd
  0
ENDSEC
  0
SECTION
  2
ENTITIES
  0
INSERT
  5
FB
330
71
100
AcDbEntity
  8
P-SANR-FIXT
100
AcDbBlockReference
  2
Automatic flow rate regulator valve_Caleffi_121 DN15 - 1_2__-859151-Est - Idraulica
 10
0.0
 20
0.0
 30
0.0
1001
REVIT
1002
{
1070
     1
1000
863131
1002
}
1002
{
1070
     5
1000
859151
1002
}
1002
{
1070
     2
1000
-2001160
1002
}
  0
INSERT
  5
191
330
71
100
AcDbEntity
  8
P-SANR-FIXT
100
AcDbBlockReference
  2
Automatic flow rate regulator valve_Caleffi_121 DN15 - 1_2__-V1-Est - Idraulica
 10
0.0
 20
0.0
 30
0.0
1001
REVIT
1002
{
1070
     1
1000
863152
1002
}
1002
{
1070
     5
1000
859151
1002
}
1002
{
1070
     2
1000
-2001160
1002
}
  0
INSERT
  5
1E3
330
71
100
AcDbEntity
  8
P-SANR-FIXT
100
AcDbBlockReference
  2
Automatic flow rate regulator valve_Caleffi_121 DN15 - 1_2__-V2-Est - Idraulica
 10
0.0
 20
0.0
 30
0.0
1001
REVIT
1002
{
1070
     1
1000
863172
1002
}
1002
{
1070
     5
1000
859151
1002
}
1002
{
1070
     2
1000
-2001160
1002
}
  0
ENDSEC
  0
SECTION
  2
OBJECTS
  0
DICTIONARY
  5
C
330
0
100
AcDbDictionary
281
     1
  3
ACAD_CIP_PREVIOUS_PRODUCT_INFO
350
7A
  3
ACAD_COLOR
350
63
  3
ACAD_DETAILVIEWSTYLE
350
6B
  3
ACAD_GROUP
350
D
  3
ACAD_IMAGE_VARS
350
7B
  3
ACAD_LAYOUT
350
62
  3
ACAD_MATERIAL
350
10
  3
ACAD_MLEADERSTYLE
350
66
  3
ACAD_MLINESTYLE
350
5F
  3
ACAD_PLOTSETTINGS
350
61
  3
ACAD_PLOTSTYLENAME
350
E
  3
ACAD_SCALELIST
350
42
  3
ACAD_SECTIONVIEWSTYLE
350
68
  3
ACAD_TABLESTYLE
350
64
  3
ACAD_VISUALSTYLE
350
29
  3
ACDB_RECOMPOSE_DATA
350
1ED
  3
AcDbVariableDictionary
350
7C
  3
REVIT_DICTIONARY
350
1E5
  0
DICTIONARY
  5
1E9
330
71
100
AcDbDictionary
280
     1
281
     1
  3
ACAD_SORTENTS
360
1EA
  0
XRECORD
  5
7A
102
{ACAD_REACTORS
330
C
102
}
330
C
100
AcDbXrecord
280
     1
300
RVT
300
2013
300
RVT2013
  0
DICTIONARY
  5
63
102
{ACAD_REACTORS
330
C
102
}
330
C
100
AcDbDictionary
281
     1
  0
DICTIONARY
  5
6B
102
{ACAD_REACTORS
330
C
102
}
330
C
100
AcDbDictionary
281
     1
  3
Imperial24
350
6C
  0
DICTIONARY
  5
D
102
{ACAD_REACTORS
330
C
102
}
330
C
100
AcDbDictionary
281
     1
  0
RASTERVARIABLES
  5
7B
102
{ACAD_REACTORS
330
C
102
}
330
C
100
AcDbRasterVariables
 90
        0
 70
     0
 71
     1
 72
     1
  0
DICTIONARY
  5
62
102
{ACAD_REACTORS
330
C
102
}
330
C
100
AcDbDictionary
281
     1
  3
Layout1
350
70
  3
Layout2
350
78
  3
Model
350
74
  0
DICTIONARY
  5
10
102
{ACAD_REACTORS
330
C
102
}
330
C
100
AcDbDictionary
281
     1
  3
ByBlock
350
19
  3
ByLayer
350
11
  3
Global
350
21
  0
DICTIONARY
  5
66
102
{ACAD_REACTORS
330
C
102
}
330
C
100
AcDbDictionary
281
     1
  3
Standard
350
67
  0
DICTIONARY
  5
5F
102
{ACAD_REACTORS
330
C
102
}
330
C
100
AcDbDictionary
281
     1
  3
Standard
350
60
  0
DICTIONARY
  5
61
102
{ACAD_REACTORS
330
C
102
}
330
C
100
AcDbDictionary
281
     1
  0
ACDBDICTIONARYWDFLT
  5
E
102
{ACAD_REACTORS
330
C
102
}
330
C
100
AcDbDictionary
281
     1
  3
Normal
350
F
100
AcDbDictionaryWithDefault
340
F
  0
DICTIONARY
  5
42
102
{ACAD_REACTORS
330
C
102
}
330
C
100
AcDbDictionary
281
     1
  3
A0
350
43
  3
A1
350
44
  3
A2
350
45
  3
A3
350
46
  3
A4
350
47
  3
A5
350
48
  3
A6
350
49
  3
A7
350
4A
  3
A8
350
4B
  3
A9
350
4C
  3
B0
350
4D
  3
B1
350
4E
  3
B2
350
4F
  3
B3
350
50
  3
B4
350
51
  3
B5
350
52
  3
B6
350
53
  0
DICTIONARY
  5
68
102
{ACAD_REACTORS
330
C
102
}
330
C
100
AcDbDictionary
281
     1
  3
Imperial24
350
6A
  0
DICTIONARY
  5
64
102
{ACAD_REACTORS
330
C
102
}
330
C
100
AcDbDictionary
281
     1
  3
Standard
350
65
  0
DICTIONARY
  5
29
102
{ACAD_REACTORS
330
C
102
}
330
C
100
AcDbDictionary
281
     1
  3
2dWireframe
350
2F
  3
Basic
350
2E
  3
Brighten
350
35
  3
ColorChange
350
39
  3
Conceptual
350
32
  3
Dim
350
34
  3
EdgeColorOff
350
41
  3
Facepattern
350
38
  3
Flat
350
2A
  3
FlatWithEdges
350
2B
  3
Gouraud
350
2C
  3
GouraudWithEdges
350
2D
  3
Hidden
350
31
  3
JitterOff
350
3F
  3
Linepattern
350
37
  3
OverhangOff
350
40
  3
Realistic
350
33
  3
Shaded
350
3E
  3
Shaded with edges
350
3D
  3
Shades of Gray
350
3A
  3
Sketchy
350
3B
  3
Thicken
350
36
  3
Wireframe
350
30
  3
X-Ray
350
3C
  0
XRECORD
  5
1ED
102
{ACAD_REACTORS
330
C
102
}
330
C
100
AcDbXrecord
280
     1
 90
        1
330
65
  0
DICTIONARY
  5
7C
102
{ACAD_REACTORS
330
C
102
}
330
C
100
AcDbDictionary
281
     1
  3
CANNOSCALE
350
81
  3
CMLEADERSTYLE
350
7E
  3
CTABLESTYLE
350
7D
  3
CVIEWDETAILSTYLE
350
7F
  3
CVIEWSECTIONSTYLE
350
80
  0
DICTIONARY
  5
1E5
102
{ACAD_REACTORS
330
C
102
}
330
C
100
AcDbDictionary
281
     1
  3
DRAWING_TOOL
350
1E8
  3
REVIT_CATEGORY_MAPPING
350
1E7
  3
REVIT_TYPE_MAPPING
350
1E6
  0
SORTENTSTABLE
  5
1EA
102
{ACAD_REACTORS
330
1E9
102
}
330
1E9
100
AcDbSortentsTable
330
71
  0
ACDBDETAILVIEWSTYLE
  5
6C
102
{ACAD_REACTORS
330
6B
102
}
330
6B
100
AcDbModelDocViewStyle
 70
     0
  3
Imperial24
290
     1
100
AcDbDetailViewStyle
 70
     0
 71
     0
 90
        3
 71
     1
340
55
 62
   256
 40
0.24
340
0
 62
   256
 40
0.24
300

 40
0.36
280
     3
 71
     2
340
5D
 90
       25
 62
   256
 71
     3
340
55
 62
   256
 40
0.24
 90
        1
 40
0.75
 90
        1
300
%<\AcVar ViewType \f "%tc1">% %<\AcVar ViewDetailId>%\PSCALA %<\AcVar ViewScale \f "%sn">%
 71
     4
340
5D
 90
       25
 62
   256
340
5D
 90
       25
 62
   256
280
     0
  0
LAYOUT
  5
70
102
{ACAD_REACTORS
330
62
102
}
330
62
100
AcDbPlotSettings
  1

  2

  4

  6

 40
0.0
 41
0.0
 42
0.0
 43
0.0
 44
0.0
 45
0.0
 46
0.0
 47
0.0
 48
0.0
 49
0.0
140
0.0
141
0.0
142
1.0
143
1.0
 70
   688
 72
     0
 73
     0
 74
     5
  7

 75
    16
147
1.0
 76
     0
 77
     2
 78
   300
148
0.0
149
0.0
100
AcDbLayout
  1
Layout1
 70
     1
 71
     1
 10
0.0
 20
0.0
 11
12.0
 21
9.0
 12
0.0
 22
0.0
 32
0.0
 14
0.0
 24
0.0
 34
0.0
 15
0.0
 25
0.0
 35
0.0
146
0.0
 13
0.0
 23
0.0
 33
0.0
 16
1.0
 26
0.0
 36
0.0
 17
0.0
 27
1.0
 37
0.0
 76
     0
330
6D
  0
LAYOUT
  5
78
102
{ACAD_REACTORS
330
62
102
}
330
62
100
AcDbPlotSettings
  1

  2

  4

  6

 40
0.0
 41
0.0
 42
0.0
 43
0.0
 44
0.0
 45
0.0
 46
0.0
 47
0.0
 48
0.0
 49
0.0
140
0.0
141
0.0
142
1.0
143
1.0
 70
   688
 72
     0
 73
     0
 74
     5
  7

 75
    16
147
1.0
 76
     0
 77
     2
 78
   300
148
0.0
149
0.0
100
AcDbLayout
  1
Layout2
 70
     1
 71
     2
 10
0.0
 20
0.0
 11
12.0
 21
9.0
 12
0.0
 22
0.0
 32
0.0
 14
0.0
 24
0.0
 34
0.0
 15
0.0
 25
0.0
 35
0.0
146
0.0
 13
0.0
 23
0.0
 33
0.0
 16
1.0
 26
0.0
 36
0.0
 17
0.0
 27
1.0
 37
0.0
 76
     0
330
75
  0
LAYOUT
  5
74
102
{ACAD_REACTORS
330
62
102
}
330
62
100
AcDbPlotSettings
  1

  2

  4

  6

 40
0.0
 41
0.0
 42
0.0
 43
0.0
 44
0.0
 45
0.0
 46
0.0
 47
0.0
 48
0.0
 49
0.0
140
0.0
141
0.0
142
1.0
143
1.0
 70
  1712
 72
     0
 73
     0
 74
     0
  7

 75
     0
147
1.0
 76
     0
 77
     2
 78
   300
148
0.0
149
0.0
100
AcDbLayout
  1
Model
 70
     1
 71
     0
 10
0.0
 20
0.0
 11
12.0
 21
9.0
 12
0.0
 22
0.0
 32
0.0
 14
0.0
 24
0.0
 34
0.0
 15
0.0
 25
0.0
 35
0.0
146
0.0
 13
0.0
 23
0.0
 33
0.0
 16
1.0
 26
0.0
 36
0.0
 17
0.0
 27
1.0
 37
0.0
 76
     0
330
71
  0
MATERIAL
  5
19
102
{ACAD_XDICTIONARY
360
1A
102
}
102
{ACAD_REACTORS
330
10
102
}
330
10
100
AcDbMaterial
  1
ByBlock
 72
     0
 43
0.0208333333333333
 43
0.0
 43
0.0
 43
0.0
 43
0.0
 43
0.0208333333333333
 43
0.0
 43
0.0
 43
0.0
 43
0.0
 43
1.0
 43
0.0
 43
0.0
 43
0.0
 43
0.0
 43
1.0
 77
     0
 47
0.0208333333333333
 47
0.0
 47
0.0
 47
0.0
 47
0.0
 47
0.0208333333333333
 47
0.0
 47
0.0
 47
0.0
 47
0.0
 47
1.0
 47
0.0
 47
0.0
 47
0.0
 47
0.0
 47
1.0
171
     0
 49
0.0208333333333333
 49
0.0
 49
0.0
 49
0.0
 49
0.0
 49
0.0208333333333333
 49
0.0
 49
0.0
 49
0.0
 49
0.0
 49
1.0
 49
0.0
 49
0.0
 49
0.0
 49
0.0
 49
1.0
175
     0
142
0.0208333333333333
142
0.0
142
0.0
142
0.0
142
0.0
142
0.0208333333333333
142
0.0
142
0.0
142
0.0
142
0.0
142
1.0
142
0.0
142
0.0
142
0.0
142
0.0
142
1.0
179
     0
144
0.0208333333333333
144
0.0
144
0.0
144
0.0
144
0.0
144
0.0208333333333333
144
0.0
144
0.0
144
0.0
144
0.0
144
1.0
144
0.0
144
0.0
144
0.0
144
0.0
144
1.0
147
0.0208333333333333
147
0.0
147
0.0
147
0.0
147
0.0
147
0.0208333333333333
147
0.0
147
0.0
147
0.0
147
0.0
147
1.0
147
0.0
147
0.0
147
0.0
147
0.0
147
1.0
  0
MATERIAL
  5
11
102
{ACAD_XDICTIONARY
360
12
102
}
102
{ACAD_REACTORS
330
10
102
}
330
10
100
AcDbMaterial
  1
ByLayer
 72
     0
 43
0.0208333333333333
 43
0.0
 43
0.0
 43
0.0
 43
0.0
 43
0.0208333333333333
 43
0.0
 43
0.0
 43
0.0
 43
0.0
 43
1.0
 43
0.0
 43
0.0
 43
0.0
 43
0.0
 43
1.0
 77
     0
 47
0.0208333333333333
 47
0.0
 47
0.0
 47
0.0
 47
0.0
 47
0.0208333333333333
 47
0.0
 47
0.0
 47
0.0
 47
0.0
 47
1.0
 47
0.0
 47
0.0
 47
0.0
 47
0.0
 47
1.0
171
     0
 49
0.0208333333333333
 49
0.0
 49
0.0
 49
0.0
 49
0.0
 49
0.0208333333333333
 49
0.0
 49
0.0
 49
0.0
 49
0.0
 49
1.0
 49
0.0
 49
0.0
 49
0.0
 49
0.0
 49
1.0
175
     0
142
0.0208333333333333
142
0.0
142
0.0
142
0.0
142
0.0
142
0.0208333333333333
142
0.0
142
0.0
142
0.0
142
0.0
142
1.0
142
0.0
142
0.0
142
0.0
142
0.0
142
1.0
179
     0
144
0.0208333333333333
144
0.0
144
0.0
144
0.0
144
0.0
144
0.0208333333333333
144
0.0
144
0.0
144
0.0
144
0.0
144
1.0
144
0.0
144
0.0
144
0.0
144
0.0
144
1.0
147
0.0208333333333333
147
0.0
147
0.0
147
0.0
147
0.0
147
0.0208333333333333
147
0.0
147
0.0
147
0.0
147
0.0
147
1.0
147
0.0
147
0.0
147
0.0
147
0.0
147
1.0
  0
MATERIAL
  5
21
102
{ACAD_XDICTIONARY
360
22
102
}
102
{ACAD_REACTORS
330
10
102
}
330
10
100
AcDbMaterial
  1
Global
 72
     0
 43
0.0208333333333333
 43
0.0
 43
0.0
 43
0.0
 43
0.0
 43
0.0208333333333333
 43
0.0
 43
0.0
 43
0.0
 43
0.0
 43
1.0
 43
0.0
 43
0.0
 43
0.0
 43
0.0
 43
1.0
 77
     0
 47
0.0208333333333333
 47
0.0
 47
0.0
 47
0.0
 47
0.0
 47
0.0208333333333333
 47
0.0
 47
0.0
 47
0.0
 47
0.0
 47
1.0
 47
0.0
 47
0.0
 47
0.0
 47
0.0
 47
1.0
171
     0
 49
0.0208333333333333
 49
0.0
 49
0.0
 49
0.0
 49
0.0
 49
0.0208333333333333
 49
0.0
 49
0.0
 49
0.0
 49
0.0
 49
1.0
 49
0.0
 49
0.0
 49
0.0
 49
0.0
 49
1.0
175
     0
142
0.0208333333333333
142
0.0
142
0.0
142
0.0
142
0.0
142
0.0208333333333333
142
0.0
142
0.0
142
0.0
142
0.0
142
1.0
142
0.0
142
0.0
142
0.0
142
0.0
142
1.0
179
     0
144
0.0208333333333333
144
0.0
144
0.0
144
0.0
144
0.0
144
0.0208333333333333
144
0.0
144
0.0
144
0.0
144
0.0
144
1.0
144
0.0
144
0.0
144
0.0
144
0.0
144
1.0
147
0.0208333333333333
147
0.0
147
0.0
147
0.0
147
0.0
147
0.0208333333333333
147
0.0
147
0.0
147
0.0
147
0.0
147
1.0
147
0.0
147
0.0
147
0.0
147
0.0
147
1.0
  0
MLEADERSTYLE
  5
67
102
{ACAD_REACTORS
330
66
102
}
330
66
100
AcDbMLeaderStyle
179
     2
170
     2
171
     1
172
     0
 90
        2
 40
0.0
 41
0.0
173
     1
 91
-1056964608
340
5B
 92
       -2
290
     1
 42
0.09
291
     1
 43
0.36
  3
Standard
 44
0.18
300

342
55
174
     1
178
     6
175
     1
176
     0
 93
-1056964608
 45
0.18
292
     0
297
     0
 46
0.18
 94
-1056964608
 47
1.0
 49
1.0
140
1.0
293
     1
141
0.0
294
     1
177
     0
142
1.0
295
     1
296
     0
143
0.125
271
     0
272
     9
273
     9
298
     1
  0
MLINESTYLE
  5
60
102
{ACAD_REACTORS
330
5F
102
}
330
5F
100
AcDbMlineStyle
  2
STANDARD
 70
     0
  3

 62
   256
 51
90.0
 52
90.0
 71
     2
 49
0.5
 62
   256
  6
BYLAYER
 49
-0.5
 62
   256
  6
BYLAYER
  0
ACDBPLACEHOLDER
  5
F
102
{ACAD_REACTORS
330
E
102
}
330
E
  0
SCALE
  5
43
102
{ACAD_REACTORS
330
42
102
}
330
42
100
AcDbScale
 70
     0
300
1:1
140
1.0
141
1.0
290
     1
  0
SCALE
  5
44
102
{ACAD_REACTORS
330
42
102
}
330
42
100
AcDbScale
 70
     0
300
1/128" = 1'-0"
140
0.0078125
141
12.0
290
     0
  0
SCALE
  5
45
102
{ACAD_REACTORS
330
42
102
}
330
42
100
AcDbScale
 70
     0
300
1/64" = 1'-0"
140
0.015625
141
12.0
290
     0
  0
SCALE
  5
46
102
{ACAD_REACTORS
330
42
102
}
330
42
100
AcDbScale
 70
     0
300
1/32" = 1'-0"
140
0.03125
141
12.0
290
     0
  0
SCALE
  5
47
102
{ACAD_REACTORS
330
42
102
}
330
42
100
AcDbScale
 70
     0
300
1/16" = 1'-0"
140
0.0625
141
12.0
290
     0
  0
SCALE
  5
48
102
{ACAD_REACTORS
330
42
102
}
330
42
100
AcDbScale
 70
     0
300
3/32" = 1'-0"
140
0.09375
141
12.0
290
     0
  0
SCALE
  5
49
102
{ACAD_REACTORS
330
42
102
}
330
42
100
AcDbScale
 70
     0
300
1/8" = 1'-0"
140
0.125
141
12.0
290
     0
  0
SCALE
  5
4A
102
{ACAD_REACTORS
330
42
102
}
330
42
100
AcDbScale
 70
     0
300
3/16" = 1'-0"
140
0.1875
141
12.0
290
     0
  0
SCALE
  5
4B
102
{ACAD_REACTORS
330
42
102
}
330
42
100
AcDbScale
 70
     0
300
1/4" = 1'-0"
140
0.25
141
12.0
290
     0
  0
SCALE
  5
4C
102
{ACAD_REACTORS
330
42
102
}
330
42
100
AcDbScale
 70
     0
300
3/8" = 1'-0"
140
0.375
141
12.0
290
     0
  0
SCALE
  5
4D
102
{ACAD_REACTORS
330
42
102
}
330
42
100
AcDbScale
 70
     0
300
1/2" = 1'-0"
140
0.5
141
12.0
290
     0
  0
SCALE
  5
4E
102
{ACAD_REACTORS
330
42
102
}
330
42
100
AcDbScale
 70
     0
300
3/4" = 1'-0"
140
0.75
141
12.0
290
     0
  0
SCALE
  5
4F
102
{ACAD_REACTORS
330
42
102
}
330
42
100
AcDbScale
 70
     0
300
1" = 1'-0"
140
1.0
141
12.0
290
     0
  0
SCALE
  5
50
102
{ACAD_REACTORS
330
42
102
}
330
42
100
AcDbScale
 70
     0
300
1-1/2" = 1'-0"
140
1.5
141
12.0
290
     0
  0
SCALE
  5
51
102
{ACAD_REACTORS
330
42
102
}
330
42
100
AcDbScale
 70
     0
300
3" = 1'-0"
140
3.0
141
12.0
290
     0
  0
SCALE
  5
52
102
{ACAD_REACTORS
330
42
102
}
330
42
100
AcDbScale
 70
     0
300
6" = 1'-0"
140
6.0
141
12.0
290
     0
  0
SCALE
  5
53
102
{ACAD_REACTORS
330
42
102
}
330
42
100
AcDbScale
 70
     0
300
1'-0" = 1'-0"
140
12.0
141
12.0
290
     0
  0
ACDBSECTIONVIEWSTYLE
  5
6A
102
{ACAD_REACTORS
330
68
102
}
330
68
100
AcDbModelDocViewStyle
 70
     0
  3
Imperial24
290
     1
100
AcDbSectionViewStyle
 70
     0
 71
     0
 90
       78
 71
     1
340
55
 62
   256
 40
0.24
340
0
340
0
 62
   256
 40
0.24
300
I, O, Q, S, X, Z
 40
0.48
 90
        3
 40
0.18
 90
        1
 71
     2
340
69
 90
       25
 62
   256
340
5D
 90
       50
 62
   256
 40
0.24
 40
0.0
 40
0.24
 71
     3
340
55
 62
   256
 40
0.24
 90
        1
 40
0.75
 90
        1
300
%<\AcVar ViewType \f "%tc1">% %<\AcVar ViewSectionStartId>%-%<\AcVar ViewSectionEndId>%\PSCALA %<\AcVar ViewScale \f "%sn">%
 71
     4
 62
   256
 62
   257
300
ANSI31
 40
1.0
 90
        0
290
     0
290
     0
 90
        6
 40
0.0
 40
1.570796326794896
 40
0.2617993877991494
 40
1.308996938995747
 40
-0.2617993877991494
 40
1.832595714594046
  0
TABLESTYLE
  5
65
102
{ACAD_XDICTIONARY
360
1EB
102
}
102
{ACAD_REACTORS
330
64
102
}
330
64
100
AcDbTableStyle
280
     0
  3
Standard
 70
     0
 71
     0
 40
0.06
 41
0.06
280
     0
281
     0
  7
Standard
140
0.18
170
     2
 62
     0
 63
     7
283
     0
 90
      512
 91
        0
  1

274
    -2
284
     1
 64
     0
275
    -2
285
     1
 65
     0
276
    -2
286
     1
 66
     0
277
    -2
287
     1
 67
     0
278
    -2
288
     1
 68
     0
279
    -2
289
     1
 69
     0
  7
Standard
140
0.25
170
     5
 62
     0
 63
     7
283
     0
 90
      512
 91
        0
  1

274
    -2
284
     1
 64
     0
275
    -2
285
     1
 65
     0
276
    -2
286
     1
 66
     0
277
    -2
287
     1
 67
     0
278
    -2
288
     1
 68
     0
279
    -2
289
     1
 69
     0
  7
Standard
140
0.18
170
     5
 62
     0
 63
     7
283
     0
 90
      512
 91
        0
  1

274
    -2
284
     1
 64
     0
275
    -2
285
     1
 65
     0
276
    -2
286
     1
 66
     0
277
    -2
287
     1
 67
     0
278
    -2
288
     1
 68
     0
279
    -2
289
     1
 69
     0
  0
VISUALSTYLE
  5
2F
102
{ACAD_REACTORS
330
29
102
}
330
29
100
AcDbVisualStyle
  2
2dWireframe
 70
     4
177
     3
291
     0
 70
    58
 90
        0
176
     1
 90
        2
176
     1
 90
        0
176
     1
 90
        0
176
     1
 40
0.6
176
     1
 40
30.0
176
     1
 62
     7
420
 16777215
176
     1
 90
        1
176
     1
 90
        4
176
     1
 62
     7
176
     1
 62
   257
176
     1
 90
        1
176
     1
 90
        1
176
     1
 40
1.0
176
     1
 90
        0
176
     1
 62
   257
176
     1
 40
1.0
176
     1
 90
        1
176
     1
 90
        6
176
     1
 90
        2
176
     1
 62
     7
176
     1
 90
        5
176
     1
 90
        0
176
     1
 90
        0
176
     1
290
     0
176
     1
 90
        1
176
     1
 40
0.0
176
     1
 90
        0
176
     1
290
     1
176
     1
290
     1
176
     1
290
     0
176
     1
290
     0
176
     1
290
     0
176
     1
290
     0
176
     1
290
     0
176
     1
290
     0
176
     1
290
     0
176
     1
 90
       50
176
     1
 40
0.0
176
     1
 40
1.0
176
     1
 90
        0
176
     1
 62
    18
420
        0
176
     1
 90
       50
176
     1
 90
        3
176
     1
 62
     5
420
      255
176
     1
290
     0
176
     1
 90
       50
176
     1
 90
       50
176
     1
 90
       50
176
     1
290
     0
176
     1
 90
       50
176
     1
 62
   256
176
     0
 40
1.0
176
     0
 90
        2
176
     1
  1
strokes_ogs.tif
176
     1
290
     0
176
     1
 40
1.0
176
     1
 40
1.0
176
     1
  0
VISUALSTYLE
  5
2E
102
{ACAD_REACTORS
330
29
102
}
330
29
100
AcDbVisualStyle
  2
Basic
 70
     7
177
     3
291
     1
 70
    58
 90
        1
176
     1
 90
        0
176
     1
 90
        1
176
     1
 90
        0
176
     1
 40
0.6
176
     1
 40
30.0
176
     1
 62
     7
420
 16777215
176
     1
 90
        0
176
     1
 90
        4
176
     1
 62
     7
176
     1
 62
   257
176
     1
 90
        1
176
     1
 90
        1
176
     1
 40
1.0
176
     1
 90
        8
176
     1
 62
     7
176
     1
 40
1.0
176
     1
 90
        1
176
     1
 90
        6
176
     1
 90
        2
176
     1
 62
     7
176
     1
 90
        5
176
     1
 90
        0
176
     1
 90
        0
176
     1
290
     0
176
     1
 90
        1
176
     1
 40
0.0
176
     1
 90
        0
176
     1
290
     0
176
     1
290
     1
176
     1
290
     1
176
     1
290
     0
176
     1
290
     0
176
     1
290
     0
176
     1
290
     0
176
     1
290
     0
176
     1
290
     0
176
     1
 90
       50
176
     1
 40
0.0
176
     1
 40
1.0
176
     1
 90
        0
176
     1
 62
    18
420
        0
176
     1
 90
       50
176
     1
 90
        3
176
     1
 62
     5
420
      255
176
     1
290
     0
176
     1
 90
       50
176
     1
 90
       50
176
     1
 90
       50
176
     1
290
     0
176
     1
 90
       50
176
     1
 62
   256
176
     0
 40
1.0
176
     0
 90
        2
176
     1
  1
strokes_ogs.tif
176
     1
290
     0
176
     1
 40
1.0
176
     1
 40
1.0
176
     1
  0
VISUALSTYLE
  5
35
102
{ACAD_REACTORS
330
29
102
}
330
29
100
AcDbVisualStyle
  2
Brighten
 70
    12
177
     3
291
     1
 70
    58
 90
        2
176
     1
 90
        2
176
     1
 90
        0
176
     1
 90
        0
176
     1
 40
0.6
176
     1
 40
30.0
176
     1
 62
     7
420
 16777215
176
     1
 90
        1
176
     1
 90
        4
176
     1
 62
     7
176
     1
 62
   257
176
     1
 90
        1
176
     1
 90
        1
176
     1
 40
1.0
176
     1
 90
        8
176
     1
 62
     7
176
     1
 40
1.0
176
     1
 90
        1
176
     1
 90
        6
176
     1
 90
        2
176
     1
 62
     7
176
     1
 90
        5
176
     1
 90
        0
176
     1
 90
        0
176
     1
290
     0
176
     1
 90
        1
176
     1
 40
50.0
176
     1
 90
        0
176
     1
290
     0
176
     1
290
     1
176
     1
290
     1
176
     1
290
     0
176
     1
290
     0
176
     1
290
     0
176
     1
290
     0
176
     1
290
     0
176
     1
290
     0
176
     1
 90
       50
176
     1
 40
0.0
176
     1
 40
1.0
176
     1
 90
        0
176
     1
 62
    18
420
        0
176
     1
 90
       50
176
     1
 90
        3
176
     1
 62
     5
420
      255
176
     1
290
     0
176
     1
 90
       50
176
     1
 90
       50
176
     1
 90
       50
176
     1
290
     0
176
     1
 90
       50
176
     1
 62
   256
176
     0
 40
1.0
176
     0
 90
        2
176
     1
  1
strokes_ogs.tif
176
     1
290
     0
176
     1
 40
1.0
176
     1
 40
1.0
176
     1
  0
VISUALSTYLE
  5
39
102
{ACAD_REACTORS
330
29
102
}
330
29
100
AcDbVisualStyle
  2
ColorChange
 70
    16
177
     3
291
     1
 70
    58
 90
        2
176
     1
 90
        2
176
     1
 90
        3
176
     1
 90
        0
176
     1
 40
0.6
176
     1
 40
30.0
176
     1
 62
     8
420
  8421504
176
     1
 90
        1
176
     1
 90
        4
176
     1
 62
     7
176
     1
 62
   257
176
     1
 90
        1
176
     1
 90
        1
176
     1
 40
1.0
176
     1
 90
        8
176
     1
 62
     8
420
  8421504
176
     1
 40
1.0
176
     1
 90
        1
176
     1
 90
        6
176
     1
 90
        2
176
     1
 62
     7
176
     1
 90
        5
176
     1
 90
        0
176
     1
 90
        0
176
     1
290
     0
176
     1
 90
        1
176
     1
 40
0.0
176
     1
 90
        0
176
     1
290
     0
176
     1
290
     1
176
     1
290
     1
176
     1
290
     0
176
     1
290
     0
176
     1
290
     0
176
     1
290
     0
176
     1
290
     0
176
     1
290
     0
176
     1
 90
       50
176
     1
 40
0.0
176
     1
 40
1.0
176
     1
 90
        0
176
     1
 62
    18
420
        0
176
     1
 90
       50
176
     1
 90
        3
176
     1
 62
     5
420
      255
176
     1
290
     0
176
     1
 90
       50
176
     1
 90
       50
176
     1
 90
       50
176
     1
290
     0
176
     1
 90
       50
176
     1
 62
   256
176
     0
 40
1.0
176
     0
 90
        2
176
     1
  1
strokes_ogs.tif
176
     1
290
     0
176
     1
 40
1.0
176
     1
 40
1.0
176
     1
  0
VISUALSTYLE
  5
32
102
{ACAD_REACTORS
330
29
102
}
330
29
100
AcDbVisualStyle
  2
Conceptual
 70
     9
177
     3
291
     0
 70
    58
 90
        3
176
     1
 90
        2
176
     1
 90
        0
176
     1
 90
        0
176
     1
 40
0.6
176
     1
 40
30.0
176
     1
 62
     7
420
 16777215
176
     1
 90
        2
176
     1
 90
        2
176
     1
 62
     7
176
     1
 62
   257
176
     1
 90
        1
176
     1
 90
        1
176
     1
 40
179.0
176
     1
 90
        8
176
     1
 62
     7
176
     1
 40
1.0
176
     1
 90
        1
176
     1
 90
        6
176
     1
 90
        2
176
     1
 62
     7
176
     1
 90
        3
176
     1
 90
        0
176
     1
 90
        0
176
     1
290
     0
176
     1
 90
        1
176
     1
 40
0.0
176
     1
 90
        0
176
     1
290
     0
176
     1
290
     1
176
     1
290
     1
176
     1
290
     0
176
     1
290
     0
176
     1
290
     0
176
     1
290
     0
176
     1
290
     0
176
     1
290
     0
176
     1
 90
       50
176
     1
 40
0.0
176
     1
 40
1.0
176
     1
 90
        0
176
     1
 62
    18
420
        0
176
     1
 90
       50
176
     1
 90
        3
176
     1
 62
     5
420
      255
176
     1
290
     0
176
     1
 90
       50
176
     1
 90
       50
176
     1
 90
       50
176
     1
290
     0
176
     1
 90
       50
176
     1
 62
   256
176
     0
 40
1.0
176
     0
 90
        2
176
     1
  1
strokes_ogs.tif
176
     1
290
     0
176
     1
 40
1.0
176
     1
 40
1.0
176
     1
  0
VISUALSTYLE
  5
34
102
{ACAD_REACTORS
330
29
102
}
330
29
100
AcDbVisualStyle
  2
Dim
 70
    11
177
     3
291
     1
 70
    58
 90
        2
176
     1
 90
        2
176
     1
 90
        0
176
     1
 90
        0
176
     1
 40
0.6
176
     1
 40
30.0
176
     1
 62
     7
420
 16777215
176
     1
 90
        1
176
     1
 90
        4
176
     1
 62
     7
176
     1
 62
   257
176
     1
 90
        1
176
     1
 90
        1
176
     1
 40
1.0
176
     1
 90
        8
176
     1
 62
     7
176
     1
 40
1.0
176
     1
 90
        1
176
     1
 90
        6
176
     1
 90
        2
176
     1
 62
     7
176
     1
 90
        5
176
     1
 90
        0
176
     1
 90
        0
176
     1
290
     0
176
     1
 90
        1
176
     1
 40
-50.0
176
     1
 90
        0
176
     1
290
     0
176
     1
290
     1
176
     1
290
     1
176
     1
290
     0
176
     1
290
     0
176
     1
290
     0
176
     1
290
     0
176
     1
290
     0
176
     1
290
     0
176
     1
 90
       50
176
     1
 40
0.0
176
     1
 40
1.0
176
     1
 90
        0
176
     1
 62
    18
420
        0
176
     1
 90
       50
176
     1
 90
        3
176
     1
 62
     5
420
      255
176
     1
290
     0
176
     1
 90
       50
176
     1
 90
       50
176
     1
 90
       50
176
     1
290
     0
176
     1
 90
       50
176
     1
 62
   256
176
     0
 40
1.0
176
     0
 90
        2
176
     1
  1
strokes_ogs.tif
176
     1
290
     0
176
     1
 40
1.0
176
     1
 40
1.0
176
     1
  0
VISUALSTYLE
  5
41
102
{ACAD_REACTORS
330
29
102
}
330
29
100
AcDbVisualStyle
  2
EdgeColorOff
 70
    22
177
     3
291
     1
 70
    58
 90
        2
176
     0
 90
        2
176
     0
 90
        0
176
     0
 90
        0
176
     0
 40
0.6
176
     0
 40
30.0
176
     0
 62
     7
420
 16777215
176
     0
 90
        1
176
     0
 90
        4
176
     0
 62
     7
176
     0
 62
   257
176
     0
 90
        1
176
     0
 90
        1
176
     0
 40
1.0
176
     0
 90
        8
176
     2
 62
     7
176
     0
 40
1.0
176
     0
 90
        1
176
     0
 90
        6
176
     0
 90
        2
176
     0
 62
     7
176
     0
 90
        5
176
     0
 90
        0
176
     0
 90
        0
176
     0
290
     0
176
     0
 90
        1
176
     0
 40
0.0
176
     0
 90
        0
176
     0
290
     0
176
     0
290
     1
176
     0
290
     1
176
     0
290
     0
176
     0
290
     0
176
     0
290
     0
176
     0
290
     0
176
     0
290
     0
176
     0
290
     0
176
     0
 90
       50
176
     0
 40
0.0
176
     0
 40
1.0
176
     0
 90
        0
176
     0
 62
    18
420
        0
176
     0
 90
       50
176
     0
 90
        3
176
     0
 62
     5
420
      255
176
     0
290
     0
176
     0
 90
       50
176
     0
 90
       50
176
     0
 90
       50
176
     0
290
     0
176
     0
 90
       50
176
     0
 62
   256
176
     0
 40
1.0
176
     0
 90
        2
176
     0
  1
strokes_ogs.tif
176
     0
290
     0
176
     0
 40
1.0
176
     0
 40
1.0
176
     0
  0
VISUALSTYLE
  5
38
102
{ACAD_REACTORS
330
29
102
}
330
29
100
AcDbVisualStyle
  2
Facepattern
 70
    15
177
     3
291
     1
 70
    58
 90
        2
176
     1
 90
        2
176
     1
 90
        0
176
     1
 90
        0
176
     1
 40
0.6
176
     1
 40
30.0
176
     1
 62
     7
420
 16777215
176
     1
 90
        1
176
     1
 90
        4
176
     1
 62
     7
176
     1
 62
   257
176
     1
 90
        1
176
     1
 90
        1
176
     1
 40
1.0
176
     1
 90
        8
176
     1
 62
     7
176
     1
 40
1.0
176
     1
 90
        1
176
     1
 90
        6
176
     1
 90
        2
176
     1
 62
     7
176
     1
 90
        5
176
     1
 90
        0
176
     1
 90
        0
176
     1
290
     0
176
     1
 90
        1
176
     1
 40
0.0
176
     1
 90
        0
176
     1
290
     0
176
     1
290
     1
176
     1
290
     1
176
     1
290
     0
176
     1
290
     0
176
     1
290
     0
176
     1
290
     0
176
     1
290
     0
176
     1
290
     0
176
     1
 90
       50
176
     1
 40
0.0
176
     1
 40
1.0
176
     1
 90
        0
176
     1
 62
    18
420
        0
176
     1
 90
       50
176
     1
 90
        3
176
     1
 62
     5
420
      255
176
     1
290
     0
176
     1
 90
       50
176
     1
 90
       50
176
     1
 90
       50
176
     1
290
     0
176
     1
 90
       50
176
     1
 62
   256
176
     0
 40
1.0
176
     0
 90
        2
176
     1
  1
strokes_ogs.tif
176
     1
290
     0
176
     1
 40
1.0
176
     1
 40
1.0
176
     1
  0
VISUALSTYLE
  5
2A
102
{ACAD_REACTORS
330
29
102
}
330
29
100
AcDbVisualStyle
  2
Flat
 70
     0
177
     3
291
     1
 70
    58
 90
        2
176
     1
 90
        1
176
     1
 90
        1
176
     1
 90
        2
176
     1
 40
0.6
176
     1
 40
30.0
176
     1
 62
     7
420
 16777215
176
     1
 90
        0
176
     1
 90
        0
176
     1
 62
     7
176
     1
 62
   257
176
     1
 90
        1
176
     1
 90
        1
176
     1
 40
1.0
176
     1
 90
        8
176
     1
 62
     7
176
     1
 40
1.0
176
     1
 90
        1
176
     1
 90
        6
176
     1
 90
        2
176
     1
 62
     7
176
     1
 90
        5
176
     1
 90
        0
176
     1
 90
        0
176
     1
290
     0
176
     1
 90
       13
176
     1
 40
0.0
176
     1
 90
        0
176
     1
290
     0
176
     1
290
     1
176
     1
290
     1
176
     1
290
     0
176
     1
290
     0
176
     1
290
     0
176
     1
290
     0
176
     1
290
     0
176
     1
290
     0
176
     1
 90
       50
176
     1
 40
0.0
176
     1
 40
1.0
176
     1
 90
        0
176
     1
 62
    18
420
        0
176
     1
 90
       50
176
     1
 90
        3
176
     1
 62
     5
420
      255
176
     1
290
     0
176
     1
 90
       50
176
     1
 90
       50
176
     1
 90
       50
176
     1
290
     0
176
     1
 90
       50
176
     1
 62
   256
176
     0
 40
1.0
176
     0
 90
        2
176
     1
  1
strokes_ogs.tif
176
     1
290
     0
176
     1
 40
1.0
176
     1
 40
1.0
176
     1
  0
VISUALSTYLE
  5
2B
102
{ACAD_REACTORS
330
29
102
}
330
29
100
AcDbVisualStyle
  2
FlatWithEdges
 70
     1
177
     3
291
     1
 70
    58
 90
        2
176
     1
 90
        1
176
     1
 90
        1
176
     1
 90
        2
176
     1
 40
0.6
176
     1
 40
30.0
176
     1
 62
     7
420
 16777215
176
     1
 90
        1
176
     1
 90
        0
176
     1
 62
     7
176
     1
 62
   257
176
     1
 90
        1
176
     1
 90
        1
176
     1
 40
1.0
176
     1
 90
        0
176
     1
 62
   257
176
     1
 40
1.0
176
     1
 90
        1
176
     1
 90
        6
176
     1
 90
        2
176
     1
 62
     7
176
     1
 90
        5
176
     1
 90
        0
176
     1
 90
        0
176
     1
290
     0
176
     1
 90
       13
176
     1
 40
0.0
176
     1
 90
        0
176
     1
290
     0
176
     1
290
     1
176
     1
290
     1
176
     1
290
     0
176
     1
290
     0
176
     1
290
     0
176
     1
290
     0
176
     1
290
     0
176
     1
290
     0
176
     1
 90
       50
176
     1
 40
0.0
176
     1
 40
1.0
176
     1
 90
        0
176
     1
 62
    18
420
        0
176
     1
 90
       50
176
     1
 90
        3
176
     1
 62
     5
420
      255
176
     1
290
     0
176
     1
 90
       50
176
     1
 90
       50
176
     1
 90
       50
176
     1
290
     0
176
     1
 90
       50
176
     1
 62
   256
176
     0
 40
1.0
176
     0
 90
        2
176
     1
  1
strokes_ogs.tif
176
     1
290
     0
176
     1
 40
1.0
176
     1
 40
1.0
176
     1
  0
VISUALSTYLE
  5
2C
102
{ACAD_REACTORS
330
29
102
}
330
29
100
AcDbVisualStyle
  2
Gouraud
 70
     2
177
     3
291
     1
 70
    58
 90
        2
176
     1
 90
        2
176
     1
 90
        1
176
     1
 90
        2
176
     1
 40
0.6
176
     1
 40
30.0
176
     1
 62
     7
420
 16777215
176
     1
 90
        0
176
     1
 90
        0
176
     1
 62
     7
176
     1
 62
   257
176
     1
 90
        1
176
     1
 90
        1
176
     1
 40
1.0
176
     1
 90
        0
176
     1
 62
     7
176
     1
 40
1.0
176
     1
 90
        1
176
     1
 90
        6
176
     1
 90
        2
176
     1
 62
     7
176
     1
 90
        5
176
     1
 90
        0
176
     1
 90
        0
176
     1
290
     0
176
     1
 90
       13
176
     1
 40
0.0
176
     1
 90
        0
176
     1
290
     0
176
     1
290
     1
176
     1
290
     1
176
     1
290
     0
176
     1
290
     0
176
     1
290
     0
176
     1
290
     0
176
     1
290
     0
176
     1
290
     0
176
     1
 90
       50
176
     1
 40
0.0
176
     1
 40
1.0
176
     1
 90
        0
176
     1
 62
    18
420
        0
176
     1
 90
       50
176
     1
 90
        3
176
     1
 62
     5
420
      255
176
     1
290
     0
176
     1
 90
       50
176
     1
 90
       50
176
     1
 90
       50
176
     1
290
     0
176
     1
 90
       50
176
     1
 62
   256
176
     0
 40
1.0
176
     0
 90
        2
176
     1
  1
strokes_ogs.tif
176
     1
290
     0
176
     1
 40
1.0
176
     1
 40
1.0
176
     1
  0
VISUALSTYLE
  5
2D
102
{ACAD_REACTORS
330
29
102
}
330
29
100
AcDbVisualStyle
  2
GouraudWithEdges
 70
     3
177
     3
291
     1
 70
    58
 90
        2
176
     1
 90
        2
176
     1
 90
        1
176
     1
 90
        2
176
     1
 40
0.6
176
     1
 40
30.0
176
     1
 62
     7
420
 16777215
176
     1
 90
        1
176
     1
 90
        0
176
     1
 62
     7
176
     1
 62
   257
176
     1
 90
        1
176
     1
 90
        1
176
     1
 40
1.0
176
     1
 90
        0
176
     1
 62
   257
176
     1
 40
1.0
176
     1
 90
        1
176
     1
 90
        6
176
     1
 90
        2
176
     1
 62
     7
176
     1
 90
        5
176
     1
 90
        0
176
     1
 90
        0
176
     1
290
     0
176
     1
 90
       13
176
     1
 40
0.0
176
     1
 90
        0
176
     1
290
     0
176
     1
290
     1
176
     1
290
     1
176
     1
290
     0
176
     1
290
     0
176
     1
290
     0
176
     1
290
     0
176
     1
290
     0
176
     1
290
     0
176
     1
 90
       50
176
     1
 40
0.0
176
     1
 40
1.0
176
     1
 90
        0
176
     1
 62
    18
420
        0
176
     1
 90
       50
176
     1
 90
        3
176
     1
 62
     5
420
      255
176
     1
290
     0
176
     1
 90
       50
176
     1
 90
       50
176
     1
 90
       50
176
     1
290
     0
176
     1
 90
       50
176
     1
 62
   256
176
     0
 40
1.0
176
     0
 90
        2
176
     1
  1
strokes_ogs.tif
176
     1
290
     0
176
     1
 40
1.0
176
     1
 40
1.0
176
     1
  0
VISUALSTYLE
  5
31
102
{ACAD_REACTORS
330
29
102
}
330
29
100
AcDbVisualStyle
  2
Hidden
 70
     6
177
     3
291
     0
 70
    58
 90
        1
176
     1
 90
        2
176
     1
 90
        2
176
     1
 90
        0
176
     1
 40
0.6
176
     1
 40
30.0
176
     1
 62
     7
420
 16777215
176
     1
 90
        2
176
     1
 90
        2
176
     1
 62
     7
176
     1
 62
   257
176
     1
 90
        2
176
     1
 90
        1
176
     1
 40
40.0
176
     1
 90
        0
176
     1
 62
   257
176
     1
 40
1.0
176
     1
 90
        1
176
     1
 90
        6
176
     1
 90
        2
176
     1
 62
     7
176
     1
 90
        3
176
     1
 90
        0
176
     1
 90
        0
176
     1
290
     0
176
     1
 90
        1
176
     1
 40
0.0
176
     1
 90
        0
176
     1
290
     0
176
     1
290
     1
176
     1
290
     1
176
     1
290
     0
176
     1
290
     0
176
     1
290
     0
176
     1
290
     0
176
     1
290
     0
176
     1
290
     0
176
     1
 90
       50
176
     1
 40
0.0
176
     1
 40
1.0
176
     1
 90
        0
176
     1
 62
    18
420
        0
176
     1
 90
       50
176
     1
 90
        3
176
     1
 62
     5
420
      255
176
     1
290
     0
176
     1
 90
       50
176
     1
 90
       50
176
     1
 90
       50
176
     1
290
     0
176
     1
 90
       50
176
     1
 62
   256
176
     0
 40
1.0
176
     0
 90
        2
176
     1
  1
strokes_ogs.tif
176
     1
290
     0
176
     1
 40
1.0
176
     1
 40
1.0
176
     1
  0
VISUALSTYLE
  5
3F
102
{ACAD_REACTORS
330
29
102
}
330
29
100
AcDbVisualStyle
  2
JitterOff
 70
    20
177
     3
291
     1
 70
    58
 90
        2
176
     0
 90
        2
176
     0
 90
        0
176
     0
 90
        0
176
     0
 40
0.6
176
     0
 40
30.0
176
     0
 62
     7
420
 16777215
176
     0
 90
        1
176
     0
 90
        4
176
     0
 62
     7
176
     0
 62
   257
176
     0
 90
        1
176
     0
 90
        1
176
     0
 40
1.0
176
     0
 90
       10
176
     2
 62
     7
176
     0
 40
1.0
176
     0
 90
        1
176
     0
 90
        6
176
     0
 90
        2
176
     0
 62
     7
176
     0
 90
        5
176
     0
 90
        0
176
     0
 90
        0
176
     0
290
     0
176
     0
 90
        1
176
     0
 40
0.0
176
     0
 90
        0
176
     0
290
     0
176
     0
290
     1
176
     0
290
     1
176
     0
290
     0
176
     0
290
     0
176
     0
290
     0
176
     0
290
     0
176
     0
290
     0
176
     0
290
     0
176
     0
 90
       50
176
     0
 40
0.0
176
     0
 40
1.0
176
     0
 90
        0
176
     0
 62
    18
420
        0
176
     0
 90
       50
176
     0
 90
        3
176
     0
 62
     5
420
      255
176
     0
290
     0
176
     0
 90
       50
176
     0
 90
       50
176
     0
 90
       50
176
     0
290
     0
176
     0
 90
       50
176
     0
 62
   256
176
     0
 40
1.0
176
     0
 90
        2
176
     0
  1
strokes_ogs.tif
176
     0
290
     0
176
     0
 40
1.0
176
     0
 40
1.0
176
     0
  0
VISUALSTYLE
  5
37
102
{ACAD_REACTORS
330
29
102
}
330
29
100
AcDbVisualStyle
  2
Linepattern
 70
    14
177
     3
291
     1
 70
    58
 90
        2
176
     1
 90
        2
176
     1
 90
        0
176
     1
 90
        0
176
     1
 40
0.6
176
     1
 40
30.0
176
     1
 62
     7
420
 16777215
176
     1
 90
        1
176
     1
 90
        4
176
     1
 62
     7
176
     1
 62
   257
176
     1
 90
        7
176
     1
 90
        7
176
     1
 40
1.0
176
     1
 90
        8
176
     1
 62
     7
176
     1
 40
1.0
176
     1
 90
        1
176
     1
 90
        6
176
     1
 90
        2
176
     1
 62
     7
176
     1
 90
        5
176
     1
 90
        0
176
     1
 90
        0
176
     1
290
     0
176
     1
 90
        1
176
     1
 40
0.0
176
     1
 90
        0
176
     1
290
     0
176
     1
290
     1
176
     1
290
     1
176
     1
290
     0
176
     1
290
     0
176
     1
290
     0
176
     1
290
     0
176
     1
290
     0
176
     1
290
     0
176
     1
 90
       50
176
     1
 40
0.0
176
     1
 40
1.0
176
     1
 90
        0
176
     1
 62
    18
420
        0
176
     1
 90
       50
176
     1
 90
        3
176
     1
 62
     5
420
      255
176
     1
290
     0
176
     1
 90
       50
176
     1
 90
       50
176
     1
 90
       50
176
     1
290
     0
176
     1
 90
       50
176
     1
 62
   256
176
     0
 40
1.0
176
     0
 90
        2
176
     1
  1
strokes_ogs.tif
176
     1
290
     0
176
     1
 40
1.0
176
     1
 40
1.0
176
     1
  0
VISUALSTYLE
  5
40
102
{ACAD_REACTORS
330
29
102
}
330
29
100
AcDbVisualStyle
  2
OverhangOff
 70
    21
177
     3
291
     1
 70
    58
 90
        2
176
     0
 90
        2
176
     0
 90
        0
176
     0
 90
        0
176
     0
 40
0.6
176
     0
 40
30.0
176
     0
 62
     7
420
 16777215
176
     0
 90
        1
176
     0
 90
        4
176
     0
 62
     7
176
     0
 62
   257
176
     0
 90
        1
176
     0
 90
        1
176
     0
 40
1.0
176
     0
 90
        9
176
     2
 62
     7
176
     0
 40
1.0
176
     0
 90
        1
176
     0
 90
        6
176
     0
 90
        2
176
     0
 62
     7
176
     0
 90
        5
176
     0
 90
        0
176
     0
 90
        0
176
     0
290
     0
176
     0
 90
        1
176
     0
 40
0.0
176
     0
 90
        0
176
     0
290
     0
176
     0
290
     1
176
     0
290
     1
176
     0
290
     0
176
     0
290
     0
176
     0
290
     0
176
     0
290
     0
176
     0
290
     0
176
     0
290
     0
176
     0
 90
       50
176
     0
 40
0.0
176
     0
 40
1.0
176
     0
 90
        0
176
     0
 62
    18
420
        0
176
     0
 90
       50
176
     0
 90
        3
176
     0
 62
     5
420
      255
176
     0
290
     0
176
     0
 90
       50
176
     0
 90
       50
176
     0
 90
       50
176
     0
290
     0
176
     0
 90
       50
176
     0
 62
   256
176
     0
 40
1.0
176
     0
 90
        2
176
     0
  1
strokes_ogs.tif
176
     0
290
     0
176
     0
 40
1.0
176
     0
 40
1.0
176
     0
  0
VISUALSTYLE
  5
33
102
{ACAD_REACTORS
330
29
102
}
330
29
100
AcDbVisualStyle
  2
Realistic
 70
     8
177
     3
291
     0
 70
    58
 90
        2
176
     1
 90
        3
176
     1
 90
        0
176
     1
 90
        2
176
     1
 40
0.6
176
     1
 40
30.0
176
     1
 62
     7
420
 16777215
176
     1
 90
        0
176
     1
 90
        0
176
     1
 62
     7
176
     1
 62
   257
176
     1
 90
        1
176
     1
 90
        1
176
     1
 40
1.0
176
     1
 90
        8
176
     1
 62
   257
176
     1
 40
1.0
176
     1
 90
        1
176
     1
 90
        6
176
     1
 90
        2
176
     1
 62
     7
176
     1
 90
        3
176
     1
 90
        0
176
     1
 90
        0
176
     1
290
     0
176
     1
 90
       13
176
     1
 40
0.0
176
     1
 90
        0
176
     1
290
     0
176
     1
290
     1
176
     1
290
     1
176
     1
290
     0
176
     1
290
     0
176
     1
290
     0
176
     1
290
     0
176
     1
290
     0
176
     1
290
     0
176
     1
 90
       50
176
     1
 40
0.0
176
     1
 40
1.0
176
     1
 90
        0
176
     1
 62
    18
420
        0
176
     1
 90
       50
176
     1
 90
        3
176
     1
 62
     5
420
      255
176
     1
290
     0
176
     1
 90
       50
176
     1
 90
       50
176
     1
 90
       50
176
     1
290
     0
176
     1
 90
       50
176
     1
 62
   256
176
     0
 40
1.0
176
     0
 90
        2
176
     1
  1
strokes_ogs.tif
176
     1
290
     0
176
     1
 40
1.0
176
     1
 40
1.0
176
     1
  0
VISUALSTYLE
  5
3E
102
{ACAD_REACTORS
330
29
102
}
330
29
100
AcDbVisualStyle
  2
Shaded
 70
    27
177
     3
291
     0
 70
    58
 90
        2
176
     1
 90
        2
176
     1
 90
        1
176
     1
 90
        2
176
     1
 40
0.6
176
     1
 40
30.0
176
     1
 62
     7
420
 16777215
176
     1
 90
        0
176
     1
 90
        4
176
     1
 62
     7
176
     1
 62
   257
176
     1
 90
        1
176
     1
 90
        1
176
     1
 40
1.0
176
     1
 90
        8
176
     1
 62
   257
176
     1
 40
1.0
176
     1
 90
        1
176
     1
 90
        6
176
     1
 90
        2
176
     1
 62
     8
420
  7895160
176
     1
 90
        3
176
     1
 90
        0
176
     1
 90
        0
176
     1
290
     0
176
     1
 90
        5
176
     1
 40
0.0
176
     1
 90
        0
176
     1
290
     0
176
     1
290
     1
176
     1
290
     1
176
     1
290
     0
176
     1
290
     0
176
     1
290
     0
176
     1
290
     0
176
     1
290
     0
176
     1
290
     0
176
     1
 90
       50
176
     1
 40
0.0
176
     1
 40
1.0
176
     1
 90
        0
176
     1
 62
    18
420
        0
176
     1
 90
       50
176
     1
 90
        3
176
     1
 62
     5
420
      255
176
     1
290
     0
176
     1
 90
       50
176
     1
 90
       50
176
     1
 90
       50
176
     1
290
     0
176
     1
 90
       50
176
     1
 62
   256
176
     0
 40
1.0
176
     0
 90
        2
176
     1
  1
strokes_ogs.tif
176
     1
290
     0
176
     1
 40
1.0
176
     1
 40
1.0
176
     1
  0
VISUALSTYLE
  5
3D
102
{ACAD_REACTORS
330
29
102
}
330
29
100
AcDbVisualStyle
  2
Shaded with edges
 70
    26
177
     3
291
     0
 70
    58
 90
        2
176
     1
 90
        2
176
     1
 90
        1
176
     1
 90
        2
176
     1
 40
0.6
176
     1
 40
30.0
176
     1
 62
     7
420
 16777215
176
     1
 90
        1
176
     1
 90
       10
176
     1
 62
     7
176
     1
 62
   257
176
     1
 90
        2
176
     1
 90
        1
176
     1
 40
1.0
176
     1
 90
        8
176
     1
 62
   257
176
     1
 40
1.0
176
     1
 90
        1
176
     1
 90
        6
176
     1
 90
        2
176
     1
 62
     7
176
     1
 90
        3
176
     1
 90
        0
176
     1
 90
        0
176
     1
290
     0
176
     1
 90
        5
176
     1
 40
0.0
176
     1
 90
        0
176
     1
290
     0
176
     1
290
     1
176
     1
290
     1
176
     1
290
     0
176
     1
290
     0
176
     1
290
     0
176
     1
290
     0
176
     1
290
     0
176
     1
290
     0
176
     1
 90
       50
176
     1
 40
0.0
176
     1
 40
1.0
176
     1
 90
        0
176
     1
 62
    18
420
        0
176
     1
 90
       50
176
     1
 90
        3
176
     1
 62
     5
420
      255
176
     1
290
     0
176
     1
 90
       50
176
     1
 90
       50
176
     1
 90
       50
176
     1
290
     0
176
     1
 90
       50
176
     1
 62
   256
176
     0
 40
1.0
176
     0
 90
        2
176
     1
  1
strokes_ogs.tif
176
     1
290
     0
176
     1
 40
1.0
176
     1
 40
1.0
176
     1
  0
VISUALSTYLE
  5
3A
102
{ACAD_REACTORS
330
29
102
}
330
29
100
AcDbVisualStyle
  2
Shades of Gray
 70
    23
177
     3
291
     0
 70
    58
 90
        2
176
     1
 90
        2
176
     1
 90
        3
176
     1
 90
        0
176
     1
 40
0.6
176
     1
 40
30.0
176
     1
 62
     7
420
 16777215
176
     1
 90
        2
176
     1
 90
        2
176
     1
 62
     7
176
     1
 62
     7
176
     1
 90
        1
176
     1
 90
        1
176
     1
 40
40.0
176
     1
 90
        8
176
     1
 62
     7
176
     1
 40
1.0
176
     1
 90
        1
176
     1
 90
        6
176
     1
 90
        2
176
     1
 62
     7
176
     1
 90
        3
176
     1
 90
        0
176
     1
 90
        0
176
     1
290
     0
176
     1
 90
        1
176
     1
 40
0.0
176
     1
 90
        0
176
     1
290
     0
176
     1
290
     1
176
     1
290
     1
176
     1
290
     0
176
     1
290
     0
176
     1
290
     0
176
     1
290
     0
176
     1
290
     0
176
     1
290
     0
176
     1
 90
       50
176
     1
 40
0.0
176
     1
 40
1.0
176
     1
 90
        0
176
     1
 62
    18
420
        0
176
     1
 90
       50
176
     1
 90
        3
176
     1
 62
     5
420
      255
176
     1
290
     0
176
     1
 90
       50
176
     1
 90
       50
176
     1
 90
       50
176
     1
290
     0
176
     1
 90
       50
176
     1
 62
   256
176
     0
 40
1.0
176
     0
 90
        2
176
     1
  1
strokes_ogs.tif
176
     1
290
     0
176
     1
 40
1.0
176
     1
 40
1.0
176
     1
  0
VISUALSTYLE
  5
3B
102
{ACAD_REACTORS
330
29
102
}
330
29
100
AcDbVisualStyle
  2
Sketchy
 70
    24
177
     3
291
     0
 70
    58
 90
        1
176
     1
 90
        2
176
     1
 90
        2
176
     1
 90
        0
176
     1
 40
0.6
176
     1
 40
30.0
176
     1
 62
     7
420
 16777215
176
     1
 90
        2
176
     1
 90
        2
176
     1
 62
     7
176
     1
 62
     7
176
     1
 90
        1
176
     1
 90
        1
176
     1
 40
40.0
176
     1
 90
       11
176
     1
 62
     7
176
     1
 40
1.0
176
     1
 90
        1
176
     1
 90
        6
176
     1
 90
        2
176
     1
 62
     7
176
     1
 90
        6
176
     1
 90
        0
176
     1
 90
        0
176
     1
290
     0
176
     1
 90
        1
176
     1
 40
0.0
176
     1
 90
        0
176
     1
290
     0
176
     1
290
     1
176
     1
290
     1
176
     1
290
     0
176
     1
290
     0
176
     1
290
     0
176
     1
290
     0
176
     1
290
     0
176
     1
290
     0
176
     1
 90
       50
176
     1
 40
0.0
176
     1
 40
1.0
176
     1
 90
        0
176
     1
 62
    18
420
        0
176
     1
 90
       50
176
     1
 90
        3
176
     1
 62
     5
420
      255
176
     1
290
     0
176
     1
 90
       50
176
     1
 90
       50
176
     1
 90
       50
176
     1
290
     0
176
     1
 90
       50
176
     1
 62
   256
176
     0
 40
1.0
176
     0
 90
        2
176
     1
  1
strokes_ogs.tif
176
     1
290
     0
176
     1
 40
1.0
176
     1
 40
1.0
176
     1
  0
VISUALSTYLE
  5
36
102
{ACAD_REACTORS
330
29
102
}
330
29
100
AcDbVisualStyle
  2
Thicken
 70
    13
177
     3
291
     1
 70
    58
 90
        2
176
     1
 90
        2
176
     1
 90
        0
176
     1
 90
        0
176
     1
 40
0.6
176
     1
 40
30.0
176
     1
 62
     7
420
 16777215
176
     1
 90
        1
176
     1
 90
        4
176
     1
 62
     7
176
     1
 62
   257
176
     1
 90
        1
176
     1
 90
        1
176
     1
 40
1.0
176
     1
 90
       12
176
     1
 62
     7
176
     1
 40
1.0
176
     1
 90
        1
176
     1
 90
        6
176
     1
 90
        2
176
     1
 62
     7
176
     1
 90
        5
176
     1
 90
        0
176
     1
 90
        0
176
     1
290
     0
176
     1
 90
        1
176
     1
 40
0.0
176
     1
 90
        0
176
     1
290
     0
176
     1
290
     1
176
     1
290
     1
176
     1
290
     0
176
     1
290
     0
176
     1
290
     0
176
     1
290
     0
176
     1
290
     0
176
     1
290
     0
176
     1
 90
       50
176
     1
 40
0.0
176
     1
 40
1.0
176
     1
 90
        0
176
     1
 62
    18
420
        0
176
     1
 90
       50
176
     1
 90
        3
176
     1
 62
     5
420
      255
176
     1
290
     0
176
     1
 90
       50
176
     1
 90
       50
176
     1
 90
       50
176
     1
290
     0
176
     1
 90
       50
176
     1
 62
   256
176
     0
 40
1.0
176
     0
 90
        2
176
     1
  1
strokes_ogs.tif
176
     1
290
     0
176
     1
 40
1.0
176
     1
 40
1.0
176
     1
  0
VISUALSTYLE
  5
30
102
{ACAD_REACTORS
330
29
102
}
330
29
100
AcDbVisualStyle
  2
Wireframe
 70
     5
177
     3
291
     0
 70
    58
 90
        0
176
     1
 90
        2
176
     1
 90
        0
176
     1
 90
        0
176
     1
 40
0.6
176
     1
 40
30.0
176
     1
 62
     7
420
 16777215
176
     1
 90
        1
176
     1
 90
        4
176
     1
 62
     7
176
     1
 62
   257
176
     1
 90
        1
176
     1
 90
        1
176
     1
 40
1.0
176
     1
 90
        0
176
     1
 62
   257
176
     1
 40
1.0
176
     1
 90
        1
176
     1
 90
        6
176
     1
 90
        2
176
     1
 62
     7
176
     1
 90
        3
176
     1
 90
        0
176
     1
 90
        0
176
     1
290
     0
176
     1
 90
        1
176
     1
 40
0.0
176
     1
 90
        0
176
     1
290
     0
176
     1
290
     1
176
     1
290
     1
176
     1
290
     0
176
     1
290
     0
176
     1
290
     0
176
     1
290
     0
176
     1
290
     0
176
     1
290
     0
176
     1
 90
       50
176
     1
 40
0.0
176
     1
 40
1.0
176
     1
 90
        0
176
     1
 62
    18
420
        0
176
     1
 90
       50
176
     1
 90
        3
176
     1
 62
     5
420
      255
176
     1
290
     0
176
     1
 90
       50
176
     1
 90
       50
176
     1
 90
       50
176
     1
290
     0
176
     1
 90
       50
176
     1
 62
   256
176
     0
 40
1.0
176
     0
 90
        2
176
     1
  1
strokes_ogs.tif
176
     1
290
     0
176
     1
 40
1.0
176
     1
 40
1.0
176
     1
  0
VISUALSTYLE
  5
3C
102
{ACAD_REACTORS
330
29
102
}
330
29
100
AcDbVisualStyle
  2
X-Ray
 70
    25
177
     3
291
     0
 70
    58
 90
        2
176
     1
 90
        2
176
     1
 90
        1
176
     1
 90
        1
176
     1
 40
0.5
176
     1
 40
30.0
176
     1
 62
     7
420
 16777215
176
     1
 90
        1
176
     1
 90
        0
176
     1
 62
     7
176
     1
 62
   257
176
     1
 90
        1
176
     1
 90
        1
176
     1
 40
1.0
176
     1
 90
        8
176
     1
 62
     7
176
     1
 40
1.0
176
     1
 90
        1
176
     1
 90
        6
176
     1
 90
        2
176
     1
 62
     7
176
     1
 90
        3
176
     1
 90
        0
176
     1
 90
        0
176
     1
290
     0
176
     1
 90
       13
176
     1
 40
0.0
176
     1
 90
        0
176
     1
290
     0
176
     1
290
     1
176
     1
290
     1
176
     1
290
     0
176
     1
290
     0
176
     1
290
     0
176
     1
290
     0
176
     1
290
     0
176
     1
290
     0
176
     1
 90
       50
176
     1
 40
0.0
176
     1
 40
1.0
176
     1
 90
        0
176
     1
 62
    18
420
        0
176
     1
 90
       50
176
     1
 90
        3
176
     1
 62
     5
420
      255
176
     1
290
     0
176
     1
 90
       50
176
     1
 90
       50
176
     1
 90
       50
176
     1
290
     0
176
     1
 90
       50
176
     1
 62
   256
176
     0
 40
1.0
176
     0
 90
        2
176
     1
  1
strokes_ogs.tif
176
     1
290
     0
176
     1
 40
1.0
176
     1
 40
1.0
176
     1
  0
DICTIONARYVAR
  5
81
102
{ACAD_REACTORS
330
7C
102
}
330
7C
100
DictionaryVariables
280
     0
  1
1:1
  0
DICTIONARYVAR
  5
7E
102
{ACAD_REACTORS
330
7C
102
}
330
7C
100
DictionaryVariables
280
     0
  1
STANDARD
  0
DICTIONARYVAR
  5
7D
102
{ACAD_REACTORS
330
7C
102
}
330
7C
100
DictionaryVariables
280
     0
  1
STANDARD
  0
DICTIONARYVAR
  5
7F
102
{ACAD_REACTORS
330
7C
102
}
330
7C
100
DictionaryVariables
280
     0
  1
Imperial24
  0
DICTIONARYVAR
  5
80
102
{ACAD_REACTORS
330
7C
102
}
330
7C
100
DictionaryVariables
280
     0
  1
Imperial24
  0
XRECORD
  5
1E8
102
{ACAD_REACTORS
330
1E5
102
}
330
1E5
100
AcDbXrecord
280
     1
  1
BUILDING_ID
  1
Progetto per messa in tavola DXF, DWG
  1
FLOOR_ID
  1
694395
  0
XRECORD
  5
1E7
102
{ACAD_REACTORS
330
1E5
102
}
330
1E5
100
AcDbXrecord
280
     1
  1
-2001160
  1
Apparecchi idraulici
  0
XRECORD
  5
1E6
102
{ACAD_REACTORS
330
1E5
102
}
330
1E5
100
AcDbXrecord
280
     1
  1
859151
  1
Automatic flow rate regulator valve_Caleffi_121 DN15 : 1/2''
  0
DICTIONARY
  5
1A
330
19
100
AcDbDictionary
280
     1
281
     1
  3
BUMPTILE
360
1C
  3
DIFFUSETILE
360
1B
  3
OPACITYTILE
360
1F
  3
REFLECTIONTILE
360
1E
  3
REFRACTIONTILE
360
20
  3
SPECULARTILE
360
1D
  0
DICTIONARY
  5
12
330
11
100
AcDbDictionary
280
     1
281
     1
  3
BUMPTILE
360
14
  3
DIFFUSETILE
360
13
  3
OPACITYTILE
360
17
  3
REFLECTIONTILE
360
16
  3
REFRACTIONTILE
360
18
  3
SPECULARTILE
360
15
  0
DICTIONARY
  5
22
330
21
100
AcDbDictionary
280
     1
281
     1
  3
BUMPTILE
360
24
  3
DIFFUSETILE
360
23
  3
OPACITYTILE
360
27
  3
REFLECTIONTILE
360
26
  3
REFRACTIONTILE
360
28
  3
SPECULARTILE
360
25
  0
DICTIONARY
  5
1EB
330
65
100
AcDbDictionary
280
     1
281
     1
  3
ACAD_ROUNDTRIP_2008_TABLESTYLE_CELLSTYLEMAP
360
1EC
  0
XRECORD
  5
1C
102
{ACAD_REACTORS
330
1A
102
}
330
1A
100
AcDbXrecord
280
     1
270
     1
271
     1
  0
XRECORD
  5
1B
102
{ACAD_REACTORS
330
1A
102
}
330
1A
100
AcDbXrecord
280
     1
270
     1
271
     1
  0
XRECORD
  5
1F
102
{ACAD_REACTORS
330
1A
102
}
330
1A
100
AcDbXrecord
280
     1
270
     1
271
     1
  0
XRECORD
  5
1E
102
{ACAD_REACTORS
330
1A
102
}
330
1A
100
AcDbXrecord
280
     1
270
     1
271
     1
  0
XRECORD
  5
20
102
{ACAD_REACTORS
330
1A
102
}
330
1A
100
AcDbXrecord
280
     1
270
     1
271
     1
  0
XRECORD
  5
1D
102
{ACAD_REACTORS
330
1A
102
}
330
1A
100
AcDbXrecord
280
     1
270
     1
271
     1
  0
XRECORD
  5
14
102
{ACAD_REACTORS
330
12
102
}
330
12
100
AcDbXrecord
280
     1
270
     1
271
     1
  0
XRECORD
  5
13
102
{ACAD_REACTORS
330
12
102
}
330
12
100
AcDbXrecord
280
     1
270
     1
271
     1
  0
XRECORD
  5
17
102
{ACAD_REACTORS
330
12
102
}
330
12
100
AcDbXrecord
280
     1
270
     1
271
     1
  0
XRECORD
  5
16
102
{ACAD_REACTORS
330
12
102
}
330
12
100
AcDbXrecord
280
     1
270
     1
271
     1
  0
XRECORD
  5
18
102
{ACAD_REACTORS
330
12
102
}
330
12
100
AcDbXrecord
280
     1
270
     1
271
     1
  0
XRECORD
  5
15
102
{ACAD_REACTORS
330
12
102
}
330
12
100
AcDbXrecord
280
     1
270
     1
271
     1
  0
XRECORD
  5
24
102
{ACAD_REACTORS
330
22
102
}
330
22
100
AcDbXrecord
280
     1
270
     1
271
     1
  0
XRECORD
  5
23
102
{ACAD_REACTORS
330
22
102
}
330
22
100
AcDbXrecord
280
     1
270
     1
271
     1
  0
XRECORD
  5
27
102
{ACAD_REACTORS
330
22
102
}
330
22
100
AcDbXrecord
280
     1
270
     1
271
     1
  0
XRECORD
  5
26
102
{ACAD_REACTORS
330
22
102
}
330
22
100
AcDbXrecord
280
     1
270
     1
271
     1
  0
XRECORD
  5
28
102
{ACAD_REACTORS
330
22
102
}
330
22
100
AcDbXrecord
280
     1
270
     1
271
     1
  0
XRECORD
  5
25
102
{ACAD_REACTORS
330
22
102
}
330
22
100
AcDbXrecord
280
     1
270
     1
271
     1
  0
CELLSTYLEMAP
  5
1EC
102
{ACAD_REACTORS
330
1EB
102
}
330
1EB
100
AcDbCellStyleMap
 90
        3
300
CELLSTYLE
  1
TABLEFORMAT_BEGIN
 90
        5
170
     1
 91
        0
 92
    32768
 62
   257
 93
        1
300
CONTENTFORMAT
  1
CONTENTFORMAT_BEGIN
 90
        0
 91
        0
 92
      512
 93
        0
300

 40
0.0
140
1.0
 94
        5
 62
     0
340
55
144
0.25
309
CONTENTFORMAT_END
171
     0
 94
        0
309
TABLEFORMAT_END
  1
CELLSTYLE_BEGIN
 90
        1
 91
        1
300
_TITLE
309
CELLSTYLE_END
300
CELLSTYLE
  1
TABLEFORMAT_BEGIN
 90
        5
170
     1
 91
        0
 92
        0
 62
   257
 93
        1
300
CONTENTFORMAT
  1
CONTENTFORMAT_BEGIN
 90
        0
 91
        0
 92
      512
 93
        0
300

 40
0.0
140
1.0
 94
        5
 62
     0
340
55
144
0.18
309
CONTENTFORMAT_END
171
     0
 94
        0
309
TABLEFORMAT_END
  1
CELLSTYLE_BEGIN
 90
        2
 91
        1
300
_HEADER
309
CELLSTYLE_END
300
CELLSTYLE
  1
TABLEFORMAT_BEGIN
 90
        5
170
     1
 91
        0
 92
        0
 62
   257
 93
        1
300
CONTENTFORMAT
  1
CONTENTFORMAT_BEGIN
 90
        0
 91
        0
 92
      512
 93
        0
300

 40
0.0
140
1.0
 94
        2
 62
     0
340
55
144
0.18
309
CONTENTFORMAT_END
171
     0
 94
        0
309
TABLEFORMAT_END
  1
CELLSTYLE_BEGIN
 90
        3
 91
        2
300
_DATA
309
CELLSTYLE_END
  0
ENDSEC
  0
EOF
