  0
SECTION
  2
HEADER
  9
$ACADVER
  1
AC1027
  9
$ACADMAINTVER
 70
    20
  9
$DWGCODEPAGE
  3
ANSI_1252
  9
$REQUIREDVERSIONS
160
                 0
  9
$INSBASE
 10
0.0
 20
0.0
 30
0.0
  9
$EXTMIN
 10
663.5378196159827
 20
1787.245878720052
 30
-0.00000001
  9
$EXTMAX
 10
1086.114353953097
 20
2024.499999999996
 30
0.00000001
  9
$LIMMIN
 10
0.0
 20
0.0
  9
$LIMMAX
 10
12.0
 20
9.0
  9
$ORTHOMODE
 70
     0
  9
$REGENMODE
 70
     1
  9
$FILLMODE
 70
     1
  9
$QTEXTMODE
 70
     0
  9
$MIRRTEXT
 70
     0
  9
$LTSCALE
 40
1.0
  9
$ATTMODE
 70
     1
  9
$TEXTSIZE
 40
0.2
  9
$TRACEWID
 40
0.05
  9
$TEXTSTYLE
  7
Standard
  9
$CLAYER
  8
0
  9
$CELTYPE
  6
ByLayer
  9
$CECOLOR
 62
   256
  9
$CELTSCALE
 40
1.0
  9
$DISPSILH
 70
     0
  9
$DIMSCALE
 40
1.0
  9
$DIMASZ
 40
0.18
  9
$DIMEXO
 40
0.0625
  9
$DIMDLI
 40
0.38
  9
$DIMRND
 40
0.0
  9
$DIMDLE
 40
0.0
  9
$DIMEXE
 40
0.18
  9
$DIMTP
 40
0.0
  9
$DIMTM
 40
0.0
  9
$DIMTXT
 40
0.18
  9
$DIMCEN
 40
0.09
  9
$DIMTSZ
 40
0.0
  9
$DIMTOL
 70
     0
  9
$DIMLIM
 70
     0
  9
$DIMTIH
 70
     1
  9
$DIMTOH
 70
     1
  9
$DIMSE1
 70
     0
  9
$DIMSE2
 70
     0
  9
$DIMTAD
 70
     0
  9
$DIMZIN
 70
     0
  9
$DIMBLK
  1

  9
$DIMASO
 70
     1
  9
$DIMSHO
 70
     1
  9
$DIMPOST
  1

  9
$DIMAPOST
  1

  9
$DIMALT
 70
     0
  9
$DIMALTD
 70
     2
  9
$DIMALTF
 40
25.4
  9
$DIMLFAC
 40
1.0
  9
$DIMTOFL
 70
     0
  9
$DIMTVP
 40
0.0
  9
$DIMTIX
 70
     0
  9
$DIMSOXD
 70
     0
  9
$DIMSAH
 70
     0
  9
$DIMBLK1
  1

  9
$DIMBLK2
  1

  9
$DIMSTYLE
  2
Standard
  9
$DIMCLRD
 70
     0
  9
$DIMCLRE
 70
     0
  9
$DIMCLRT
 70
     0
  9
$DIMTFAC
 40
1.0
  9
$DIMGAP
 40
0.09
  9
$DIMJUST
 70
     0
  9
$DIMSD1
 70
     0
  9
$DIMSD2
 70
     0
  9
$DIMTOLJ
 70
     1
  9
$DIMTZIN
 70
     0
  9
$DIMALTZ
 70
     0
  9
$DIMALTTZ
 70
     0
  9
$DIMUPT
 70
     0
  9
$DIMDEC
 70
     4
  9
$DIMTDEC
 70
     4
  9
$DIMALTU
 70
     2
  9
$DIMALTTD
 70
     2
  9
$DIMTXSTY
  7
Standard
  9
$DIMAUNIT
 70
     0
  9
$DIMADEC
 70
     0
  9
$DIMALTRND
 40
0.0
  9
$DIMAZIN
 70
     0
  9
$DIMDSEP
 70
    46
  9
$DIMATFIT
 70
     3
  9
$DIMFRAC
 70
     0
  9
$DIMLDRBLK
  1

  9
$DIMLUNIT
 70
     2
  9
$DIMLWD
 70
    -2
  9
$DIMLWE
 70
    -2
  9
$DIMTMOVE
 70
     0
  9
$DIMFXL
 40
1.0
  9
$DIMFXLON
 70
     0
  9
$DIMJOGANG
 40
0.7853981633974483
  9
$DIMTFILL
 70
     0
  9
$DIMTFILLCLR
 70
     0
  9
$DIMARCSYM
 70
     0
  9
$DIMLTYPE
  6

  9
$DIMLTEX1
  6

  9
$DIMLTEX2
  6

  9
$DIMTXTDIRECTION
 70
     0
  9
$LUNITS
 70
     2
  9
$LUPREC
 70
     4
  9
$SKETCHINC
 40
0.1
  9
$FILLETRAD
 40
0.0
  9
$AUNITS
 70
     0
  9
$AUPREC
 70
     0
  9
$MENU
  1
.
  9
$ELEVATION
 40
0.0
  9
$PELEVATION
 40
0.0
  9
$THICKNESS
 40
0.0
  9
$LIMCHECK
 70
     0
  9
$CHAMFERA
 40
0.0
  9
$CHAMFERB
 40
0.0
  9
$CHAMFERC
 40
0.0
  9
$CHAMFERD
 40
0.0
  9
$SKPOLY
 70
     0
  9
$TDCREATE
 40
2457540.365311100
  9
$TDUCREATE
 40
2457540.281977766
  9
$TDUPDATE
 40
2457540.365311100
  9
$TDUUPDATE
 40
2457540.281977766
  9
$TDINDWG
 40
0.0000074769
  9
$TDUSRTIMER
 40
0.0000074769
  9
$USRTIMER
 70
     1
  9
$ANGBASE
 50
0.0
  9
$ANGDIR
 70
     0
  9
$PDMODE
 70
     0
  9
$PDSIZE
 40
0.0
  9
$PLINEWID
 40
0.0
  9
$SPLFRAME
 70
     0
  9
$SPLINETYPE
 70
     6
  9
$SPLINESEGS
 70
     8
  9
$HANDSEED
  5
21A
  9
$SURFTAB1
 70
     6
  9
$SURFTAB2
 70
     6
  9
$SURFTYPE
 70
     6
  9
$SURFU
 70
     6
  9
$SURFV
 70
     6
  9
$UCSBASE
  2

  9
$UCSNAME
  2

  9
$UCSORG
 10
0.0
 20
0.0
 30
0.0
  9
$UCSXDIR
 10
1.0
 20
0.0
 30
0.0
  9
$UCSYDIR
 10
0.0
 20
1.0
 30
0.0
  9
$UCSORTHOREF
  2

  9
$UCSORTHOVIEW
 70
     0
  9
$UCSORGTOP
 10
0.0
 20
0.0
 30
0.0
  9
$UCSORGBOTTOM
 10
0.0
 20
0.0
 30
0.0
  9
$UCSORGLEFT
 10
0.0
 20
0.0
 30
0.0
  9
$UCSORGRIGHT
 10
0.0
 20
0.0
 30
0.0
  9
$UCSORGFRONT
 10
0.0
 20
0.0
 30
0.0
  9
$UCSORGBACK
 10
0.0
 20
0.0
 30
0.0
  9
$PUCSBASE
  2

  9
$PUCSNAME
  2

  9
$PUCSORG
 10
0.0
 20
0.0
 30
0.0
  9
$PUCSXDIR
 10
1.0
 20
0.0
 30
0.0
  9
$PUCSYDIR
 10
0.0
 20
1.0
 30
0.0
  9
$PUCSORTHOREF
  2

  9
$PUCSORTHOVIEW
 70
     0
  9
$PUCSORGTOP
 10
0.0
 20
0.0
 30
0.0
  9
$PUCSORGBOTTOM
 10
0.0
 20
0.0
 30
0.0
  9
$PUCSORGLEFT
 10
0.0
 20
0.0
 30
0.0
  9
$PUCSORGRIGHT
 10
0.0
 20
0.0
 30
0.0
  9
$PUCSORGFRONT
 10
0.0
 20
0.0
 30
0.0
  9
$PUCSORGBACK
 10
0.0
 20
0.0
 30
0.0
  9
$USERI1
 70
     0
  9
$USERI2
 70
     0
  9
$USERI3
 70
     0
  9
$USERI4
 70
     0
  9
$USERI5
 70
     0
  9
$USERR1
 40
0.0
  9
$USERR2
 40
0.0
  9
$USERR3
 40
0.0
  9
$USERR4
 40
0.0
  9
$USERR5
 40
0.0
  9
$WORLDVIEW
 70
     1
  9
$SHADEDGE
 70
     3
  9
$SHADEDIF
 70
    70
  9
$TILEMODE
 70
     1
  9
$MAXACTVP
 70
    64
  9
$PINSBASE
 10
0.0
 20
0.0
 30
0.0
  9
$PLIMCHECK
 70
     0
  9
$PEXTMIN
 10
1.000000000000000E+20
 20
1.000000000000000E+20
 30
1.000000000000000E+20
  9
$PEXTMAX
 10
-1.000000000000000E+20
 20
-1.000000000000000E+20
 30
-1.000000000000000E+20
  9
$PLIMMIN
 10
0.0
 20
0.0
  9
$PLIMMAX
 10
12.0
 20
9.0
  9
$UNITMODE
 70
     0
  9
$VISRETAIN
 70
     1
  9
$PLINEGEN
 70
     0
  9
$PSLTSCALE
 70
     1
  9
$TREEDEPTH
 70
  3020
  9
$CMLSTYLE
  2
Standard
  9
$CMLJUST
 70
     0
  9
$CMLSCALE
 40
1.0
  9
$PROXYGRAPHICS
 70
     1
  9
$MEASUREMENT
 70
     1
  9
$CELWEIGHT
370
    -1
  9
$ENDCAPS
280
     0
  9
$JOINSTYLE
280
     0
  9
$LWDISPLAY
290
     0
  9
$INSUNITS
 70
     4
  9
$HYPERLINKBASE
  1

  9
$STYLESHEET
  1

  9
$XEDIT
290
     1
  9
$CEPSNTYPE
380
     0
  9
$PSTYLEMODE
290
     1
  9
$FINGERPRINTGUID
  2
{A54E9EFA-A3B7-4176-A481-938857A4D95F}
  9
$VERSIONGUID
  2
{0E187110-A2F1-435F-AE0B-288A48A095D6}
  9
$EXTNAMES
290
     1
  9
$PSVPSCALE
 40
0.0
  9
$OLESTARTUP
290
     0
  9
$SORTENTS
280
   127
  9
$INDEXCTL
280
     0
  9
$HIDETEXT
280
     1
  9
$XCLIPFRAME
280
     2
  9
$HALOGAP
280
     0
  9
$OBSCOLOR
 70
   257
  9
$OBSLTYPE
280
     0
  9
$INTERSECTIONDISPLAY
280
     0
  9
$INTERSECTIONCOLOR
 70
   257
  9
$DIMASSOC
280
     2
  9
$PROJECTNAME
  1

  9
$CAMERADISPLAY
290
     0
  9
$LENSLENGTH
 40
50.0
  9
$CAMERAHEIGHT
 40
0.0
  9
$STEPSPERSEC
 40
2.0
  9
$STEPSIZE
 40
6.0
  9
$3DDWFPREC
 40
2.0
  9
$PSOLWIDTH
 40
0.25
  9
$PSOLHEIGHT
 40
4.0
  9
$LOFTANG1
 40
1.570796326794896
  9
$LOFTANG2
 40
1.570796326794896
  9
$LOFTMAG1
 40
0.0
  9
$LOFTMAG2
 40
0.0
  9
$LOFTPARAM
 70
     7
  9
$LOFTNORMALS
280
     1
  9
$LATITUDE
 40
37.795
  9
$LONGITUDE
 40
-122.394
  9
$NORTHDIRECTION
 40
0.0
  9
$TIMEZONE
 70
 -8000
  9
$LIGHTGLYPHDISPLAY
280
     1
  9
$TILEMODELIGHTSYNCH
280
     1
  9
$CMATERIAL
347
11
  9
$SOLIDHIST
280
     0
  9
$SHOWHIST
280
     1
  9
$DWFFRAME
280
     2
  9
$DGNFRAME
280
     0
  9
$REALWORLDSCALE
290
     1
  9
$INTERFERECOLOR
 62
     1
  9
$INTERFEREOBJVS
345
33
  9
$INTERFEREVPVS
346
30
  9
$CSHADOW
280
     0
  9
$SHADOWPLANELOCATION
 40
0.0
  0
ENDSEC
  0
SECTION
  2
CLASSES
  0
CLASS
  1
ACDBDICTIONARYWDFLT
  2
AcDbDictionaryWithDefault
  3
ObjectDBX Classes
 90
        0
 91
        1
280
     0
281
     0
  0
CLASS
  1
MATERIAL
  2
AcDbMaterial
  3
ObjectDBX Classes
 90
     1153
 91
        3
280
     0
281
     0
  0
CLASS
  1
VISUALSTYLE
  2
AcDbVisualStyle
  3
ObjectDBX Classes
 90
     4095
 91
       24
280
     0
281
     0
  0
CLASS
  1
SCALE
  2
AcDbScale
  3
ObjectDBX Classes
 90
     1153
 91
       17
280
     0
281
     0
  0
CLASS
  1
TABLESTYLE
  2
AcDbTableStyle
  3
ObjectDBX Classes
 90
     4095
 91
        1
280
     0
281
     0
  0
CLASS
  1
MLEADERSTYLE
  2
AcDbMLeaderStyle
  3
ACDB_MLEADERSTYLE_CLASS
 90
     4095
 91
        1
280
     0
281
     0
  0
CLASS
  1
ACDBSECTIONVIEWSTYLE
  2
AcDbSectionViewStyle
  3
ObjectDBX Classes
 90
     1025
 91
        1
280
     0
281
     0
  0
CLASS
  1
ACDBDETAILVIEWSTYLE
  2
AcDbDetailViewStyle
  3
ObjectDBX Classes
 90
     1025
 91
        1
280
     0
281
     0
  0
CLASS
  1
RASTERVARIABLES
  2
AcDbRasterVariables
  3
ISM
 90
        0
 91
        1
280
     0
281
     0
  0
CLASS
  1
DICTIONARYVAR
  2
AcDbDictionaryVar
  3
ObjectDBX Classes
 90
        0
 91
        5
280
     0
281
     0
  0
CLASS
  1
CELLSTYLEMAP
  2
AcDbCellStyleMap
  3
ObjectDBX Classes
 90
     1152
 91
        2
280
     0
281
     0
  0
CLASS
  1
SORTENTSTABLE
  2
AcDbSortentsTable
  3
ObjectDBX Classes
 90
        0
 91
        1
280
     0
281
     0
  0
ENDSEC
  0
SECTION
  2
TABLES
  0
TABLE
  2
VPORT
  5
8
330
0
100
AcDbSymbolTable
 70
     1
  0
VPORT
  5
57
330
8
100
AcDbSymbolTableRecord
100
AcDbViewportTableRecord
  2
*Active
 70
     0
 10
0.0
 20
0.0
 11
1.0
 21
1.0
 12
874.8260867845399
 22
1905.872939360024
 13
0.0
 23
0.0
 14
1.0
 24
1.0
 15
0.0
 25
0.0
 16
0.0
 26
0.0
 36
1.0
 17
0.0
 27
0.0
 37
0.0
 40
237.2541212799435
 41
1.781113567416192
 42
50.0
 43
0.0
 44
0.0
 50
0.0
 51
0.0
 71
     0
 72
  1000
 73
     1
 74
     1
 75
     0
 76
     0
 77
     0
 78
     0
281
     0
 65
     1
110
0.0
120
0.0
130
0.0
111
1.0
121
0.0
131
0.0
112
0.0
122
1.0
132
0.0
 79
     0
146
0.0
 60
     3
 61
     5
292
     1
282
     1
141
0.0
142
0.0
 63
   250
421
  3355443
  0
ENDTAB
  0
TABLE
  2
LTYPE
  5
5
330
0
100
AcDbSymbolTable
 70
     3
  0
LTYPE
  5
5B
330
5
100
AcDbSymbolTableRecord
100
AcDbLinetypeTableRecord
  2
ByBlock
 70
     0
  3

 72
    65
 73
     0
 40
0.0
  0
LTYPE
  5
5C
330
5
100
AcDbSymbolTableRecord
100
AcDbLinetypeTableRecord
  2
ByLayer
 70
     0
  3

 72
    65
 73
     0
 40
0.0
  0
LTYPE
  5
5D
330
5
100
AcDbSymbolTableRecord
100
AcDbLinetypeTableRecord
  2
Continuous
 70
     0
  3
Solid line
 72
    65
 73
     0
 40
0.0
  0
LTYPE
  5
69
330
5
100
AcDbSymbolTableRecord
100
AcDbLinetypeTableRecord
  2
PHANTOM2
 70
     0
  3
___ _ _ ___ _ _ ___ _ _ ___ _ _
 72
    65
 73
     6
 40
1.25
 49
0.625
 74
     0
 49
-0.125
 74
     0
 49
0.125
 74
     0
 49
-0.125
 74
     0
 49
0.125
 74
     0
 49
-0.125
 74
     0
  0
LTYPE
  5
86
330
5
100
AcDbSymbolTableRecord
100
AcDbLinetypeTableRecord
  2
Nascosto 1_5 mm
 70
     0
  3

 72
    65
 73
     2
 40
2.2
 49
1.5
 74
     0
 49
-0.7000000000000001
 74
     0
  0
ENDTAB
  0
TABLE
  2
LAYER
  5
2
330
0
100
AcDbSymbolTable
 70
     3
  0
LAYER
  5
54
330
2
100
AcDbSymbolTableRecord
100
AcDbLayerTableRecord
  2
0
 70
     0
 62
     7
  6
Continuous
370
    -3
390
F
347
21
348
0
  0
LAYER
  5
85
330
2
100
AcDbSymbolTableRecord
100
AcDbLayerTableRecord
  2
P-SANR-FIXT
 70
     0
 62
     6
  6
Continuous
370
    18
390
F
347
21
348
0
  0
ENDTAB
  0
TABLE
  2
STYLE
  5
3
330
0
100
AcDbSymbolTable
 70
     2
  0
STYLE
  5
55
330
3
100
AcDbSymbolTableRecord
100
AcDbTextStyleTableRecord
  2
Standard
 70
     0
 40
0.0
 41
1.0
 50
0.0
 71
     0
 42
0.2
  3
txt
  4

  0
STYLE
  5
5A
330
3
100
AcDbSymbolTableRecord
100
AcDbTextStyleTableRecord
  2
Annotative
 70
     0
 40
0.0
 41
1.0
 50
0.0
 71
     0
 42
0.2
  3
txt
  4

1001
AcadAnnotative
1000
AnnotativeData
1002
{
1070
     1
1070
     1
1002
}
  0
ENDTAB
  0
TABLE
  2
VIEW
  5
6
330
0
100
AcDbSymbolTable
 70
     0
  0
ENDTAB
  0
TABLE
  2
UCS
  5
7
330
0
100
AcDbSymbolTable
 70
     0
  0
ENDTAB
  0
TABLE
  2
APPID
  5
9
330
0
100
AcDbSymbolTable
 70
     3
  0
APPID
  5
56
330
9
100
AcDbSymbolTableRecord
100
AcDbRegAppTableRecord
  2
ACAD
 70
     0
  0
APPID
  5
5E
330
9
100
AcDbSymbolTableRecord
100
AcDbRegAppTableRecord
  2
AcadAnnotative
 70
     0
  0
APPID
  5
79
330
9
100
AcDbSymbolTableRecord
100
AcDbRegAppTableRecord
  2
REVIT
 70
     0
  0
ENDTAB
  0
TABLE
  2
DIMSTYLE
  5
A
330
0
100
AcDbSymbolTable
 70
     2
100
AcDbDimStyleTable
 71
     0
  0
DIMSTYLE
105
58
330
A
100
AcDbSymbolTableRecord
100
AcDbDimStyleTableRecord
  2
Standard
 70
     0
340
55
  0
DIMSTYLE
105
59
330
A
100
AcDbSymbolTableRecord
100
AcDbDimStyleTableRecord
  2
Annotative
 70
     0
340
55
1001
AcadAnnotative
1000
AnnotativeData
1002
{
1070
     1
1070
     1
1002
}
  0
ENDTAB
  0
TABLE
  2
BLOCK_RECORD
  5
1
330
0
100
AcDbSymbolTable
 70
     4
  0
BLOCK_RECORD
  5
71
102
{ACAD_XDICTIONARY
360
215
102
}
330
1
100
AcDbSymbolTableRecord
100
AcDbBlockTableRecord
  2
*Model_Space
340
74
 70
     0
280
     1
281
     0
  0
BLOCK_RECORD
  5
6D
330
1
100
AcDbSymbolTableRecord
100
AcDbBlockTableRecord
  2
*Paper_Space
340
70
 70
     0
280
     1
281
     0
  0
BLOCK_RECORD
  5
75
330
1
100
AcDbSymbolTableRecord
100
AcDbBlockTableRecord
  2
*Paper_Space0
340
78
 70
     0
280
     1
281
     0
  0
BLOCK_RECORD
  5
87
330
1
100
AcDbSymbolTableRecord
100
AcDbBlockTableRecord
  2
Automatic flow rate regulator valve_Caleffi_121 DN15 - 1_2__-859151-Est - Idraulica
340
0
102
{BLKREFS
331
F6
102
}
 70
     0
280
     1
281
     0
  0
BLOCK_RECORD
  5
F7
330
1
100
AcDbSymbolTableRecord
100
AcDbBlockTableRecord
  2
Automatic flow rate regulator valve_Caleffi_121 DN15 - 1_2__-V1-Est - Idraulica
340
0
102
{BLKREFS
331
1CA
102
}
 70
     0
280
     1
281
     0
  0
BLOCK_RECORD
  5
1CB
330
1
100
AcDbSymbolTableRecord
100
AcDbBlockTableRecord
  2
Automatic flow rate regulator valve_Caleffi_121 DN15 - 1_2__-V2-Est - Idraulica
340
0
102
{BLKREFS
331
20F
102
}
 70
     0
280
     1
281
     0
  0
ENDTAB
  0
ENDSEC
  0
SECTION
  2
BLOCKS
  0
BLOCK
  5
72
330
71
100
AcDbEntity
  8
0
100
AcDbBlockBegin
  2
*Model_Space
 70
     0
 10
0.0
 20
0.0
 30
0.0
  3
*Model_Space
  1

  0
ENDBLK
  5
73
330
71
100
AcDbEntity
  8
0
100
AcDbBlockEnd
  0
BLOCK
  5
6E
330
6D
100
AcDbEntity
 67
     1
  8
0
100
AcDbBlockBegin
  2
*Paper_Space
 70
     0
 10
0.0
 20
0.0
 30
0.0
  3
*Paper_Space
  1

  0
ENDBLK
  5
6F
330
6D
100
AcDbEntity
 67
     1
  8
0
100
AcDbBlockEnd
  0
BLOCK
  5
76
330
75
100
AcDbEntity
 67
     1
  8
0
100
AcDbBlockBegin
  2
*Paper_Space0
 70
     0
 10
0.0
 20
0.0
 30
0.0
  3
*Paper_Space0
  1

  0
ENDBLK
  5
77
330
75
100
AcDbEntity
 67
     1
  8
0
100
AcDbBlockEnd
  0
BLOCK
  5
F4
330
87
100
AcDbEntity
  8
0
100
AcDbBlockBegin
  2
Automatic flow rate regulator valve_Caleffi_121 DN15 - 1_2__-859151-Est - Idraulica
 70
     0
 10
0.0
 20
0.0
 30
0.0
  3
Automatic flow rate regulator valve_Caleffi_121 DN15 - 1_2__-859151-Est - Idraulica
  1

  0
LINE
  5
88
330
87
100
AcDbEntity
  8
P-SANR-FIXT
100
AcDbLine
 10
688.5818711515622
 20
1955.963438419018
 30
0.0
 11
688.6029160647997
 21
1955.978174225908
 31
0.0
  0
LINE
  5
89
330
87
100
AcDbEntity
  8
P-SANR-FIXT
100
AcDbLine
 10
670.0256394603535
 20
1968.606491472058
 30
0.0
 11
670.004594547116
 21
1968.591755665169
 31
0.0
  0
LINE
  5
8A
330
87
100
AcDbEntity
  8
P-SANR-FIXT
100
AcDbLine
 10
682.0286547972497
 20
1951.419617985992
 30
0.0
 11
679.4635429933036
 21
1955.082977295868
 31
0.0
  0
LINE
  5
8B
330
87
100
AcDbEntity
  8
P-SANR-FIXT
100
AcDbLine
 10
679.4635429933036
 20
1955.082977295868
 30
0.0
 11
678.5922589327472
 21
1956.327299890258
 31
0.0
  0
LINE
  5
8C
330
87
100
AcDbEntity
  8
P-SANR-FIXT
100
AcDbLine
 10
678.5922589327472
 20
1956.327299890258
 30
0.0
 11
673.4620353248549
 21
1963.65401851001
 31
0.0
  0
LINE
  5
8D
330
87
100
AcDbEntity
  8
P-SANR-FIXT
100
AcDbLine
 10
673.4620353248549
 20
1963.65401851001
 30
0.0
 11
672.5907512642985
 21
1964.8983411044
 31
0.0
  0
LINE
  5
8E
330
87
100
AcDbEntity
  8
P-SANR-FIXT
100
AcDbLine
 10
672.5907512642987
 20
1964.8983411044
 30
0.0
 11
670.0256394603528
 21
1968.561700414276
 31
0.0
  0
LINE
  5
8F
330
87
100
AcDbEntity
  8
P-SANR-FIXT
100
AcDbLine
 10
670.0256394603528
 20
1968.561700414276
 30
0.0
 11
670.0045945471152
 21
1968.591755665168
 31
0.0
  0
LINE
  5
90
330
87
100
AcDbEntity
  8
P-SANR-FIXT
100
AcDbLine
 10
682.0496997104871
 20
1951.389562735099
 30
0.0
 11
682.0286547972497
 21
1951.419617985991
 31
0.0
  0
LINE
  5
91
330
87
100
AcDbEntity
  8
P-SANR-FIXT
100
AcDbLine
 10
688.5818711515615
 20
1956.0082294768
 30
0.0
 11
682.0286547972497
 21
1951.419617985991
 31
0.0
  0
LINE
  5
92
330
87
100
AcDbEntity
  8
P-SANR-FIXT
100
AcDbLine
 10
670.0256394603528
 20
1968.561700414276
 30
0.0
 11
676.5788558146645
 21
1973.150311905084
 31
0.0
  0
LINE
  5
93
330
87
100
AcDbEntity
  8
P-SANR-FIXT
100
AcDbLine
 10
672.5907512642985
 20
1964.8983411044
 30
0.0
 11
679.1439676186105
 21
1969.486952595208
 31
0.0
  0
LINE
  5
94
330
87
100
AcDbEntity
  8
P-SANR-FIXT
100
AcDbLine
 10
673.4620353248549
 20
1963.65401851001
 30
0.0
 11
680.015251679167
 21
1968.242630000818
 31
0.0
  0
LINE
  5
95
330
87
100
AcDbEntity
  8
P-SANR-FIXT
100
AcDbLine
 10
678.5922589327469
 20
1956.327299890258
 30
0.0
 11
685.1454752870591
 21
1960.915911381066
 31
0.0
  0
LINE
  5
96
330
87
100
AcDbEntity
  8
P-SANR-FIXT
100
AcDbLine
 10
679.4635429933036
 20
1955.082977295868
 30
0.0
 11
686.0167593476155
 21
1959.671588786676
 31
0.0
  0
LINE
  5
97
330
87
100
AcDbEntity
  8
P-SANR-FIXT
100
AcDbLine
 10
695.9357719066506
 20
1950.736111158505
 30
0.0
 11
704.1272923495405
 21
1956.471875522015
 31
0.0
  0
LINE
  5
98
330
87
100
AcDbEntity
  8
P-SANR-FIXT
100
AcDbLine
 10
681.8320312404265
 20
1987.249999999995
 30
0.0
 11
674.1398673253106
 21
1981.863888841486
 31
0.0
  0
LINE
  5
99
330
87
100
AcDbEntity
  8
P-SANR-FIXT
100
AcDbLine
 10
703.4103218041018
 20
1957.495815577376
 30
0.0
 11
719.7702787184473
 21
1968.951180733587
 31
0.0
  0
LINE
  5
9A
330
87
100
AcDbEntity
  8
P-SANR-FIXT
100
AcDbLine
 10
683.4208653263694
 20
1986.836545367985
 30
0.0
 11
683.0483583136396
 21
1986.575713149636
 31
0.0
  0
LINE
  5
9B
330
87
100
AcDbEntity
  8
P-SANR-FIXT
100
AcDbLine
 10
726.5921546521314
 20
1974.948684275846
 30
0.0
 11
744.517291185567
 21
1987.499999999996
 31
0.0
  0
LINE
  5
9C
330
87
100
AcDbEntity
  8
P-SANR-FIXT
100
AcDbLine
 10
722.787819615983
 20
2013.180808929169
 30
0.0
 11
720.3873756940703
 21
2011.499999999996
 31
0.0
  0
LWPOLYLINE
  5
9D
330
87
100
AcDbEntity
  8
P-SANR-FIXT
100
AcDbPolyline
 90
       40
 70
   128
 43
0.0
 10
742.7176424360061
 20
1996.376994327899
 10
742.4648989517977
 20
1996.737949431089
 10
742.2048096111482
 20
1997.109395504512
 10
741.9377905015204
 20
1997.490738313689
 10
741.6642687965285
 20
1997.881367791474
 10
741.3846820725522
 20
1998.280659014032
 10
741.0994776087078
 20
1998.687973200585
 10
740.8091116712974
 20
1999.102658735324
 10
740.5140487838789
 20
1999.524052209854
 10
740.2147609841294
 20
1999.951479484508
 10
739.9117270686834
 20
2000.384256766828
 10
739.605431827162
 20
2000.821691705482
 10
739.296365266612
 20
2001.263084497881
 10
738.9850218275999
 20
2001.707729009719
 10
738.6718995932114
 20
2002.154913904627
 10
738.3574994922257
 20
2002.60392378217
 10
738.0423244977365
 20
2003.054040322325
 10
737.7268788225002
 20
2003.504543434649
 10
737.4116671123065
 20
2003.954712410264
 10
737.0971936386498
 20
2004.403827074839
 10
736.783961492004
 20
2004.851168940719
 10
736.4724717769846
 20
2005.296022356345
 10
736.1632228106875
 20
2005.737675651149
 10
735.8567093254897
 20
2006.175422274074
 10
735.5534216775811
 20
2006.608561923904
 10
735.2538450625006
 20
2007.036401669598
 10
734.9584587389261
 20
2007.458257058829
 10
734.667735261963
 20
2007.873453212968
 10
734.3821397271566
 20
2008.281325906736
 10
734.1021290264388
 20
2008.681222630833
 10
733.8281511171983
 20
2009.072503635806
 10
733.5606443056445
 20
2009.454542955516
 10
733.3000365456106
 20
2009.82672940855
 10
733.0467447539193
 20
2010.188467575978
 10
732.8011741434051
 20
2010.539178753898
 10
732.5637175746587
 20
2010.878301879241
 10
732.3347549275355
 20
2011.205294427349
 10
732.1146524934282
 20
2011.519633279899
 10
731.9037623892787
 20
2011.820815561781
 10
731.7877410382505
 20
2011.986511222991
  0
LINE
  5
9E
330
87
100
AcDbEntity
  8
P-SANR-FIXT
100
AcDbLine
 10
751.0182575274659
 20
2012.499999999995
 30
0.0
 11
743.7786249191998
 21
2012.499999999995
 31
0.0
  0
LINE
  5
9F
330
87
100
AcDbEntity
  8
P-SANR-FIXT
100
AcDbLine
 10
744.517291185567
 20
1987.499999999996
 30
0.0
 11
751.0182575274659
 21
1987.499999999996
 31
0.0
  0
LINE
  5
A0
330
87
100
AcDbEntity
  8
P-SANR-FIXT
100
AcDbLine
 10
743.7786249191998
 20
2012.499999999995
 30
0.0
 11
742.2786249191997
 21
2010.999999999995
 31
0.0
  0
LINE
  5
A1
330
87
100
AcDbEntity
  8
P-SANR-FIXT
100
AcDbLine
 10
742.2786249191996
 20
2010.999999999995
 30
0.0
 11
740.2878196159829
 21
2010.999999999995
 31
0.0
  0
LINE
  5
A2
330
87
100
AcDbEntity
  8
P-SANR-FIXT
100
AcDbLine
 10
722.787819615983
 20
2024.499999999996
 30
0.0
 11
722.787819615983
 21
2013.180808929169
 31
0.0
  0
LINE
  5
A3
330
87
100
AcDbEntity
  8
P-SANR-FIXT
100
AcDbLine
 10
740.2878196159829
 20
2010.999999999995
 30
0.0
 11
740.2878196159829
 21
2024.499999999996
 31
0.0
  0
LINE
  5
A4
330
87
100
AcDbEntity
  8
P-SANR-FIXT
100
AcDbLine
 10
676.0378196159835
 20
1987.249999999995
 30
0.0
 11
681.8320312404266
 21
1987.249999999995
 31
0.0
  0
LINE
  5
A5
330
87
100
AcDbEntity
  8
P-SANR-FIXT
100
AcDbLine
 10
682.5934256762584
 20
1987.249999999995
 30
0.0
 11
683.182157183281
 21
1987.249999999995
 31
0.0
  0
LINE
  5
A6
330
87
100
AcDbEntity
  8
P-SANR-FIXT
100
AcDbLine
 10
679.0378196159833
 20
2012.749999999996
 30
0.0
 11
676.0378196159835
 21
2012.749999999996
 31
0.0
  0
LINE
  5
A7
330
87
100
AcDbEntity
  8
P-SANR-FIXT
100
AcDbLine
 10
683.182157183281
 20
1987.249999999995
 30
0.0
 11
683.4208653263694
 21
1986.836545367985
 31
0.0
  0
LINE
  5
A8
330
87
100
AcDbEntity
  8
P-SANR-FIXT
100
AcDbLine
 10
706.3073072108015
 20
2013.499999999996
 30
0.0
 11
704.0378196159835
 21
2013.499999999996
 31
0.0
  0
LWPOLYLINE
  5
A9
330
87
100
AcDbEntity
  8
P-SANR-FIXT
100
AcDbPolyline
 90
       32
 70
   128
 43
0.0
 10
706.3073072108015
 20
2013.499999999996
 10
706.4272752133615
 20
2013.497600319979
 10
706.5470512927092
 20
2013.490405118904
 10
706.6664438326683
 20
2013.478425907557
 10
706.7852618306444
 20
2013.461681850122
 10
706.9033152031868
 20
2013.44019973352
 10
707.0204150900829
 20
2013.414013924552
 10
707.1363741564938
 20
2013.383166314928
 10
707.25100689265
 20
2013.347706254243
 10
707.3641299106269
 20
2013.307690471029
 10
707.4755622377275
 20
2013.263182982004
 10
707.5851256059995
 20
2013.214254989656
 10
707.692644737426
 20
2013.160984768334
 10
707.7979476243328
 20
2013.103457539028
 10
707.9008658045644
 20
2013.041765333036
 10
708.0012346309866
 20
2012.976006844725
 10
708.0988935348886
 20
2012.906287273649
 10
708.1936862828571
 20
2012.832718156249
 10
708.285461226716
 20
2012.755417187418
 10
708.3740715461332
 20
2012.674508032219
 10
708.4593754835001
 20
2012.590120128037
 10
708.5412365707142
 20
2012.502388477519
 10
708.6195238474986
 20
2012.411453432591
 10
708.6941120709106
 20
2012.317460469926
 10
708.7648819157045
 20
2012.220559958213
 10
708.8317201652253
 20
2012.1209069176
 10
708.8945198925316
 20
2012.018660771694
 10
708.9531806314564
 20
2011.913985092517
 10
709.007608537331
 20
2011.807047338826
 10
709.0577165371168
 20
2011.698018588214
 10
709.1034244687033
 20
2011.587073263426
 10
709.1357343355477
 20
2011.499999999996
  0
LINE
  5
AA
330
87
100
AcDbEntity
  8
P-SANR-FIXT
100
AcDbLine
 10
720.2668291226452
 20
1968.291164162186
 30
0.0
 11
727.6391975212463
 21
1973.453352089346
 31
0.0
  0
LINE
  5
AB
330
87
100
AcDbEntity
  8
P-SANR-FIXT
100
AcDbLine
 10
679.0378196159833
 20
2024.499999999996
 30
0.0
 11
679.0378196159833
 21
2012.749999999996
 31
0.0
  0
LINE
  5
AC
330
87
100
AcDbEntity
  8
P-SANR-FIXT
100
AcDbLine
 10
704.0378196159835
 20
2013.499999999996
 30
0.0
 11
704.0378196159835
 21
2024.499999999996
 31
0.0
  0
LINE
  5
AD
330
87
100
AcDbEntity
  8
P-SANR-FIXT
100
AcDbLine
 10
693.4783157737838
 20
1949.015381849451
 30
0.0
 11
695.9357719066506
 21
1950.736111158505
 31
0.0
  0
LINE
  5
AE
330
87
100
AcDbEntity
  8
P-SANR-FIXT
100
AcDbLine
 10
674.1398673253106
 20
1981.863888841486
 30
0.0
 11
671.6824111924439
 21
1980.143159532433
 31
0.0
  0
SPLINE
  5
AF
330
87
100
AcDbEntity
  8
P-SANR-FIXT
100
AcDbSpline
210
0.0
220
0.0
230
1.0
 70
     8
 71
     3
 72
     9
 73
     5
 74
     0
 42
0.000000001
 43
0.0000000001
 40
0.0
 40
0.0
 40
0.0
 40
0.0
 40
0.5
 40
1.0
 40
1.0
 40
1.0
 40
1.0
 10
682.4179559792009
 20
1987.476020987008
 30
0.0
 10
682.2294594324282
 20
1987.401636832795
 30
0.0
 10
681.941547978552
 20
1987.292097174202
 30
0.0
 10
681.8370512145836
 20
1987.253515023741
 30
0.0
 10
681.8320312404258
 20
1987.249999999995
 30
0.0
  0
LINE
  5
B0
330
87
100
AcDbEntity
  8
P-SANR-FIXT
100
AcDbLine
 10
704.1272923495398
 20
1956.471875522015
 30
0.0
 11
682.4179559792009
 21
1987.476020987008
 31
0.0
  0
SPLINE
  5
B1
330
87
100
AcDbEntity
  8
P-SANR-FIXT
100
AcDbSpline
210
0.0
220
0.0
230
1.0
 70
     8
 71
     3
 72
    21
 73
    17
 74
     0
 42
0.000000001
 43
0.0000000001
 40
0.0
 40
0.0
 40
0.0
 40
0.0
 40
0.1666666666666666
 40
0.25
 40
0.2916666666666666
 40
0.3333333333333333
 40
0.375
 40
0.4166666666666666
 40
0.5
 40
0.5833333333333333
 40
0.625
 40
0.6666666666666666
 40
0.7083333333333333
 40
0.75
 40
0.8333333333333332
 40
1.0
 40
1.0
 40
1.0
 40
1.0
 10
702.1887696136912
 20
1994.109308815663
 30
0.0
 10
701.057293562995
 20
1993.589879085197
 30
0.0
 10
699.3628501957354
 20
1992.847932814273
 30
0.0
 10
697.3997917739596
 20
1992.035854903677
 30
0.0
 10
696.2831222887347
 20
1991.584105738147
 30
0.0
 10
695.4496496434806
 20
1991.25308936253
 30
0.0
 10
694.6162119224126
 20
1990.920124788919
 30
0.0
 10
693.5028440230524
 20
1990.468331576093
 30
0.0
 10
692.1171765481024
 20
1989.906854135819
 30
0.0
 10
690.7611176203609
 20
1989.37838313143
 30
0.0
 10
689.7092789044535
 20
1988.989300785027
 30
0.0
 10
688.9426535731099
 20
1988.71903105969
 30
0.0
 10
688.1979448154704
 20
1988.46453463853
 30
0.0
 10
687.2292253473211
 20
1988.132774974699
 30
0.0
 10
685.6073596964688
 20
1987.571283159324
 30
0.0
 10
684.3612191834814
 20
1987.092595943425
 30
0.0
 10
683.6151698851723
 20
1986.745521271009
 30
0.0
  0
SPLINE
  5
B2
330
87
100
AcDbEntity
  8
P-SANR-FIXT
100
AcDbSpline
210
0.0
220
0.0
230
1.0
 70
     8
 71
     3
 72
     9
 73
     5
 74
     0
 42
0.000000001
 43
0.0000000001
 40
0.0
 40
0.0
 40
0.0
 40
0.0
 40
0.5
 40
1.0
 40
1.0
 40
1.0
 40
1.0
 10
683.6151698851723
 20
1986.745521271009
 30
0.0
 10
683.5508375953021
 20
1986.775910483134
 30
0.0
 10
683.4539772497674
 20
1986.821675977889
 30
0.0
 10
683.4211802977273
 20
1986.836765913304
 30
0.0
 10
683.4208653263687
 20
1986.836545367985
 30
0.0
  0
SPLINE
  5
B3
330
87
100
AcDbEntity
  8
P-SANR-FIXT
100
AcDbSpline
210
0.0
220
0.0
230
1.0
 70
     8
 71
     3
 72
     9
 73
     5
 74
     0
 42
0.000000001
 43
0.0000000001
 40
0.0
 40
0.0
 40
0.0
 40
0.0
 40
0.5
 40
1.0
 40
1.0
 40
1.0
 40
1.0
 10
744.5172911855661
 20
1987.499999999995
 30
0.0
 10
744.5166759117791
 20
1987.499569180651
 30
0.0
 10
744.5350449647463
 20
1987.651440793981
 30
0.0
 10
744.6013127441152
 20
1988.096354701599
 30
0.0
 10
744.6490967498099
 20
1988.388251312662
 30
0.0
  0
SPLINE
  5
B4
330
87
100
AcDbEntity
  8
P-SANR-FIXT
100
AcDbSpline
210
0.0
220
0.0
230
1.0
 70
     8
 71
     3
 72
    11
 73
     7
 74
     0
 42
0.000000001
 43
0.0000000001
 40
0.0
 40
0.0
 40
0.0
 40
0.0
 40
0.25
 40
0.5
 40
0.75
 40
1.0
 40
1.0
 40
1.0
 40
1.0
 10
726.7809591130327
 20
2013.906596462819
 30
0.0
 10
726.1772917801788
 20
2013.720899314446
 30
0.0
 10
725.0776468590701
 20
2013.447629079388
 30
0.0
 10
723.781028348145
 20
2013.259746544906
 30
0.0
 10
722.972041169565
 20
2013.190856438113
 30
0.0
 10
722.7880361937093
 20
2013.180960578525
 30
0.0
 10
722.7878196159822
 20
2013.180808929168
 30
0.0
  0
LINE
  5
B5
330
87
100
AcDbEntity
  8
P-SANR-FIXT
100
AcDbLine
 10
720.5962957661697
 20
2011.499999999995
 30
0.0
 11
710.8619249550423
 21
2004.683920178315
 31
0.0
  0
SPLINE
  5
B6
330
87
100
AcDbEntity
  8
P-SANR-FIXT
100
AcDbSpline
210
0.0
220
0.0
230
1.0
 70
     8
 71
     3
 72
    12
 73
     8
 74
     0
 42
0.000000001
 43
0.0000000001
 40
0.0
 40
0.0
 40
0.0
 40
0.0
 40
0.1666666666666666
 40
0.3333333333333333
 40
0.5
 40
0.6666666666666666
 40
1.0
 40
1.0
 40
1.0
 40
1.0
 10
710.8619249550423
 20
2004.683920178315
 30
0.0
 10
710.8203090045885
 20
2004.574682311332
 30
0.0
 10
710.7258701252435
 20
2004.284388231781
 30
0.0
 10
710.5528495559998
 20
2003.652371639281
 30
0.0
 10
710.3113255734462
 20
2002.810506751087
 30
0.0
 10
709.9476880190989
 20
2001.473513428861
 30
0.0
 10
709.6645483653503
 20
2000.29766870946
 30
0.0
 10
709.4424616702514
 20
1999.440984124155
 30
0.0
  0
SPLINE
  5
B7
330
87
100
AcDbEntity
  8
P-SANR-FIXT
100
AcDbSpline
210
0.0
220
0.0
230
1.0
 70
     8
 71
     3
 72
    11
 73
     7
 74
     0
 42
0.000000001
 43
0.0000000001
 40
-1.0
 40
-1.0
 40
-1.0
 40
-1.0
 40
-0.75
 40
-0.5
 40
-0.25
 40
0.0
 40
0.0
 40
0.0
 40
0.0
 10
744.6490967498098
 20
1988.388251312662
 30
0.0
 10
744.7004706549101
 20
1988.650288844669
 30
0.0
 10
744.7451851563672
 20
1989.285641512404
 30
0.0
 10
744.6597277677705
 20
1990.547934838088
 30
0.0
 10
744.3570288820438
 20
1992.071232026903
 30
0.0
 10
743.9970479618594
 20
1993.19887732509
 30
0.0
 10
743.7786249191987
 20
1993.782435111155
 30
0.0
  0
SPLINE
  5
B8
330
87
100
AcDbEntity
  8
P-SANR-FIXT
100
AcDbSpline
210
0.0
220
0.0
230
1.0
 70
     8
 71
     3
 72
    11
 73
     7
 74
     0
 42
0.000000001
 43
0.0000000001
 40
0.0
 40
0.0
 40
0.0
 40
0.0
 40
0.3333333333333333
 40
0.5
 40
0.6666666666666666
 40
1.0
 40
1.0
 40
1.0
 40
1.0
 10
743.7786249191987
 20
1993.782435111155
 30
0.0
 10
743.7047607840528
 20
1994.078716748978
 30
0.0
 10
743.5796605236055
 20
1994.530143311803
 30
0.0
 10
743.3645860046201
 20
1995.129547753587
 30
0.0
 10
743.1174348981178
 20
1995.716174989777
 30
0.0
 10
742.8928568699984
 20
1996.126762183238
 30
0.0
 10
742.7176424360053
 20
1996.376994327899
 30
0.0
  0
SPLINE
  5
B9
330
87
100
AcDbEntity
  8
P-SANR-FIXT
100
AcDbSpline
210
0.0
220
0.0
230
1.0
 70
     8
 71
     3
 72
    11
 73
     7
 74
     0
 42
0.000000001
 43
0.0000000001
 40
-1.0
 40
-1.0
 40
-1.0
 40
-1.0
 40
-0.7857142857142857
 40
-0.5714285714285714
 40
-0.2857142857142857
 40
0.0
 40
0.0
 40
0.0
 40
0.0
 10
731.7877410382497
 20
2011.986511222991
 30
0.0
 10
731.5411008718931
 20
2012.338719287676
 30
0.0
 10
730.9629796686883
 20
2012.967947426456
 30
0.0
 10
729.7535490356986
 20
2013.73614849997
 30
0.0
 10
728.2675041096654
 20
2014.138404554548
 30
0.0
 10
727.2482248273986
 20
2014.049841178104
 30
0.0
 10
726.7809591130328
 20
2013.906596462819
 30
0.0
  0
LINE
  5
BA
330
87
100
AcDbEntity
  8
P-SANR-FIXT
100
AcDbLine
 10
743.7786249191987
 20
2012.499999999995
 30
0.0
 11
743.7786249191987
 21
1993.782435111155
 31
0.0
  0
LINE
  5
BB
330
87
100
AcDbEntity
  8
P-SANR-FIXT
100
AcDbLine
 10
742.2786249191989
 20
2010.999999999995
 30
0.0
 11
742.2786249191989
 21
1997.00397631945
 31
0.0
  0
SPLINE
  5
BC
330
87
100
AcDbEntity
  8
P-SANR-FIXT
100
AcDbSpline
210
0.0
220
0.0
230
1.0
 70
     8
 71
     3
 72
    15
 73
    11
 74
     0
 42
0.000000001
 43
0.0000000001
 40
0.0
 40
0.0
 40
0.0
 40
0.0
 40
0.2
 40
0.3
 40
0.35
 40
0.4
 40
0.55
 40
0.7
 40
0.85
 40
1.0
 40
1.0
 40
1.0
 40
1.0
 10
740.2878196159823
 20
2010.999999999995
 30
0.0
 10
740.2799993714603
 20
2010.999999999995
 30
0.0
 10
740.1501859209283
 20
2010.888402428805
 30
0.0
 10
739.7692906275798
 20
2010.591757942995
 30
0.0
 10
739.4931067744737
 20
2010.380531616812
 30
0.0
 10
739.1144755109776
 20
2010.088375480634
 30
0.0
 10
738.4601075217897
 20
2009.604845022748
 30
0.0
 10
737.4525453821481
 20
2008.896352066912
 30
0.0
 10
736.2825897610255
 20
2008.163761776108
 30
0.0
 10
735.4050288135682
 20
2007.703257682527
 30
0.0
 10
734.9402550623351
 20
2007.484254603267
 30
0.0
  0
LINE
  5
BD
330
87
100
AcDbEntity
  8
P-SANR-FIXT
100
AcDbLine
 10
722.7878196159822
 20
2024.499999999995
 30
0.0
 11
740.2878196159821
 21
2024.499999999995
 31
0.0
  0
SPLINE
  5
BE
330
87
100
AcDbEntity
  8
P-SANR-FIXT
100
AcDbSpline
210
0.0
220
0.0
230
1.0
 70
     8
 71
     3
 72
    15
 73
    11
 74
     0
 42
0.000000001
 43
0.0000000001
 40
0.0
 40
0.0
 40
0.0
 40
0.0
 40
0.25
 40
0.375
 40
0.4375
 40
0.5
 40
0.5625
 40
0.625
 40
0.75
 40
1.0
 40
1.0
 40
1.0
 40
1.0
 10
683.1821571832802
 20
2008.725227486387
 30
0.0
 10
682.5961633487184
 20
2009.273666512115
 30
0.0
 10
681.7960758786957
 20
2010.061366102735
 30
0.0
 10
680.9702584093079
 20
2010.862983584659
 30
0.0
 10
680.5387287257119
 20
2011.278838607491
 30
0.0
 10
680.2466098028313
 20
2011.567235647623
 30
0.0
 10
679.9808373348716
 20
2011.830687937137
 30
0.0
 10
679.6552832044953
 20
2012.145072846359
 30
0.0
 10
679.2033616020361
 20
2012.585225162259
 30
0.0
 10
679.0493494993081
 20
2012.749999999995
 30
0.0
 10
679.0378196159827
 20
2012.749999999995
 30
0.0
  0
SPLINE
  5
BF
330
87
100
AcDbEntity
  8
P-SANR-FIXT
100
AcDbSpline
210
0.0
220
0.0
230
1.0
 70
     8
 71
     3
 72
     9
 73
     5
 74
     0
 42
0.000000001
 43
0.0000000001
 40
-1.0
 40
-1.0
 40
-1.0
 40
-1.0
 40
-0.5
 40
0.0
 40
0.0
 40
0.0
 40
0.0
 10
683.6151698851723
 20
2009.421697233356
 30
0.0
 10
683.5433846319383
 20
2009.303727996295
 30
0.0
 10
683.3993387159395
 20
2009.069680468073
 30
0.0
 10
683.2546158094278
 20
2008.839414831649
 30
0.0
 10
683.1821571832802
 20
2008.725227486387
 30
0.0
  0
LINE
  5
C0
330
87
100
AcDbEntity
  8
P-SANR-FIXT
100
AcDbLine
 10
683.1821571832802
 20
1987.249999999995
 30
0.0
 11
683.1821571832802
 21
2008.725227486387
 31
0.0
  0
SPLINE
  5
C1
330
87
100
AcDbEntity
  8
P-SANR-FIXT
100
AcDbSpline
210
0.0
220
0.0
230
1.0
 70
     8
 71
     3
 72
     9
 73
     5
 74
     0
 42
0.000000001
 43
0.0000000001
 40
0.0
 40
0.0
 40
0.0
 40
0.0
 40
0.5
 40
1.0
 40
1.0
 40
1.0
 40
1.0
 10
701.7858968985003
 20
1994.684670680834
 30
0.0
 10
702.5460205678703
 20
1995.043328551722
 30
0.0
 10
704.0597126226238
 20
1995.785310239731
 30
0.0
 10
705.560294109404
 20
1996.573168014272
 30
0.0
 10
706.3073072108009
 20
1996.977392786698
 30
0.0
  0
SPLINE
  5
C2
330
87
100
AcDbEntity
  8
P-SANR-FIXT
100
AcDbSpline
210
0.0
220
0.0
230
1.0
 70
     8
 71
     3
 72
    52
 73
    48
 74
     0
 42
0.000000001
 43
0.0000000001
 40
0.0
 40
0.0
 40
0.0
 40
0.0
 40
0.05
 40
0.1
 40
0.15
 40
0.175
 40
0.2
 40
0.225
 40
0.25
 40
0.3
 40
0.35
 40
0.4
 40
0.425
 40
0.45
 40
0.475
 40
0.4875
 40
0.5
 40
0.5125
 40
0.525
 40
0.55
 40
0.575
 40
0.5875
 40
0.59375
 40
0.6
 40
0.60625
 40
0.6125
 40
0.625
 40
0.65
 40
0.675
 40
0.7
 40
0.725
 40
0.75
 40
0.775
 40
0.7875000000000001
 40
0.7937500000000001
 40
0.8
 40
0.80625
 40
0.8125
 40
0.825
 40
0.85
 40
0.875
 40
0.8875
 40
0.9
 40
0.9125
 40
0.925
 40
0.95
 40
1.0
 40
1.0
 40
1.0
 40
1.0
 10
704.0378196159828
 20
2013.499999999995
 30
0.0
 10
704.0304487475281
 20
2013.499999999995
 30
0.0
 10
703.9576495638128
 20
2013.436847690014
 30
0.0
 10
703.6833992014371
 20
2013.169403872655
 30
0.0
 10
703.2945123597508
 20
2012.814265539706
 30
0.0
 10
702.9040405332526
 20
2012.46136416942
 30
0.0
 10
702.5854231265781
 20
2012.167270041869
 30
0.0
 10
702.2361418453831
 20
2011.84708201279
 30
0.0
 10
701.720808302207
 20
2011.387548223052
 30
0.0
 10
701.0160613473662
 20
2010.761232887396
 30
0.0
 10
700.0888215598352
 20
2009.947035086907
 30
0.0
 10
699.2426011818496
 20
2009.23715124069
 30
0.0
 10
698.5377658123569
 20
2008.656419648909
 30
0.0
 10
697.9911584211512
 20
2008.214843974213
 30
0.0
 10
697.5192299162086
 20
2007.849528933571
 30
0.0
 10
697.1308448510831
 20
2007.56183502501
 30
0.0
 10
696.8334599883952
 20
2007.351005705553
 30
0.0
 10
696.5314075350693
 20
2007.139475816047
 30
0.0
 10
696.1237268415592
 20
2006.852047941185
 30
0.0
 10
695.6019653925539
 20
2006.495285491169
 30
0.0
 10
695.0592870684401
 20
2006.164953991497
 30
0.0
 10
694.6658571141965
 20
2005.961404283433
 30
0.0
 10
694.4367088106271
 20
2005.854682419427
 30
0.0
 10
694.2628459139466
 20
2005.780675761887
 30
0.0
 10
694.0858350835608
 20
2005.71014444173
 30
0.0
 10
693.8447683295176
 20
2005.617312226019
 30
0.0
 10
693.4118848266573
 20
2005.462360547519
 30
0.0
 10
692.7702887190497
 20
2005.270840929526
 30
0.0
 10
691.9864837672645
 20
2005.121823029511
 30
0.0
 10
691.2245738186514
 20
2005.083627287596
 30
0.0
 10
690.4739017790951
 20
2005.194773983166
 30
0.0
 10
689.7152063824456
 20
2005.42175359277
 30
0.0
 10
689.0989448534085
 20
2005.671328251267
 30
0.0
 10
688.6823196949521
 20
2005.859999266851
 30
0.0
 10
688.4496271844178
 20
2005.969581743997
 30
0.0
 10
688.2781845406191
 20
2006.051286929666
 30
0.0
 10
688.1095345855562
 20
2006.135031204776
 30
0.0
 10
687.8875029189573
 20
2006.253058587409
 30
0.0
 10
687.5065020540855
 20
2006.472302435164
 30
0.0
 10
686.9814830424927
 20
2006.815512991551
 30
0.0
 10
686.476581787401
 20
2007.178246333291
 30
0.0
 10
686.0815141089024
 20
2007.469365979378
 30
0.0
 10
685.7884606780564
 20
2007.684519454993
 30
0.0
 10
685.4992247059906
 20
2007.898100925523
 30
0.0
 10
685.1205410399894
 20
2008.185941204378
 30
0.0
 10
684.4749231944483
 20
2008.693183041798
 30
0.0
 10
683.9511888885462
 20
2009.131579301209
 30
0.0
 10
683.6151698851723
 20
2009.421697233356
 30
0.0
  0
LINE
  5
C3
330
87
100
AcDbEntity
  8
P-SANR-FIXT
100
AcDbLine
 10
683.6151698851723
 20
1986.745521271009
 30
0.0
 11
683.6151698851723
 21
2009.421697233356
 31
0.0
  0
ARC
  5
C4
330
87
100
AcDbEntity
  8
P-SANR-FIXT
100
AcDbCircle
 10
249.2084894222425
 20
1888.847750555248
 30
0.0
 40
475.9641926995988
100
AcDbArc
 50
14.08562106433698
 51
14.88305042139301
  0
SPLINE
  5
C5
330
87
100
AcDbEntity
  8
P-SANR-FIXT
100
AcDbSpline
210
0.0
220
0.0
230
1.0
 70
     8
 71
     3
 72
    17
 73
    13
 74
     0
 42
0.000000001
 43
0.0000000001
 40
-1.0
 40
-1.0
 40
-1.0
 40
-1.0
 40
-0.85
 40
-0.775
 40
-0.7
 40
-0.625
 40
-0.5875
 40
-0.55
 40
-0.475
 40
-0.4
 40
-0.2
 40
0.0
 40
0.0
 40
0.0
 40
0.0
 10
706.3073072108009
 20
1996.977392786698
 30
0.0
 10
706.5046543024467
 20
1997.088812519509
 30
0.0
 10
706.7860688107966
 20
1997.271928586906
 30
0.0
 10
707.1316789236761
 20
1997.546806625565
 30
0.0
 10
707.3770982185911
 20
1997.772937488544
 30
0.0
 10
707.5690026880138
 20
1997.971851815098
 30
0.0
 10
707.7141992763347
 20
1998.132809564226
 30
0.0
 10
707.8541129069472
 20
1998.297578323437
 30
0.0
 10
708.0193033478472
 20
1998.509980102449
 30
0.0
 10
708.3040947054448
 20
1998.911469637407
 30
0.0
 10
708.6321807124058
 20
1999.473286195294
 30
0.0
 10
708.8415768285178
 20
1999.940017239457
 30
0.0
 10
708.9301146809409
 20
2000.1726914557
 30
0.0
  0
SPLINE
  5
C6
330
87
100
AcDbEntity
  8
P-SANR-FIXT
100
AcDbSpline
210
0.0
220
0.0
230
1.0
 70
     8
 71
     3
 72
     9
 73
     5
 74
     0
 42
0.000000001
 43
0.0000000001
 40
-1.0
 40
-1.0
 40
-1.0
 40
-1.0
 40
-0.5
 40
0.0
 40
0.0
 40
0.0
 40
0.0
 10
709.2050846896679
 20
2011.097679285523
 30
0.0
 10
709.1869866350212
 20
2011.166307159914
 30
0.0
 10
709.1461480811087
 20
2011.301988486716
 30
0.0
 10
709.0960246379575
 20
2011.434520969562
 30
0.0
 10
709.0686416940723
 20
2011.499999999995
 30
0.0
  0
LINE
  5
C7
330
87
100
AcDbEntity
  8
P-SANR-FIXT
100
AcDbLine
 10
720.2668291226444
 20
1968.291164162186
 30
0.0
 11
701.7858968985003
 21
1994.684670680834
 31
0.0
  0
LINE
  5
C8
330
87
100
AcDbEntity
  8
P-SANR-FIXT
100
AcDbLine
 10
708.9301146809408
 20
2000.1726914557
 30
0.0
 11
727.6391975212455
 21
1973.453352089346
 31
0.0
  0
LINE
  5
C9
330
87
100
AcDbEntity
  8
P-SANR-FIXT
100
AcDbLine
 10
679.0378196159827
 20
2024.499999999995
 30
0.0
 11
704.0378196159828
 21
2024.499999999995
 31
0.0
  0
LINE
  5
CA
330
87
100
AcDbEntity
  8
P-SANR-FIXT
100
AcDbLine
 10
663.5378196159827
 20
2014.960517158741
 30
0.0
 11
663.5378196159827
 21
2014.999999999995
 31
0.0
  0
LINE
  5
CB
330
87
100
AcDbEntity
  8
P-SANR-FIXT
100
AcDbLine
 10
663.5378196159827
 20
1984.999999999995
 30
0.0
 11
663.5378196159827
 21
1985.03948284125
 31
0.0
  0
LINE
  5
CC
330
87
100
AcDbEntity
  8
P-SANR-FIXT
100
AcDbLine
 10
663.5378196159827
 20
1985.03948284125
 30
0.0
 11
663.5378196159827
 21
1991.577831256561
 31
0.0
  0
LINE
  5
CD
330
87
100
AcDbEntity
  8
P-SANR-FIXT
100
AcDbLine
 10
663.5378196159827
 20
1991.57783125656
 30
0.0
 11
663.5378196159827
 21
1993.461651584684
 31
0.0
  0
LINE
  5
CE
330
87
100
AcDbEntity
  8
P-SANR-FIXT
100
AcDbLine
 10
663.5378196159827
 20
1993.461651584684
 30
0.0
 11
663.5378196159827
 21
2006.538348415306
 31
0.0
  0
LINE
  5
CF
330
87
100
AcDbEntity
  8
P-SANR-FIXT
100
AcDbLine
 10
663.5378196159827
 20
2006.538348415306
 30
0.0
 11
663.5378196159827
 21
2008.422168743429
 31
0.0
  0
LINE
  5
D0
330
87
100
AcDbEntity
  8
P-SANR-FIXT
100
AcDbLine
 10
663.5378196159827
 20
2008.422168743429
 30
0.0
 11
663.5378196159827
 21
2014.960517158741
 31
0.0
  0
LINE
  5
D1
330
87
100
AcDbEntity
  8
P-SANR-FIXT
100
AcDbLine
 10
676.0378196159827
 20
2014.960517158741
 30
0.0
 11
676.0378196159827
 21
2008.422168743429
 31
0.0
  0
LINE
  5
D2
330
87
100
AcDbEntity
  8
P-SANR-FIXT
100
AcDbLine
 10
676.0378196159827
 20
2008.422168743429
 30
0.0
 11
676.0378196159827
 21
2006.538348415306
 31
0.0
  0
LINE
  5
D3
330
87
100
AcDbEntity
  8
P-SANR-FIXT
100
AcDbLine
 10
676.0378196159827
 20
2006.538348415306
 30
0.0
 11
676.0378196159827
 21
1993.461651584684
 31
0.0
  0
LINE
  5
D4
330
87
100
AcDbEntity
  8
P-SANR-FIXT
100
AcDbLine
 10
676.0378196159827
 20
1993.461651584684
 30
0.0
 11
676.0378196159827
 21
1991.577831256561
 31
0.0
  0
LINE
  5
D5
330
87
100
AcDbEntity
  8
P-SANR-FIXT
100
AcDbLine
 10
676.0378196159827
 20
1991.577831256561
 30
0.0
 11
676.0378196159827
 21
1985.03948284125
 31
0.0
  0
LINE
  5
D6
330
87
100
AcDbEntity
  8
P-SANR-FIXT
100
AcDbLine
 10
676.0378196159827
 20
1985.03948284125
 30
0.0
 11
676.0378196159827
 21
1984.999999999995
 31
0.0
  0
LINE
  5
D7
330
87
100
AcDbEntity
  8
P-SANR-FIXT
100
AcDbLine
 10
676.0378196159827
 20
2014.999999999995
 30
0.0
 11
676.0378196159827
 21
2014.960517158741
 31
0.0
  0
LINE
  5
D8
330
87
100
AcDbEntity
  8
P-SANR-FIXT
100
AcDbLine
 10
663.5378196159827
 20
2014.960517158741
 30
0.0
 11
676.0378196159827
 21
2014.960517158741
 31
0.0
  0
LINE
  5
D9
330
87
100
AcDbEntity
  8
P-SANR-FIXT
100
AcDbLine
 10
676.0378196159827
 20
1985.03948284125
 30
0.0
 11
663.5378196159827
 21
1985.03948284125
 31
0.0
  0
LINE
  5
DA
330
87
100
AcDbEntity
  8
P-SANR-FIXT
100
AcDbLine
 10
676.0378196159827
 20
1991.57783125656
 30
0.0
 11
663.5378196159827
 21
1991.57783125656
 31
0.0
  0
LINE
  5
DB
330
87
100
AcDbEntity
  8
P-SANR-FIXT
100
AcDbLine
 10
676.0378196159827
 20
1993.461651584684
 30
0.0
 11
663.5378196159827
 21
1993.461651584684
 31
0.0
  0
LINE
  5
DC
330
87
100
AcDbEntity
  8
P-SANR-FIXT
100
AcDbLine
 10
676.0378196159827
 20
2006.538348415306
 30
0.0
 11
663.5378196159827
 21
2006.538348415306
 31
0.0
  0
LINE
  5
DD
330
87
100
AcDbEntity
  8
P-SANR-FIXT
100
AcDbLine
 10
676.0378196159827
 20
2008.422168743429
 30
0.0
 11
663.5378196159827
 21
2008.422168743429
 31
0.0
  0
LINE
  5
DE
330
87
100
AcDbEntity
  8
P-SANR-FIXT
100
AcDbLine
 10
764.5378196159822
 20
2014.999999999995
 30
0.0
 11
764.5378196159822
 21
2014.960517158741
 31
0.0
  0
LINE
  5
DF
330
87
100
AcDbEntity
  8
P-SANR-FIXT
100
AcDbLine
 10
764.5378196159822
 20
2014.960517158741
 30
0.0
 11
764.5378196159822
 21
2008.422168743429
 31
0.0
  0
LINE
  5
E0
330
87
100
AcDbEntity
  8
P-SANR-FIXT
100
AcDbLine
 10
764.5378196159822
 20
2008.422168743429
 30
0.0
 11
764.5378196159822
 21
2006.538348415306
 31
0.0
  0
LINE
  5
E1
330
87
100
AcDbEntity
  8
P-SANR-FIXT
100
AcDbLine
 10
764.5378196159822
 20
2006.538348415306
 30
0.0
 11
764.5378196159822
 21
1993.461651584684
 31
0.0
  0
LINE
  5
E2
330
87
100
AcDbEntity
  8
P-SANR-FIXT
100
AcDbLine
 10
764.5378196159822
 20
1993.461651584684
 30
0.0
 11
764.5378196159822
 21
1991.577831256561
 31
0.0
  0
LINE
  5
E3
330
87
100
AcDbEntity
  8
P-SANR-FIXT
100
AcDbLine
 10
764.5378196159822
 20
1991.577831256561
 30
0.0
 11
764.5378196159822
 21
1985.03948284125
 31
0.0
  0
LINE
  5
E4
330
87
100
AcDbEntity
  8
P-SANR-FIXT
100
AcDbLine
 10
764.5378196159822
 20
1985.03948284125
 30
0.0
 11
764.5378196159822
 21
1984.999999999995
 31
0.0
  0
LINE
  5
E5
330
87
100
AcDbEntity
  8
P-SANR-FIXT
100
AcDbLine
 10
751.0182575274651
 20
1984.999999999995
 30
0.0
 11
751.0182575274651
 21
1985.03948284125
 31
0.0
  0
LINE
  5
E6
330
87
100
AcDbEntity
  8
P-SANR-FIXT
100
AcDbLine
 10
751.0182575274651
 20
1985.03948284125
 30
0.0
 11
751.0182575274651
 21
1991.577831256561
 31
0.0
  0
LINE
  5
E7
330
87
100
AcDbEntity
  8
P-SANR-FIXT
100
AcDbLine
 10
751.0182575274651
 20
1991.577831256561
 30
0.0
 11
751.0182575274651
 21
1993.461651584684
 31
0.0
  0
LINE
  5
E8
330
87
100
AcDbEntity
  8
P-SANR-FIXT
100
AcDbLine
 10
751.0182575274651
 20
1993.461651584684
 30
0.0
 11
751.0182575274651
 21
2006.538348415306
 31
0.0
  0
LINE
  5
E9
330
87
100
AcDbEntity
  8
P-SANR-FIXT
100
AcDbLine
 10
751.0182575274651
 20
2006.538348415306
 30
0.0
 11
751.0182575274651
 21
2008.422168743429
 31
0.0
  0
LINE
  5
EA
330
87
100
AcDbEntity
  8
P-SANR-FIXT
100
AcDbLine
 10
751.0182575274651
 20
2008.422168743429
 30
0.0
 11
751.0182575274651
 21
2014.960517158741
 31
0.0
  0
LINE
  5
EB
330
87
100
AcDbEntity
  8
P-SANR-FIXT
100
AcDbLine
 10
751.0182575274651
 20
2014.960517158741
 30
0.0
 11
751.0182575274651
 21
2014.999999999995
 31
0.0
  0
LINE
  5
EC
330
87
100
AcDbEntity
  8
P-SANR-FIXT
100
AcDbLine
 10
764.5378196159822
 20
1985.03948284125
 30
0.0
 11
751.0182575274651
 21
1985.03948284125
 31
0.0
  0
LINE
  5
ED
330
87
100
AcDbEntity
  8
P-SANR-FIXT
100
AcDbLine
 10
764.5378196159822
 20
1991.577831256561
 30
0.0
 11
751.0182575274651
 21
1991.577831256561
 31
0.0
  0
LINE
  5
EE
330
87
100
AcDbEntity
  8
P-SANR-FIXT
100
AcDbLine
 10
764.5378196159822
 20
1993.461651584684
 30
0.0
 11
751.0182575274651
 21
1993.461651584684
 31
0.0
  0
LINE
  5
EF
330
87
100
AcDbEntity
  8
P-SANR-FIXT
100
AcDbLine
 10
764.5378196159822
 20
2006.538348415306
 30
0.0
 11
751.0182575274651
 21
2006.538348415306
 31
0.0
  0
LINE
  5
F0
330
87
100
AcDbEntity
  8
P-SANR-FIXT
100
AcDbLine
 10
764.5378196159822
 20
2008.422168743429
 30
0.0
 11
751.0182575274651
 21
2008.422168743429
 31
0.0
  0
LINE
  5
F1
330
87
100
AcDbEntity
  8
P-SANR-FIXT
100
AcDbLine
 10
764.5378196159822
 20
2014.960517158741
 30
0.0
 11
751.0182575274651
 21
2014.960517158741
 31
0.0
  0
LINE
  5
F2
330
87
100
AcDbEntity
  8
P-SANR-FIXT
100
AcDbLine
 10
709.0686416940723
 20
2011.499999999995
 30
0.0
 11
720.5962957661697
 21
2011.499999999995
 31
0.0
  0
LINE
  5
F3
330
87
100
AcDbEntity
  8
P-SANR-FIXT
100
AcDbLine
 10
693.4783157737832
 20
1949.015381849451
 30
0.0
 11
671.6824111924431
 21
1980.143159532433
 31
0.0
  0
ENDBLK
  5
F5
330
87
100
AcDbEntity
  8
0
100
AcDbBlockEnd
  0
BLOCK
  5
1C8
330
F7
100
AcDbEntity
  8
0
100
AcDbBlockBegin
  2
Automatic flow rate regulator valve_Caleffi_121 DN15 - 1_2__-V1-Est - Idraulica
 70
     0
 10
0.0
 20
0.0
 30
0.0
  3
Automatic flow rate regulator valve_Caleffi_121 DN15 - 1_2__-V1-Est - Idraulica
  1

  0
LINE
  5
F8
330
F7
100
AcDbEntity
  8
P-SANR-FIXT
100
AcDbLine
 10
685.0378196159807
 20
1787.245878730052
 30
0.0
 11
693.2293400588706
 21
1787.245878730052
 31
0.0
  0
LINE
  5
F9
330
F7
100
AcDbEntity
  8
P-SANR-FIXT
100
AcDbLine
 10
693.2293400588706
 20
1825.245878730053
 30
0.0
 11
685.0378196159807
 21
1825.245878730053
 31
0.0
  0
LINE
  5
FA
330
F7
100
AcDbEntity
  8
P-SANR-FIXT
100
AcDbLine
 10
693.2293400588706
 20
1788.495878730053
 30
0.0
 11
706.7126299622374
 21
1788.495878730053
 31
0.0
  0
LINE
  5
FB
330
F7
100
AcDbEntity
  8
P-SANR-FIXT
100
AcDbLine
 10
706.7126299622374
 20
1823.995878730053
 30
0.0
 11
693.2293400588706
 21
1823.995878730053
 31
0.0
  0
LINE
  5
FC
330
F7
100
AcDbEntity
  8
P-SANR-FIXT
100
AcDbLine
 10
716.9847493432513
 20
1789.495878730052
 30
0.0
 11
735.4156703397538
 21
1789.495878730052
 31
0.0
  0
LINE
  5
FD
330
F7
100
AcDbEntity
  8
P-SANR-FIXT
100
AcDbLine
 10
735.4156703397538
 20
1822.995878730053
 30
0.0
 11
716.9847493432514
 21
1822.995878730053
 31
0.0
  0
LWPOLYLINE
  5
FE
330
F7
100
AcDbEntity
  8
P-SANR-FIXT
100
AcDbPolyline
 90
       20
 70
   128
 43
0.0
 10
735.4156703397538
 20
1789.495878730052
 10
735.9398708259159
 20
1789.514153550027
 10
736.4612167594834
 20
1789.568737924955
 10
736.9769823111717
 20
1789.658931631635
 10
737.4846831663179
 20
1789.783630940051
 10
737.9821609168768
 20
1789.941412417352
 10
738.4676323739308
 20
1790.130631020739
 10
738.9397034676418
 20
1790.349519233253
 10
739.3973526591111
 20
1790.596276279248
 10
739.8398919731967
 20
1790.869140263624
 10
740.2669147125889
 20
1791.166440162583
 10
740.6782380972981
 20
1791.486628009647
 10
741.0738472313016
 20
1791.828293907449
 10
741.4538446356472
 20
1792.190167622703
 10
741.8184076043466
 20
1792.571110724238
 10
742.1677540931494
 20
1792.970102830622
 10
742.5021168049219
 20
1793.386224848269
 10
742.8217245337326
 20
1793.818641325874
 10
743.126789566824
 20
1794.266583360853
 10
743.1843878768713
 20
1794.35826772643
  0
LWPOLYLINE
  5
FF
330
F7
100
AcDbEntity
  8
P-SANR-FIXT
100
AcDbPolyline
 90
       20
 70
   128
 43
0.0
 10
735.4156703397538
 20
1822.995878730053
 10
735.939870825916
 20
1822.977603910079
 10
736.4612167594835
 20
1822.92301953515
 10
736.9769823111717
 20
1822.83282582847
 10
737.4846831663179
 20
1822.708126520054
 10
737.9821609168768
 20
1822.550345042753
 10
738.4676323739308
 20
1822.361126439367
 10
738.9397034676418
 20
1822.142238226853
 10
739.3973526591111
 20
1821.895481180858
 10
739.8398919731967
 20
1821.622617196481
 10
740.2669147125889
 20
1821.325317297522
 10
740.6782380972981
 20
1821.005129450458
 10
741.0738472313016
 20
1820.663463552656
 10
741.4538446356472
 20
1820.301589837402
 10
741.8184076043466
 20
1819.920646735867
 10
742.1677540931494
 20
1819.521654629483
 10
742.5021168049219
 20
1819.105532611836
 10
742.8217245337326
 20
1818.673116134231
 10
743.126789566824
 20
1818.225174099252
 10
743.1843878768713
 20
1818.133489733676
  0
LINE
  5
100
330
F7
100
AcDbEntity
  8
P-SANR-FIXT
100
AcDbLine
 10
743.7786249191998
 20
1793.745878730053
 30
0.0
 11
751.0182575274659
 21
1793.745878730053
 31
0.0
  0
LINE
  5
101
330
F7
100
AcDbEntity
  8
P-SANR-FIXT
100
AcDbLine
 10
751.0182575274659
 20
1818.745878730053
 30
0.0
 11
743.7786249191995
 21
1818.745878730053
 31
0.0
  0
LINE
  5
102
330
F7
100
AcDbEntity
  8
P-SANR-FIXT
100
AcDbLine
 10
742.2786249191997
 20
1795.245878730053
 30
0.0
 11
743.7786249191998
 21
1793.745878730053
 31
0.0
  0
LINE
  5
103
330
F7
100
AcDbEntity
  8
P-SANR-FIXT
100
AcDbLine
 10
743.7786249191995
 20
1818.745878730053
 30
0.0
 11
742.2786249191996
 21
1817.245878730053
 31
0.0
  0
LINE
  5
104
330
F7
100
AcDbEntity
  8
P-SANR-FIXT
100
AcDbLine
 10
740.1815623662486
 20
1795.245878730053
 30
0.0
 11
742.2786249191996
 21
1795.245878730053
 31
0.0
  0
LINE
  5
105
330
F7
100
AcDbEntity
  8
P-SANR-FIXT
100
AcDbLine
 10
742.2786249191997
 20
1817.245878730053
 30
0.0
 11
740.1815623662486
 21
1817.245878730053
 31
0.0
  0
LINE
  5
106
330
F7
100
AcDbEntity
  8
P-SANR-FIXT
100
AcDbLine
 10
676.0378196159835
 20
1793.495878730053
 30
0.0
 11
683.182157183281
 21
1793.495878730053
 31
0.0
  0
LINE
  5
107
330
F7
100
AcDbEntity
  8
P-SANR-FIXT
100
AcDbLine
 10
683.182157183281
 20
1818.995878730053
 30
0.0
 11
676.0378196159835
 21
1818.995878730053
 31
0.0
  0
LINE
  5
108
330
F7
100
AcDbEntity
  8
P-SANR-FIXT
100
AcDbLine
 10
683.182157183281
 20
1793.495878730053
 30
0.0
 11
683.6151698851731
 21
1792.745878730053
 31
0.0
  0
LINE
  5
109
330
F7
100
AcDbEntity
  8
P-SANR-FIXT
100
AcDbLine
 10
683.6151698851731
 20
1819.745878730052
 30
0.0
 11
683.182157183281
 21
1818.995878730053
 31
0.0
  0
LINE
  5
10A
330
F7
100
AcDbEntity
  8
P-SANR-FIXT
100
AcDbLine
 10
683.6151698851731
 20
1792.745878730053
 30
0.0
 11
706.3073072108015
 21
1792.745878730053
 31
0.0
  0
LINE
  5
10B
330
F7
100
AcDbEntity
  8
P-SANR-FIXT
100
AcDbLine
 10
706.3073072108015
 20
1819.745878730053
 30
0.0
 11
683.6151698851731
 21
1819.745878730053
 31
0.0
  0
LINE
  5
10C
330
F7
100
AcDbEntity
  8
P-SANR-FIXT
100
AcDbLine
 10
709.2050846896687
 20
1794.969421594745
 30
0.0
 11
709.5901639645855
 21
1796.406557013676
 31
0.0
  0
LINE
  5
10D
330
F7
100
AcDbEntity
  8
P-SANR-FIXT
100
AcDbLine
 10
709.5901639645855
 20
1816.08520044643
 30
0.0
 11
709.2050846896687
 21
1817.52233586536
 31
0.0
  0
LWPOLYLINE
  5
10E
330
F7
100
AcDbEntity
  8
P-SANR-FIXT
100
AcDbPolyline
 90
       27
 70
   128
 43
0.0
 10
708.8615696628989
 20
1794.172429231084
 10
708.7966053275371
 20
1794.07154456806
 10
708.7276586462108
 20
1793.973338482523
 10
708.6548399189017
 20
1793.87796808326
 10
708.57826564004
 20
1793.785585942566
 10
708.498058312137
 20
1793.696339852159
 10
708.4143462498068
 20
1793.610372586744
 10
708.3272633744923
 20
1793.527821675609
 10
708.2369490002166
 20
1793.4488191826
 10
708.1435476107127
 20
1793.373491494854
 10
708.0472086282796
 20
1793.301959120602
 10
707.9480861747375
 20
1793.234336496383
 10
707.8463388248675
 20
1793.170731803971
 10
707.742129352724
 20
1793.111246797306
 10
707.6356244712327
 20
1793.055976639708
 10
707.5269945654839
 20
1793.005009751639
 10
707.4164134201536
 20
1792.958427669249
 10
707.304057941485
 20
1792.916304913931
 10
707.1901078742763
 20
1792.878708873109
 10
707.0747455143267
 20
1792.845699692427
 10
706.9581554168029
 20
1792.817330179534
 10
706.8405241009899
 20
1792.793645719598
 10
706.7220397518992
 20
1792.774684202703
 10
706.6028919192144
 20
1792.76047596323
 10
706.4832712140509
 20
1792.751043731332
 10
706.3633690040191
 20
1792.746402596568
 10
706.3073072108015
 20
1792.745878730053
  0
LWPOLYLINE
  5
10F
330
F7
100
AcDbEntity
  8
P-SANR-FIXT
100
AcDbPolyline
 90
        5
 70
   128
 43
0.0
 10
709.2050846896687
 20
1794.969421594745
 10
709.1717167729001
 20
1794.854162485634
 10
709.1337664118734
 20
1794.740329932293
 10
709.0912943190708
 20
1794.628106042521
 10
709.0506476527515
 20
1794.531760441103
  0
LWPOLYLINE
  5
110
330
F7
100
AcDbEntity
  8
P-SANR-FIXT
100
AcDbPolyline
 90
       27
 70
   128
 43
0.0
 10
706.3073072108015
 20
1819.745878730053
 10
706.4272752133615
 20
1819.743479050036
 10
706.5470512927092
 20
1819.736283848961
 10
706.6664438326683
 20
1819.724304637615
 10
706.7852618306444
 20
1819.70756058018
 10
706.9033152031868
 20
1819.686078463577
 10
707.0204150900829
 20
1819.659892654609
 10
707.1363741564938
 20
1819.629045044985
 10
707.25100689265
 20
1819.5935849843
 10
707.3641299106269
 20
1819.553569201087
 10
707.4755622377275
 20
1819.509061712061
 10
707.5851256059995
 20
1819.460133719713
 10
707.692644737426
 20
1819.406863498391
 10
707.7979476243328
 20
1819.349336269086
 10
707.9008658045644
 20
1819.287644063093
 10
708.0012346309866
 20
1819.221885574782
 10
708.0988935348886
 20
1819.152166003705
 10
708.1936862828571
 20
1819.078596886306
 10
708.285461226716
 20
1819.001295917476
 10
708.3740715461332
 20
1818.920386762276
 10
708.4593754835001
 20
1818.835998858094
 10
708.5412365707142
 20
1818.748267207577
 10
708.6195238474986
 20
1818.657332162648
 10
708.6941120709106
 20
1818.563339199983
 10
708.7648819157045
 20
1818.46643868827
 10
708.8317201652253
 20
1818.366785647657
 10
708.8615696628989
 20
1818.319328229022
  0
LWPOLYLINE
  5
111
330
F7
100
AcDbEntity
  8
P-SANR-FIXT
100
AcDbPolyline
 90
        5
 70
   128
 43
0.0
 10
709.0506476527515
 20
1817.959997019003
 10
709.0970050550041
 20
1817.84932149615
 10
709.1388995358098
 20
1817.73688070026
 10
709.1762640729365
 20
1817.62285451262
 10
709.2050846896687
 20
1817.52233586536
  0
LINE
  5
112
330
F7
100
AcDbEntity
  8
P-SANR-FIXT
100
AcDbLine
 10
709.6556650501508
 20
1787.745878730052
 30
0.0
 11
716.4359381920998
 21
1787.745878730053
 31
0.0
  0
LINE
  5
113
330
F7
100
AcDbEntity
  8
P-SANR-FIXT
100
AcDbLine
 10
716.4663332554281
 20
1787.745878730053
 30
0.0
 11
717.0280334487517
 21
1787.745878730053
 31
0.0
  0
LINE
  5
114
330
F7
100
AcDbEntity
  8
P-SANR-FIXT
100
AcDbLine
 10
717.0280334487517
 20
1824.745878730053
 30
0.0
 11
716.4663332554279
 21
1824.745878730053
 31
0.0
  0
LINE
  5
115
330
F7
100
AcDbEntity
  8
P-SANR-FIXT
100
AcDbLine
 10
716.4359381920998
 20
1824.745878730053
 30
0.0
 11
709.6556650501508
 21
1824.745878730053
 31
0.0
  0
LINE
  5
116
330
F7
100
AcDbEntity
  8
P-SANR-FIXT
100
AcDbLine
 10
682.5803634831138
 20
1787.245878730052
 30
0.0
 11
685.0378196159807
 21
1787.245878730052
 31
0.0
  0
LINE
  5
117
330
F7
100
AcDbEntity
  8
P-SANR-FIXT
100
AcDbLine
 10
685.0378196159807
 20
1825.245878730053
 30
0.0
 11
682.5803634831138
 21
1825.245878730053
 31
0.0
  0
LINE
  5
118
330
F7
100
AcDbEntity
  8
P-SANR-FIXT
100
AcDbLine
 10
663.5378196159827
 20
1807.333502903599
 30
0.0
 11
676.0378196159827
 21
1807.333502903599
 31
0.0
  0
LINE
  5
119
330
F7
100
AcDbEntity
  8
P-SANR-FIXT
100
AcDbLine
 10
676.0378196159827
 20
1818.658254556505
 30
0.0
 11
663.5378196159827
 21
1818.658254556505
 31
0.0
  0
ELLIPSE
  5
11A
330
F7
100
AcDbEntity
  8
P-SANR-FIXT
100
AcDbEllipse
 10
693.2293400588698
 20
1806.245878730052
 30
0.0
 11
0.0
 21
19.00000000000018
 31
0.0
210
0.0
220
0.0
230
1.0
 40
0.5735764363510459
 41
2.362982121015684
 42
3.506752359755701
  0
ELLIPSE
  5
11B
330
F7
100
AcDbEntity
  8
P-SANR-FIXT
100
AcDbEllipse
 10
693.2293400588698
 20
1806.245878730052
 30
0.0
 11
0.0
 21
19.00000000000004
 31
0.0
210
0.0
220
0.0
230
1.0
 40
0.5735764363510516
 41
2.122918326726889
 42
2.126088135289574
  0
ELLIPSE
  5
11C
330
F7
100
AcDbEntity
  8
P-SANR-FIXT
100
AcDbEllipse
 10
693.2293400588698
 20
1806.245878730052
 30
0.0
 11
0.0
 21
19.00000000000033
 31
0.0
210
0.0
220
0.0
230
1.0
 40
0.5735764363510415
 41
1.015504518992814
 42
1.018674326862918
  0
ELLIPSE
  5
11D
330
F7
100
AcDbEntity
  8
P-SANR-FIXT
100
AcDbEllipse
 10
693.2293400588698
 20
1806.245878730052
 30
0.0
 11
0.0
 21
19.00000000000026
 31
0.0
210
0.0
220
0.0
230
0.9999999999999998
 40
0.573576436351043
 41
5.918025601013667
 42
7.061795839753702
  0
LINE
  5
11E
330
F7
100
AcDbEntity
  8
P-SANR-FIXT
100
AcDbLine
 10
703.0045286375739
 20
1801.284531029411
 30
0.0
 11
703.0005168369726
 21
1801.26056778954
 31
0.0
  0
ELLIPSE
  5
11F
330
F7
100
AcDbEntity
  8
P-SANR-FIXT
100
AcDbEllipse
 10
693.2293400588698
 20
1806.245878730052
 30
0.0
 11
0.0
 21
17.75
 31
0.0
210
0.0
220
0.0
230
1.0
 40
0.5735764363510524
 41
2.434286772704337
 42
3.141592653589788
  0
LINE
  5
120
330
F7
100
AcDbEntity
  8
P-SANR-FIXT
100
AcDbLine
 10
685.1257375821867
 20
1795.500811432364
 30
0.0
 11
685.1197872761148
 21
1795.514465471122
 31
0.0
  0
SPLINE
  5
121
330
F7
100
AcDbEntity
  8
P-SANR-FIXT
100
AcDbSpline
210
0.0
220
0.0
230
1.0
 70
     8
 71
     3
 72
     8
 73
     4
 74
     0
 42
0.000000001
 43
0.0000000001
 40
0.2283620065915529
 40
0.2283620065915529
 40
0.2283620065915529
 40
0.2283620065915529
 40
0.229157761320364
 40
0.229157761320364
 40
0.229157761320364
 40
0.229157761320364
 10
697.5569673793838
 20
1795.277256420092
 30
0.0
 10
697.5516195772554
 20
1795.278868806949
 30
0.0
 10
697.5462719205019
 20
1795.280482076458
 30
0.0
 10
697.540924409453
 20
1795.282096228897
 30
0.0
  0
LINE
  5
122
330
F7
100
AcDbEntity
  8
P-SANR-FIXT
100
AcDbLine
 10
685.1197872761148
 20
1816.977291988983
 30
0.0
 11
685.1257375821867
 21
1816.99094602774
 31
0.0
  0
ELLIPSE
  5
123
330
F7
100
AcDbEntity
  8
P-SANR-FIXT
100
AcDbEllipse
 10
693.2293400588698
 20
1806.245878730052
 30
0.0
 11
0.0
 21
17.75000000000019
 31
0.0
210
0.0
220
0.0
230
1.0
 40
0.5735764363510477
 41
0.0000000000000016
 42
0.7073058808854567
  0
LINE
  5
124
330
F7
100
AcDbEntity
  8
P-SANR-FIXT
100
AcDbLine
 10
703.0005168369723
 20
1811.231189670565
 30
0.0
 11
703.0045286375739
 21
1811.207226430694
 31
0.0
  0
SPLINE
  5
125
330
F7
100
AcDbEntity
  8
P-SANR-FIXT
100
AcDbSpline
210
0.0
220
0.0
230
1.0
 70
     8
 71
     3
 72
     8
 73
     4
 74
     0
 42
0.000000001
 43
0.0000000001
 40
0.7708422386796381
 40
0.7708422386796381
 40
0.7708422386796381
 40
0.7708422386796381
 40
0.7716379934084494
 40
0.7716379934084494
 40
0.7716379934084494
 40
0.7716379934084494
 10
697.5409244094467
 20
1817.209661231219
 30
0.0
 10
697.5462719204998
 20
1817.211275383651
 30
0.0
 10
697.5516194826946
 20
1817.212889478575
 30
0.0
 10
697.5569670993139
 20
1817.214503484738
 30
0.0
  0
SPLINE
  5
126
330
F7
100
AcDbEntity
  8
P-SANR-FIXT
100
AcDbSpline
210
0.0
220
0.0
230
1.0
 70
     8
 71
     3
 72
     8
 73
     4
 74
     0
 42
0.000000001
 43
0.0000000001
 40
0.0822118822174385
 40
0.0822118822174385
 40
0.0822118822174385
 40
0.0822118822174385
 40
0.125
 40
0.125
 40
0.125
 40
0.125
 10
726.2030605500488
 20
1799.313416383868
 30
0.0
 10
726.1058943663925
 20
1799.388196459939
 30
0.0
 10
726.0100147483864
 20
1799.464604592914
 30
0.0
 10
725.9157055701706
 20
1799.542845049975
 30
0.0
  0
SPLINE
  5
127
330
F7
100
AcDbEntity
  8
P-SANR-FIXT
100
AcDbSpline
210
0.0
220
0.0
230
1.0
 70
     8
 71
     3
 72
     8
 73
     4
 74
     0
 42
0.000000001
 43
0.0000000001
 40
0.2155942867004105
 40
0.2155942867004105
 40
0.2155942867004105
 40
0.2155942867004105
 40
0.25
 40
0.25
 40
0.25
 40
0.25
 10
725.342507927738
 20
1800.067443526356
 30
0.0
 10
725.2727184154877
 20
1800.137162613635
 30
0.0
 10
725.2037529568439
 20
1800.208067126841
 30
0.0
 10
725.1364550041931
 20
1800.280559701959
 30
0.0
  0
SPLINE
  5
128
330
F7
100
AcDbEntity
  8
P-SANR-FIXT
100
AcDbSpline
210
0.0
220
0.0
230
1.0
 70
     8
 71
     3
 72
     8
 73
     4
 74
     0
 42
0.000000001
 43
0.0000000001
 40
0.3450114456758244
 40
0.3450114456758244
 40
0.3450114456758244
 40
0.3450114456758244
 40
0.375
 40
0.375
 40
0.375
 40
0.375
 10
724.6033461483303
 20
1800.909422526463
 30
0.0
 10
724.5501980099895
 20
1800.978517639827
 30
0.0
 10
724.4985160899505
 20
1801.048667693823
 30
0.0
 10
724.4480505622426
 20
1801.119724606401
 30
0.0
  0
SPLINE
  5
129
330
F7
100
AcDbEntity
  8
P-SANR-FIXT
100
AcDbSpline
210
0.0
220
0.0
230
1.0
 70
     8
 71
     3
 72
     8
 73
     4
 74
     0
 42
0.000000001
 43
0.0000000001
 40
0.4764696972253025
 40
0.4764696972253025
 40
0.4764696972253025
 40
0.4764696972253025
 40
0.5
 40
0.5
 40
0.5
 40
0.5
 10
723.9635325001724
 20
1801.864872285514
 30
0.0
 10
723.9290809276679
 20
1801.92444349242
 30
0.0
 10
723.8956894130978
 20
1801.9845360113
 30
0.0
 10
723.8623002368692
 20
1802.044819070768
 30
0.0
  0
SPLINE
  5
12A
330
F7
100
AcDbEntity
  8
P-SANR-FIXT
100
AcDbSpline
210
0.0
220
0.0
230
1.0
 70
     8
 71
     3
 72
     8
 73
     4
 74
     0
 42
0.000000001
 43
0.0000000001
 40
0.6076258677288368
 40
0.6076258677288368
 40
0.6076258677288368
 40
0.6076258677288368
 40
0.625
 40
0.625
 40
0.625
 40
0.625
 10
723.4548551372422
 20
1802.896171063794
 30
0.0
 10
723.4354268362392
 20
1802.943091673588
 30
0.0
 10
723.4159951027935
 20
1802.990076472265
 30
0.0
 10
723.3967131845737
 20
1803.037151727025
 30
0.0
  0
SPLINE
  5
12B
330
F7
100
AcDbEntity
  8
P-SANR-FIXT
100
AcDbSpline
210
0.0
220
0.0
230
1.0
 70
     8
 71
     3
 72
     8
 73
     4
 74
     0
 42
0.000000001
 43
0.0000000001
 40
0.7385039924705518
 40
0.7385039924705518
 40
0.7385039924705518
 40
0.7385039924705518
 40
0.75
 40
0.75
 40
0.75
 40
0.75
 10
723.0863801013529
 20
1803.979999078877
 30
0.0
 10
723.0776897644923
 20
1804.012307620138
 30
0.0
 10
723.0690039625176
 20
1804.044618461212
 30
0.0
 10
723.0608711220311
 20
1804.07704396666
 30
0.0
  0
SPLINE
  5
12C
330
F7
100
AcDbEntity
  8
P-SANR-FIXT
100
AcDbSpline
210
0.0
220
0.0
230
1.0
 70
     8
 71
     3
 72
     8
 73
     4
 74
     0
 42
0.000000001
 43
0.0000000001
 40
0.8700262481078977
 40
0.8700262481078977
 40
0.8700262481078977
 40
0.8700262481078977
 40
0.875
 40
0.875
 40
0.875
 40
0.875
 10
722.8621686959154
 20
1805.104126900185
 30
0.0
 10
722.8602815413952
 20
1805.118491663731
 30
0.0
 10
722.8584994251924
 20
1805.13287871963
 30
0.0
 10
722.8568144128847
 20
1805.147286383696
 30
0.0
  0
LWPOLYLINE
  5
12D
330
F7
100
AcDbEntity
  8
P-SANR-FIXT
100
AcDbPolyline
 90
        3
 70
   128
 43
0.0
 10
720.3873756940694
 20
1806.245878730052
 10
720.4396525033436
 20
1805.244085385638
 10
720.5962957661697
 20
1804.245878730052
  0
SPLINE
  5
12E
330
F7
100
AcDbEntity
  8
P-SANR-FIXT
100
AcDbSpline
210
0.0
220
0.0
230
1.0
 70
     8
 71
     3
 72
    12
 73
     8
 74
     0
 42
0.000000001
 43
0.0000000001
 40
0.0
 40
0.0
 40
0.0
 40
0.0
 40
0.1666666666666666
 40
0.3333333333333333
 40
0.5
 40
0.6666666666666666
 40
0.7894599070978173
 40
0.7894599070978173
 40
0.7894599070978173
 40
0.7894599070978173
 10
710.8619249550423
 20
1804.245878730052
 30
0.0
 10
710.8203090045885
 20
1803.700305323054
 30
0.0
 10
710.7258701252435
 20
1802.627368795303
 30
0.0
 10
710.5528495559998
 20
1801.088954869074
 30
0.0
 10
710.3113255734462
 20
1799.624011318984
 30
0.0
 10
710.0625284458113
 20
1798.3754280057
 30
0.0
 10
709.9011513158123
 20
1797.639339466138
 30
0.0
 10
709.8306300619996
 20
1797.337104071941
 30
0.0
  0
SPLINE
  5
12F
330
F7
100
AcDbEntity
  8
P-SANR-FIXT
100
AcDbSpline
210
0.0
220
0.0
230
1.0
 70
     8
 71
     3
 72
     8
 73
     4
 74
     0
 42
0.000000001
 43
0.0000000001
 40
0.8888888888888891
 40
0.8888888888888891
 40
0.8888888888888891
 40
0.8888888888888891
 40
0.9218262267652583
 40
0.9218262267652583
 40
0.9218262267652583
 40
0.9218262267652583
 10
709.6545023381111
 20
1796.62258364527
 30
0.0
 10
709.6344378088897
 20
1796.545850490801
 30
0.0
 10
709.6137296472303
 20
1796.470833231359
 30
0.0
 10
709.5927162394043
 20
1796.396640109021
 30
0.0
  0
ELLIPSE
  5
130
330
F7
100
AcDbEntity
  8
P-SANR-FIXT
100
AcDbEllipse
 10
716.9847493432505
 20
1806.245878730052
 30
0.0
 11
0.0
 21
16.75000000000015
 31
0.0
210
0.0
220
0.0
230
1.0
 40
0.5735764363510393
 41
2.239149057496597
 42
3.145793264306234
  0
LINE
  5
131
330
F7
100
AcDbEntity
  8
P-SANR-FIXT
100
AcDbLine
 10
725.813163266555
 20
1799.638849217444
 30
0.0
 11
725.8161299482931
 21
1799.650911635748
 31
0.0
  0
LINE
  5
132
330
F7
100
AcDbEntity
  8
P-SANR-FIXT
100
AcDbLine
 10
725.8161299482931
 20
1812.840845824356
 30
0.0
 11
725.813163266555
 21
1812.85290824266
 31
0.0
  0
ELLIPSE
  5
133
330
F7
100
AcDbEntity
  8
P-SANR-FIXT
100
AcDbEllipse
 10
716.9847493432506
 20
1806.245878730052
 30
0.0
 11
0.0
 21
16.75000000000014
 31
0.0
210
0.0
220
0.0
230
1.0
 40
0.5735764363510498
 41
6.278984696463135
 42
7.185628903272776
  0
SPLINE
  5
134
330
F7
100
AcDbEntity
  8
P-SANR-FIXT
100
AcDbSpline
210
0.0
220
0.0
230
1.0
 70
     8
 71
     3
 72
     8
 73
     4
 74
     0
 42
0.000000001
 43
0.0000000001
 40
0.0781737732347452
 40
0.0781737732347452
 40
0.0781737732347452
 40
0.0781737732347452
 40
0.1111111111111111
 40
0.1111111111111111
 40
0.1111111111111111
 40
0.1111111111111111
 10
709.5935850854034
 20
1816.097229210291
 30
0.0
 10
709.6141412876069
 20
1816.0219247818
 30
0.0
 10
709.6344288266029
 20
1815.945883387243
 30
0.0
 10
709.6544788696928
 20
1815.869112200944
 30
0.0
  0
SPLINE
  5
135
330
F7
100
AcDbEntity
  8
P-SANR-FIXT
100
AcDbSpline
210
0.0
220
0.0
230
1.0
 70
     8
 71
     3
 72
    12
 73
     8
 74
     0
 42
0.000000001
 43
0.0000000001
 40
0.2222222222222222
 40
0.2222222222222222
 40
0.2222222222222222
 40
0.2222222222222222
 40
0.3333333333333333
 40
0.5
 40
0.6666666666666666
 40
0.8333333333333332
 40
1.0
 40
1.0
 40
1.0
 40
1.0
 10
709.8507027437793
 20
1815.068120180558
 30
0.0
 10
709.9141714673514
 20
1814.792911681347
 30
0.0
 10
710.0689005372146
 20
1814.084351243593
 30
0.0
 10
710.3113255734462
 20
1812.867746141121
 30
0.0
 10
710.5528495559998
 20
1811.402802591031
 30
0.0
 10
710.7258701252435
 20
1809.864388664801
 30
0.0
 10
710.8203090045885
 20
1808.79145213705
 30
0.0
 10
710.8619249550423
 20
1808.245878730052
 30
0.0
  0
LWPOLYLINE
  5
136
330
F7
100
AcDbEntity
  8
P-SANR-FIXT
100
AcDbPolyline
 90
        3
 70
   128
 43
0.0
 10
720.5962957661697
 20
1808.245878730052
 10
720.4396525033436
 20
1807.247672074467
 10
720.3873756940694
 20
1806.245878730052
  0
SPLINE
  5
137
330
F7
100
AcDbEntity
  8
P-SANR-FIXT
100
AcDbSpline
210
0.0
220
0.0
230
1.0
 70
     8
 71
     3
 72
     8
 73
     4
 74
     0
 42
0.000000001
 43
0.0000000001
 40
0.125
 40
0.125
 40
0.125
 40
0.125
 40
0.1299737518920873
 40
0.1299737518920873
 40
0.1299737518920873
 40
0.1299737518920873
 10
722.8566144205067
 20
1807.344513789986
 30
0.0
 10
722.8584301084999
 20
1807.358893544859
 30
0.0
 10
722.8602768578274
 20
1807.373268779508
 30
0.0
 10
722.8621552042898
 20
1807.387639153225
 30
0.0
  0
SPLINE
  5
138
330
F7
100
AcDbEntity
  8
P-SANR-FIXT
100
AcDbSpline
210
0.0
220
0.0
230
1.0
 70
     8
 71
     3
 72
     8
 73
     4
 74
     0
 42
0.000000001
 43
0.0000000001
 40
0.25
 40
0.25
 40
0.25
 40
0.25
 40
0.2614960075294381
 40
0.2614960075294381
 40
0.2614960075294381
 40
0.2614960075294381
 10
723.0608711220311
 20
1808.414713493445
 30
0.0
 10
723.0691865264165
 20
1808.447100676163
 30
0.0
 10
723.0777482215984
 20
1808.479406893055
 30
0.0
 10
723.0865474083915
 20
1808.511635465111
 30
0.0
  0
SPLINE
  5
139
330
F7
100
AcDbEntity
  8
P-SANR-FIXT
100
AcDbSpline
210
0.0
220
0.0
230
1.0
 70
     8
 71
     3
 72
     8
 73
     4
 74
     0
 42
0.000000001
 43
0.0000000001
 40
0.375
 40
0.375
 40
0.375
 40
0.375
 40
0.3923741322711533
 40
0.3923741322711533
 40
0.3923741322711533
 40
0.3923741322711533
 10
723.3977974890039
 20
1809.454352088317
 30
0.0
 10
723.4164067745332
 20
1809.501584687964
 30
0.0
 10
723.4355629556663
 20
1809.548549367085
 30
0.0
 10
723.4552067365573
 20
1809.595285682494
 30
0.0
  0
SPLINE
  5
13A
330
F7
100
AcDbEntity
  8
P-SANR-FIXT
100
AcDbSpline
210
0.0
220
0.0
230
1.0
 70
     8
 71
     3
 72
     8
 73
     4
 74
     0
 42
0.000000001
 43
0.0000000001
 40
0.5
 40
0.5
 40
0.5
 40
0.5
 40
0.5235303027746907
 40
0.5235303027746907
 40
0.5235303027746907
 40
0.5235303027746907
 10
723.8623002368694
 20
1810.446938389336
 30
0.0
 10
723.895330596468
 20
1810.507324423262
 30
0.0
 10
723.928554641199
 20
1810.567834360675
 30
0.0
 10
723.9621022449251
 20
1810.628299413506
 30
0.0
  0
SPLINE
  5
13B
330
F7
100
AcDbEntity
  8
P-SANR-FIXT
100
AcDbSpline
210
0.0
220
0.0
230
1.0
 70
     8
 71
     3
 72
     8
 73
     4
 74
     0
 42
0.000000001
 43
0.0000000001
 40
0.625
 40
0.625
 40
0.625
 40
0.625
 40
0.654988554324163
 40
0.654988554324163
 40
0.654988554324163
 40
0.654988554324163
 10
724.4468476078384
 20
1811.372461580765
 30
0.0
 10
724.4980189055134
 20
1811.443266960382
 30
0.0
 10
724.549427731817
 20
1811.514093877487
 30
0.0
 10
724.6015897025044
 20
1811.584282418686
 30
0.0
  0
SPLINE
  5
13C
330
F7
100
AcDbEntity
  8
P-SANR-FIXT
100
AcDbSpline
210
0.0
220
0.0
230
1.0
 70
     8
 71
     3
 72
     8
 73
     4
 74
     0
 42
0.000000001
 43
0.0000000001
 40
0.75
 40
0.75
 40
0.75
 40
0.75
 40
0.7844057132995896
 40
0.7844057132995896
 40
0.7844057132995896
 40
0.7844057132995896
 10
725.1364550041931
 20
1812.211197758146
 30
0.0
 10
725.2040297952439
 20
1812.283568290162
 30
0.0
 10
725.2745472729885
 20
1812.352537060571
 30
0.0
 10
725.3472394224785
 20
1812.418990171155
 30
0.0
  0
SPLINE
  5
13D
330
F7
100
AcDbEntity
  8
P-SANR-FIXT
100
AcDbSpline
210
0.0
220
0.0
230
1.0
 70
     8
 71
     3
 72
     8
 73
     4
 74
     0
 42
0.000000001
 43
0.0000000001
 40
0.875
 40
0.875
 40
0.875
 40
0.875
 40
0.9177881177825614
 40
0.9177881177825614
 40
0.9177881177825614
 40
0.9177881177825614
 10
725.9164621770795
 20
1812.948520803459
 30
0.0
 10
726.0103532807842
 20
1813.026977648667
 30
0.0
 10
726.1080005591526
 20
1813.101277722705
 30
0.0
 10
726.2072162477559
 20
1813.173835975333
 30
0.0
  0
SPLINE
  5
13E
330
F7
100
AcDbEntity
  8
P-SANR-FIXT
100
AcDbSpline
210
0.0
220
0.0
230
1.0
 70
     8
 71
     3
 72
     8
 73
     4
 74
     0
 42
0.000000001
 43
0.0000000001
 40
-1.0
 40
-1.0
 40
-1.0
 40
-1.0
 40
-0.8571428571428572
 40
-0.8571428571428572
 40
-0.8571428571428572
 40
-0.8571428571428572
 10
731.7877410382497
 20
1797.499448642142
 30
0.0
 10
731.6233142606786
 20
1797.494750293937
 30
0.0
 10
731.4400339563318
 20
1797.494056556309
 30
0.0
 10
731.2395404633121
 20
1797.500908453531
 30
0.0
  0
SPLINE
  5
13F
330
F7
100
AcDbEntity
  8
P-SANR-FIXT
100
AcDbSpline
210
0.0
220
0.0
230
1.0
 70
     8
 71
     3
 72
     8
 73
     4
 74
     0
 42
0.000000001
 43
0.0000000001
 40
-0.7142857142857144
 40
-0.7142857142857144
 40
-0.7142857142857144
 40
-0.7142857142857144
 40
-0.6767141697038865
 40
-0.6767141697038865
 40
-0.6767141697038865
 40
-0.6767141697038865
 10
730.5885478976166
 20
1797.547570798218
 30
0.0
 10
730.5274514282952
 20
1797.554235670008
 30
0.0
 10
730.4654289824387
 20
1797.562008862259
 30
0.0
 10
730.4025683499959
 20
1797.570659444659
 30
0.0
  0
SPLINE
  5
140
330
F7
100
AcDbEntity
  8
P-SANR-FIXT
100
AcDbSpline
210
0.0
220
0.0
230
1.0
 70
     8
 71
     3
 72
     8
 73
     4
 74
     0
 42
0.000000001
 43
0.0000000001
 40
-0.4645885051684071
 40
-0.4645885051684071
 40
-0.4645885051684071
 40
-0.4645885051684071
 40
-0.4285714285714287
 40
-0.4285714285714287
 40
-0.4285714285714287
 40
-0.4285714285714287
 10
729.275300752154
 20
1797.794078113174
 30
0.0
 10
729.2090497631976
 20
1797.811858050331
 30
0.0
 10
729.1422693212417
 20
1797.829792151978
 30
0.0
 10
729.0752356129074
 20
1797.848316596571
 30
0.0
  0
SPLINE
  5
141
330
F7
100
AcDbEntity
  8
P-SANR-FIXT
100
AcDbSpline
210
0.0
220
0.0
230
1.0
 70
     8
 71
     3
 72
     8
 73
     4
 74
     0
 42
0.000000001
 43
0.0000000001
 40
-0.2857142857142857
 40
-0.2857142857142857
 40
-0.2857142857142857
 40
-0.2857142857142857
 40
-0.2684754997494378
 40
-0.2684754997494378
 40
-0.2684754997494378
 40
-0.2684754997494378
 10
728.2828742756501
 20
1798.123820442189
 30
0.0
 10
728.2511974147199
 20
1798.136496830666
 30
0.0
 10
728.2197796092718
 20
1798.149687033934
 30
0.0
 10
728.188590027671
 20
1798.163330497429
 30
0.0
  0
SPLINE
  5
142
330
F7
100
AcDbEntity
  8
P-SANR-FIXT
100
AcDbSpline
210
0.0
220
0.0
230
1.0
 70
     8
 71
     3
 72
     8
 73
     4
 74
     0
 42
0.000000001
 43
0.0000000001
 40
-0.142857142857143
 40
-0.142857142857143
 40
-0.142857142857143
 40
-0.142857142857143
 40
0.0
 40
0.0
 40
0.0
 40
0.0
 10
727.5102626595593
 20
1798.478124929442
 30
0.0
 10
727.2588183090905
 20
1798.608537740307
 30
0.0
 10
727.0145919702157
 20
1798.750520419545
 30
0.0
 10
726.7809591130328
 20
1798.901848626936
 30
0.0
  0
SPLINE
  5
143
330
F7
100
AcDbEntity
  8
P-SANR-FIXT
100
AcDbSpline
210
0.0
220
0.0
230
1.0
 70
     8
 71
     3
 72
     8
 73
     4
 74
     0
 42
0.000000001
 43
0.0000000001
 40
-1.0
 40
-1.0
 40
-1.0
 40
-1.0
 40
-0.8571428571428572
 40
-0.8571428571428572
 40
-0.8571428571428572
 40
-0.8571428571428572
 10
726.7809591130327
 20
1813.589908833168
 30
0.0
 10
727.0145919702157
 20
1813.741237040559
 30
0.0
 10
727.2580162469904
 20
1813.882976348526
 30
0.0
 10
727.5090494264668
 20
1814.013215736659
 30
0.0
  0
SPLINE
  5
144
330
F7
100
AcDbEntity
  8
P-SANR-FIXT
100
AcDbSpline
210
0.0
220
0.0
230
1.0
 70
     8
 71
     3
 72
     8
 73
     4
 74
     0
 42
0.000000001
 43
0.0000000001
 40
-0.7315245002505623
 40
-0.7315245002505623
 40
-0.7315245002505623
 40
-0.7315245002505623
 40
-0.7142857142857144
 40
-0.7142857142857144
 40
-0.7142857142857144
 40
-0.7142857142857144
 10
728.187234834644
 20
1814.328829964572
 30
0.0
 10
728.2188740561941
 20
1814.341933625233
 30
0.0
 10
728.2505153445016
 20
1814.354780115061
 30
0.0
 10
728.2821678158384
 20
1814.367388436434
 30
0.0
  0
SPLINE
  5
145
330
F7
100
AcDbEntity
  8
P-SANR-FIXT
100
AcDbSpline
210
0.0
220
0.0
230
1.0
 70
     8
 71
     3
 72
     8
 73
     4
 74
     0
 42
0.000000001
 43
0.0000000001
 40
-0.5714285714285714
 40
-0.5714285714285714
 40
-0.5714285714285714
 40
-0.5714285714285714
 40
-0.5354114948316241
 40
-0.5354114948316241
 40
-0.5354114948316241
 40
-0.5354114948316241
 10
729.0765681576504
 20
1814.642588875035
 30
0.0
 10
729.1432253764114
 20
1814.662105860396
 30
0.0
 10
729.2105168663125
 20
1814.681277610101
 30
0.0
 10
729.2780531515705
 20
1814.699908436567
 30
0.0
  0
SPLINE
  5
146
330
F7
100
AcDbEntity
  8
P-SANR-FIXT
100
AcDbSpline
210
0.0
220
0.0
230
1.0
 70
     8
 71
     3
 72
     8
 73
     4
 74
     0
 42
0.000000001
 43
0.0000000001
 40
-0.3232858302961137
 40
-0.3232858302961137
 40
-0.3232858302961137
 40
-0.3232858302961137
 40
-0.2857142857142857
 40
-0.2857142857142857
 40
-0.2857142857142857
 40
-0.2857142857142857
 10
730.4025989668551
 20
1814.92169982958
 30
0.0
 10
730.4653680015494
 20
1814.929992703422
 30
0.0
 10
730.5283014708497
 20
1814.937942838796
 30
0.0
 10
730.5882089286605
 20
1814.944196932011
 30
0.0
  0
SPLINE
  5
147
330
F7
100
AcDbEntity
  8
P-SANR-FIXT
100
AcDbSpline
210
0.0
220
0.0
230
1.0
 70
     8
 71
     3
 72
     8
 73
     4
 74
     0
 42
0.000000001
 43
0.0000000001
 40
-0.142857142857143
 40
-0.142857142857143
 40
-0.142857142857143
 40
-0.142857142857143
 40
0.0
 40
0.0
 40
0.0
 40
0.0
 10
731.2384247068998
 20
1814.990929139628
 30
0.0
 10
731.4392777710301
 20
1814.997747530338
 30
0.0
 10
731.6233142606786
 20
1814.997007166168
 30
0.0
 10
731.7877410382497
 20
1814.992308817962
 30
0.0
  0
LWPOLYLINE
  5
148
330
F7
100
AcDbEntity
  8
P-SANR-FIXT
100
AcDbPolyline
 90
        5
 70
   128
 43
0.0
 10
740.1815623662478
 20
1795.246212946438
 10
739.1521086482282
 20
1795.344423205397
 10
737.6212085226925
 20
1795.871022610012
 10
736.1975062543725
 20
1796.831074691673
 10
734.9402550623351
 20
1798.184493425193
  0
LINE
  5
149
330
F7
100
AcDbEntity
  8
P-SANR-FIXT
100
AcDbLine
 10
734.940255062335
 20
1798.184493425193
 30
0.0
 11
734.8873732985051
 21
1798.162466568251
 31
0.0
  0
LINE
  5
14A
330
F7
100
AcDbEntity
  8
P-SANR-FIXT
100
AcDbLine
 10
733.8086632382355
 20
1797.795771145217
 30
0.0
 11
733.3958425605757
 21
1797.695425482571
 31
0.0
  0
LINE
  5
14B
330
F7
100
AcDbEntity
  8
P-SANR-FIXT
100
AcDbLine
 10
733.3958425605757
 20
1814.796331977533
 30
0.0
 11
733.8086632382355
 21
1814.695986314887
 31
0.0
  0
LINE
  5
14C
330
F7
100
AcDbEntity
  8
P-SANR-FIXT
100
AcDbLine
 10
734.8873732985053
 20
1814.329290891854
 30
0.0
 11
734.9402550623351
 21
1814.307264034911
 31
0.0
  0
LWPOLYLINE
  5
14D
330
F7
100
AcDbEntity
  8
P-SANR-FIXT
100
AcDbPolyline
 90
        5
 70
   128
 43
0.0
 10
734.9402550623351
 20
1814.307264034911
 10
736.1975062543725
 20
1815.660682768432
 10
737.6212085226925
 20
1816.620734850092
 10
739.1521086482282
 20
1817.147334254707
 10
740.1815623662478
 20
1817.245544513666
  0
LINE
  5
14E
330
F7
100
AcDbEntity
  8
P-SANR-FIXT
100
AcDbLine
 10
743.7786249191987
 20
1806.245878730052
 30
0.0
 11
743.7786249191987
 21
1793.765368281441
 31
0.0
  0
LINE
  5
14F
330
F7
100
AcDbEntity
  8
P-SANR-FIXT
100
AcDbLine
 10
743.7786249191989
 20
1818.726389178663
 30
0.0
 11
743.7786249191989
 21
1806.245878730052
 31
0.0
  0
LINE
  5
150
330
F7
100
AcDbEntity
  8
P-SANR-FIXT
100
AcDbLine
 10
742.2786249191989
 20
1806.245878730052
 30
0.0
 11
742.2786249191989
 21
1795.257024258273
 31
0.0
  0
SPLINE
  5
151
330
F7
100
AcDbEntity
  8
P-SANR-FIXT
100
AcDbSpline
210
0.0
220
0.0
230
1.0
 70
     8
 71
     3
 72
     8
 73
     4
 74
     0
 42
0.000000001
 43
0.0000000001
 40
0.1
 40
0.1
 40
0.1
 40
0.1
 40
0.1044597358685113
 40
0.1044597358685113
 40
0.1044597358685113
 40
0.1044597358685113
 10
740.215961951555
 20
1805.152225982167
 30
0.0
 10
740.2139837507103
 20
1805.136231838038
 30
0.0
 10
740.211964279585
 20
1805.120249957072
 30
0.0
 10
740.2099034375559
 20
1805.104280412852
 30
0.0
  0
SPLINE
  5
152
330
F7
100
AcDbEntity
  8
P-SANR-FIXT
100
AcDbSpline
210
0.0
220
0.0
230
1.0
 70
     8
 71
     3
 72
     8
 73
     4
 74
     0
 42
0.000000001
 43
0.0000000001
 40
0.2
 40
0.2
 40
0.2
 40
0.2
 40
0.2112980480945017
 40
0.2112980480945017
 40
0.2112980480945017
 40
0.2112980480945017
 10
740.0195066687595
 20
1804.095649733235
 30
0.0
 10
740.0096801687006
 20
1804.056616446605
 30
0.0
 10
739.9995740832525
 20
1804.017672727066
 30
0.0
 10
739.9891920116726
 20
1803.978822564508
 30
0.0
  0
SPLINE
  5
153
330
F7
100
AcDbEntity
  8
P-SANR-FIXT
100
AcDbSpline
210
0.0
220
0.0
230
1.0
 70
     8
 71
     3
 72
     8
 73
     4
 74
     0
 42
0.000000001
 43
0.0000000001
 40
0.3
 40
0.3
 40
0.3
 40
0.3
 40
0.3195368582399014
 40
0.3195368582399014
 40
0.3195368582399014
 40
0.3195368582399014
 10
739.6953672143228
 20
1803.083005904271
 30
0.0
 10
739.6702941913684
 20
1803.018800409093
 30
0.0
 10
739.6444850114549
 20
1802.954962852291
 30
0.0
 10
739.6180214081876
 20
1802.891569581444
 30
0.0
  0
SPLINE
  5
154
330
F7
100
AcDbEntity
  8
P-SANR-FIXT
100
AcDbSpline
210
0.0
220
0.0
230
1.0
 70
     8
 71
     3
 72
     8
 73
     4
 74
     0
 42
0.000000001
 43
0.0000000001
 40
0.4
 40
0.4
 40
0.4
 40
0.4
 40
0.4302442614316229
 40
0.4302442614316229
 40
0.4302442614316229
 40
0.4302442614316229
 10
739.2614892942227
 20
1802.134014590586
 30
0.0
 10
739.2129986850807
 20
1802.042341801255
 30
0.0
 10
739.1630354939129
 20
1801.951649923613
 30
0.0
 10
739.1116084472156
 20
1801.862070190652
 30
0.0
  0
SPLINE
  5
155
330
F7
100
AcDbEntity
  8
P-SANR-FIXT
100
AcDbSpline
210
0.0
220
0.0
230
1.0
 70
     8
 71
     3
 72
     9
 73
     5
 74
     0
 42
0.000000001
 43
0.0000000001
 40
0.5
 40
0.5
 40
0.5
 40
0.5
 40
0.55
 40
0.7
 40
0.7
 40
0.7
 40
0.7
 10
738.730862390549
 20
1801.263507970622
 30
0.0
 10
738.6347563327237
 20
1801.12504946377
 30
0.0
 10
738.237375561154
 20
1800.583325974346
 30
0.0
 10
737.7813750063201
 20
1800.109368892404
 30
0.0
 10
737.4254798019011
 20
1799.770821724126
 30
0.0
  0
SPLINE
  5
156
330
F7
100
AcDbEntity
  8
P-SANR-FIXT
100
AcDbSpline
210
0.0
220
0.0
230
1.0
 70
     8
 71
     3
 72
     8
 73
     4
 74
     0
 42
0.000000001
 43
0.0000000001
 40
0.7735823545873775
 40
0.7735823545873775
 40
0.7735823545873775
 40
0.7735823545873775
 40
0.8
 40
0.8
 40
0.8
 40
0.8
 10
736.8721660763124
 20
1799.309459202009
 30
0.0
 10
736.8036859732483
 20
1799.257120427824
 30
0.0
 10
736.7350948564689
 20
1799.204969477387
 30
0.0
 10
736.6656938810033
 20
1799.153881452731
 30
0.0
  0
SPLINE
  5
157
330
F7
100
AcDbEntity
  8
P-SANR-FIXT
100
AcDbSpline
210
0.0
220
0.0
230
1.0
 70
     8
 71
     3
 72
     8
 73
     4
 74
     0
 42
0.000000001
 43
0.0000000001
 40
0.8910561614134364
 40
0.8910561614134364
 40
0.8910561614134364
 40
0.8910561614134364
 40
0.9
 40
0.9
 40
0.9
 40
0.9
 10
735.9124167191895
 20
1798.67229959664
 30
0.0
 10
735.8869054319535
 20
1798.65765656748
 30
0.0
 10
735.8611396747445
 20
1798.643314000017
 30
0.0
 10
735.8351600370264
 20
1798.629224059371
 30
0.0
  0
LINE
  5
158
330
F7
100
AcDbEntity
  8
P-SANR-FIXT
100
AcDbLine
 10
742.278624919199
 20
1817.234733201831
 30
0.0
 11
742.278624919199
 21
1806.245878730052
 31
0.0
  0
SPLINE
  5
159
330
F7
100
AcDbEntity
  8
P-SANR-FIXT
100
AcDbSpline
210
0.0
220
0.0
230
1.0
 70
     8
 71
     3
 72
     8
 73
     4
 74
     0
 42
0.000000001
 43
0.0000000001
 40
0.1
 40
0.1
 40
0.1
 40
0.1
 40
0.1089438385865634
 40
0.1089438385865634
 40
0.1089438385865634
 40
0.1089438385865634
 10
735.8357229281051
 20
1813.863291429357
 30
0.0
 10
735.8614072277546
 20
1813.848888256226
 30
0.0
 10
735.8870013262711
 20
1813.834375813857
 30
0.0
 10
735.9125053255276
 20
1813.819752803417
 30
0.0
  0
SPLINE
  5
15A
330
F7
100
AcDbEntity
  8
P-SANR-FIXT
100
AcDbSpline
210
0.0
220
0.0
230
1.0
 70
     8
 71
     3
 72
     8
 73
     4
 74
     0
 42
0.000000001
 43
0.0000000001
 40
0.2
 40
0.2
 40
0.2
 40
0.2
 40
0.2264176454126166
 40
0.2264176454126166
 40
0.2264176454126166
 40
0.2264176454126166
 10
736.6635559546401
 20
1813.337375538665
 30
0.0
 10
736.7334991210184
 20
1813.287134901649
 30
0.0
 10
736.8026654278983
 20
1813.235814325512
 30
0.0
 10
736.8710473512691
 20
1813.183427294254
 30
0.0
  0
SPLINE
  5
15B
330
F7
100
AcDbEntity
  8
P-SANR-FIXT
100
AcDbSpline
210
0.0
220
0.0
230
1.0
 70
     8
 71
     3
 72
     9
 73
     5
 74
     0
 42
0.000000001
 43
0.0000000001
 40
0.3
 40
0.3
 40
0.3
 40
0.3
 40
0.4
 40
0.5
 40
0.5
 40
0.5
 40
0.5
 10
737.4240163590193
 20
1812.72113904823
 30
0.0
 10
737.6660995787338
 20
1812.500740162258
 30
0.0
 10
738.127216790892
 20
1812.030473183188
 30
0.0
 10
738.5405413262446
 20
1811.504173013317
 30
0.0
 10
738.7325959265182
 20
1811.227483479848
 30
0.0
  0
SPLINE
  5
15C
330
F7
100
AcDbEntity
  8
P-SANR-FIXT
100
AcDbSpline
210
0.0
220
0.0
230
1.0
 70
     8
 71
     3
 72
     9
 73
     5
 74
     0
 42
0.000000001
 43
0.0000000001
 40
0.5697557385683592
 40
0.5697557385683592
 40
0.5697557385683592
 40
0.5697557385683592
 40
0.5875
 40
0.6
 40
0.6
 40
0.6
 40
0.6
 10
739.1122032042431
 20
1810.628869751393
 30
0.0
 10
739.1423899098827
 20
1810.576482661275
 30
0.0
 10
739.1929214901989
 20
1810.48652972882
 30
0.0
 10
739.2416771075102
 20
1810.395482694478
 30
0.0
 10
739.2615688329835
 20
1810.357653573235
 30
0.0
  0
SPLINE
  5
15D
330
F7
100
AcDbEntity
  8
P-SANR-FIXT
100
AcDbSpline
210
0.0
220
0.0
230
1.0
 70
     8
 71
     3
 72
     8
 73
     4
 74
     0
 42
0.000000001
 43
0.0000000001
 40
0.6804631417600844
 40
0.6804631417600844
 40
0.6804631417600844
 40
0.6804631417600844
 40
0.7
 40
0.7
 40
0.7
 40
0.7
 10
739.6179477710021
 20
1809.600219482912
 30
0.0
 10
739.6444210510036
 20
1809.53683161984
 30
0.0
 10
739.670364683008
 20
1809.473033251388
 30
0.0
 10
739.695367214323
 20
1809.408751555834
 30
0.0
  0
SPLINE
  5
15E
330
F7
100
AcDbEntity
  8
P-SANR-FIXT
100
AcDbSpline
210
0.0
220
0.0
230
1.0
 70
     8
 71
     3
 72
     8
 73
     4
 74
     0
 42
0.000000001
 43
0.0000000001
 40
0.788701951905482
 40
0.788701951905482
 40
0.788701951905482
 40
0.788701951905482
 40
0.8
 40
0.8
 40
0.8
 40
0.8
 10
739.9895600742122
 20
1808.51266679507
 30
0.0
 10
739.9998492222193
 20
1808.473884523107
 30
0.0
 10
740.0100978541721
 20
1808.435095923075
 30
0.0
 10
740.0201747309978
 20
1808.396256144825
 30
0.0
  0
SPLINE
  5
15F
330
F7
100
AcDbEntity
  8
P-SANR-FIXT
100
AcDbSpline
210
0.0
220
0.0
230
1.0
 70
     8
 71
     3
 72
     8
 73
     4
 74
     0
 42
0.000000001
 43
0.0000000001
 40
0.8955402641314686
 40
0.8955402641314686
 40
0.8955402641314686
 40
0.8955402641314686
 40
0.9
 40
0.9
 40
0.9
 40
0.9
 10
740.2086199138648
 20
1807.388476374124
 30
0.0
 10
740.2106947872948
 20
1807.372496012522
 30
0.0
 10
740.2126517080609
 20
1807.356480903133
 30
0.0
 10
740.2145006009637
 20
1807.340433964942
 30
0.0
  0
ARC
  5
160
330
F7
100
AcDbEntity
  8
P-SANR-FIXT
100
AcDbCircle
 10
731.5378196159822
 20
1806.245878730052
 30
0.0
 40
8.750000000000014
100
AcDbArc
 50
179.9999999999996
 51
359.9999999999992
  0
ARC
  5
161
330
F7
100
AcDbEntity
  8
P-SANR-FIXT
100
AcDbCircle
 10
731.5378196159822
 20
1806.245878730052
 30
0.0
 40
8.749999999999886
100
AcDbArc
 50
0.0
 51
180.0
  0
SPLINE
  5
162
330
F7
100
AcDbEntity
  8
P-SANR-FIXT
100
AcDbSpline
210
0.0
220
0.0
230
1.0
 70
     8
 71
     3
 72
     8
 73
     4
 74
     0
 42
0.000000001
 43
0.0000000001
 40
0.0
 40
0.0
 40
0.0
 40
0.0
 40
0.0833333333333333
 40
0.0833333333333333
 40
0.0833333333333333
 40
0.0833333333333333
 10
683.1821571832802
 20
1796.948948843755
 30
0.0
 10
682.9868259050929
 20
1797.120520008301
 30
0.0
 10
682.7973393144479
 20
1797.299827772517
 30
0.0
 10
682.6132676006801
 20
1797.486897546239
 30
0.0
  0
SPLINE
  5
163
330
F7
100
AcDbEntity
  8
P-SANR-FIXT
100
AcDbSpline
210
0.0
220
0.0
230
1.0
 70
     8
 71
     3
 72
     8
 73
     4
 74
     0
 42
0.000000001
 43
0.0000000001
 40
0.1666666666666666
 40
0.1666666666666666
 40
0.1666666666666666
 40
0.1666666666666666
 40
0.25
 40
0.25
 40
0.25
 40
0.25
 10
682.0768672793435
 20
1798.071418305763
 30
0.0
 10
681.9031955086652
 20
1798.274037508336
 30
0.0
 10
681.7345017393124
 20
1798.484439547382
 30
0.0
 10
681.5703773552806
 20
1798.702663581353
 30
0.0
  0
SPLINE
  5
164
330
F7
100
AcDbEntity
  8
P-SANR-FIXT
100
AcDbSpline
210
0.0
220
0.0
230
1.0
 70
     8
 71
     3
 72
     9
 73
     5
 74
     0
 42
0.000000001
 43
0.0000000001
 40
0.3333333333333333
 40
0.3333333333333333
 40
0.3333333333333333
 40
0.3333333333333333
 40
0.375
 40
0.4166666666666666
 40
0.4166666666666666
 40
0.4166666666666666
 40
0.4166666666666666
 10
681.0925987048705
 20
1799.380640818967
 30
0.0
 10
681.0155632008104
 20
1799.497503572084
 30
0.0
 10
680.8642616257635
 20
1799.73508467139
 30
0.0
 10
680.7188728390302
 20
1799.980263274647
 30
0.0
 10
680.6482618139706
 20
1800.104732767778
 30
0.0
  0
SPLINE
  5
165
330
F7
100
AcDbEntity
  8
P-SANR-FIXT
100
AcDbSpline
210
0.0
220
0.0
230
1.0
 70
     8
 71
     3
 72
     9
 73
     5
 74
     0
 42
0.000000001
 43
0.0000000001
 40
0.5
 40
0.5
 40
0.5
 40
0.5
 40
0.5625
 40
0.5833333333333333
 40
0.5833333333333333
 40
0.5833333333333333
 40
0.5833333333333333
 10
680.2510008786515
 20
1800.873940272602
 30
0.0
 10
680.158018980178
 20
1801.071920244672
 30
0.0
 10
680.0390432241655
 20
1801.341342114674
 30
0.0
 10
679.9287485948051
 20
1801.619124745442
 30
0.0
 10
679.901578224189
 20
1801.688975009681
 30
0.0
  0
SPLINE
  5
166
330
F7
100
AcDbEntity
  8
P-SANR-FIXT
100
AcDbSpline
210
0.0
220
0.0
230
1.0
 70
     8
 71
     3
 72
     8
 73
     4
 74
     0
 42
0.000000001
 43
0.0000000001
 40
0.6666666666666666
 40
0.6666666666666666
 40
0.6666666666666666
 40
0.6666666666666666
 40
0.75
 40
0.75
 40
0.75
 40
0.75
 10
679.5983314793719
 20
1802.544405510434
 30
0.0
 10
679.5075235255374
 20
1802.8354956283
 30
0.0
 10
679.4190859457452
 20
1803.129395893389
 30
0.0
 10
679.358409756638
 20
1803.433055330317
 30
0.0
  0
SPLINE
  5
167
330
F7
100
AcDbEntity
  8
P-SANR-FIXT
100
AcDbSpline
210
0.0
220
0.0
230
1.0
 70
     8
 71
     3
 72
     8
 73
     4
 74
     0
 42
0.000000001
 43
0.0000000001
 40
0.8333333333333333
 40
0.8333333333333333
 40
0.8333333333333333
 40
0.8333333333333333
 40
0.9166666666666667
 40
0.9166666666666667
 40
0.9166666666666667
 40
0.9166666666666667
 10
679.1861290917948
 20
1804.348857307639
 30
0.0
 10
679.1399153542893
 20
1804.658173344825
 30
0.0
 10
679.1151195408194
 20
1804.974239979982
 30
0.0
 10
679.0957363839843
 20
1805.292071966066
 30
0.0
  0
SPLINE
  5
168
330
F7
100
AcDbEntity
  8
P-SANR-FIXT
100
AcDbSpline
210
0.0
220
0.0
230
1.0
 70
     8
 71
     3
 72
     8
 73
     4
 74
     0
 42
0.000000001
 43
0.0000000001
 40
0.0833333333333333
 40
0.0833333333333333
 40
0.0833333333333333
 40
0.0833333333333333
 40
0.1666666666666666
 40
0.1666666666666666
 40
0.1666666666666666
 40
0.1666666666666666
 10
679.0800556774829
 20
1807.20401585487
 30
0.0
 10
679.1045483663951
 20
1807.520376658392
 30
0.0
 10
679.1396515159105
 20
1807.833501077303
 30
0.0
 10
679.1858741783345
 20
1808.142808870243
 30
0.0
  0
SPLINE
  5
169
330
F7
100
AcDbEntity
  8
P-SANR-FIXT
100
AcDbSpline
210
0.0
220
0.0
230
1.0
 70
     8
 71
     3
 72
     8
 73
     4
 74
     0
 42
0.000000001
 43
0.0000000001
 40
0.25
 40
0.25
 40
0.25
 40
0.25
 40
0.3333333333333333
 40
0.3333333333333333
 40
0.3333333333333333
 40
0.3333333333333333
 10
679.358409756638
 20
1809.058702129788
 30
0.0
 10
679.4274161968595
 20
1809.359763452438
 30
0.0
 10
679.5080328483541
 20
1809.656456689074
 30
0.0
 10
679.5987703801346
 20
1809.947530169569
 30
0.0
  0
SPLINE
  5
16A
330
F7
100
AcDbEntity
  8
P-SANR-FIXT
100
AcDbSpline
210
0.0
220
0.0
230
1.0
 70
     8
 71
     3
 72
     8
 73
     4
 74
     0
 42
0.000000001
 43
0.0000000001
 40
0.4166666666666666
 40
0.4166666666666666
 40
0.4166666666666666
 40
0.4166666666666666
 40
0.5
 40
0.5
 40
0.5
 40
0.5
 10
679.8996300279181
 20
1810.802872968519
 30
0.0
 10
680.008883688889
 20
1811.081674825411
 30
0.0
 10
680.1267438088634
 20
1811.353504306024
 30
0.0
 10
680.2510008786515
 20
1811.617817187502
 30
0.0
  0
SPLINE
  5
16B
330
F7
100
AcDbEntity
  8
P-SANR-FIXT
100
AcDbSpline
210
0.0
220
0.0
230
1.0
 70
     8
 71
     3
 72
     9
 73
     5
 74
     0
 42
0.000000001
 43
0.0000000001
 40
0.5833333333333333
 40
0.5833333333333333
 40
0.5833333333333333
 40
0.5833333333333333
 40
0.625
 40
0.6666666666666666
 40
0.6666666666666666
 40
0.6666666666666666
 40
0.6666666666666666
 10
680.6482433926862
 20
1812.386996582656
 30
0.0
 10
680.7188498301715
 20
1812.511462832181
 30
0.0
 10
680.8651539644042
 20
1812.755333473692
 30
0.0
 10
681.0138015323875
 20
1812.996963871342
 30
0.0
 10
681.0896436942478
 20
1813.115628815645
 30
0.0
  0
SPLINE
  5
16C
330
F7
100
AcDbEntity
  8
P-SANR-FIXT
100
AcDbSpline
210
0.0
220
0.0
230
1.0
 70
     8
 71
     3
 72
     8
 73
     4
 74
     0
 42
0.000000001
 43
0.0000000001
 40
0.75
 40
0.75
 40
0.75
 40
0.75
 40
0.8333333333333333
 40
0.8333333333333333
 40
0.8333333333333333
 40
0.8333333333333333
 10
681.5703773552806
 20
1813.789093878752
 30
0.0
 10
681.7344940155679
 20
1814.007309836003
 30
0.0
 10
681.9103956263265
 20
1814.207365947296
 30
0.0
 10
682.0912872328411
 20
1814.39963580386
 30
0.0
  0
SPLINE
  5
16D
330
F7
100
AcDbEntity
  8
P-SANR-FIXT
100
AcDbSpline
210
0.0
220
0.0
230
1.0
 70
     8
 71
     3
 72
     8
 73
     4
 74
     0
 42
0.000000001
 43
0.0000000001
 40
0.9166666666666667
 40
0.9166666666666667
 40
0.9166666666666667
 40
0.9166666666666667
 40
1.0
 40
1.0
 40
1.0
 40
1.0
 10
682.6132577415925
 20
1815.004857584634
 30
0.0
 10
682.797334384904
 20
1815.191928522972
 30
0.0
 10
682.9868259050929
 20
1815.371237451803
 30
0.0
 10
683.1821571832802
 20
1815.542808616349
 30
0.0
  0
LINE
  5
16E
330
F7
100
AcDbEntity
  8
P-SANR-FIXT
100
AcDbLine
 10
683.1821571832802
 20
1796.966462381105
 30
0.0
 11
683.1821571832802
 21
1796.931229300726
 31
0.0
  0
LINE
  5
16F
330
F7
100
AcDbEntity
  8
P-SANR-FIXT
100
AcDbLine
 10
683.1821571832802
 20
1793.498727889436
 30
0.0
 11
683.1821571832802
 21
1796.948948843755
 31
0.0
  0
LINE
  5
170
330
F7
100
AcDbEntity
  8
P-SANR-FIXT
100
AcDbLine
 10
683.1821571832802
 20
1815.542808616349
 30
0.0
 11
683.1821571832802
 21
1818.993029570668
 31
0.0
  0
LINE
  5
171
330
F7
100
AcDbEntity
  8
P-SANR-FIXT
100
AcDbLine
 10
683.1821571832802
 20
1815.560528159378
 30
0.0
 11
683.1821571832802
 21
1815.525295079
 31
0.0
  0
SPLINE
  5
172
330
F7
100
AcDbEntity
  8
P-SANR-FIXT
100
AcDbSpline
210
0.0
220
0.0
230
1.0
 70
     8
 71
     3
 72
     9
 73
     5
 74
     0
 42
0.000000001
 43
0.0000000001
 40
0.0
 40
0.0
 40
0.0
 40
0.0
 40
0.05
 40
0.075
 40
0.075
 40
0.075
 40
0.075
 10
704.0378196159828
 20
1806.245878730052
 30
0.0
 10
704.0304487475281
 20
1805.713549754784
 30
0.0
 10
703.9758493597416
 20
1804.925101104297
 30
0.0
 10
703.8593556269042
 20
1804.160810578662
 30
0.0
 10
703.8130771860738
 20
1803.908861301098
 30
0.0
  0
SPLINE
  5
173
330
F7
100
AcDbEntity
  8
P-SANR-FIXT
100
AcDbSpline
210
0.0
220
0.0
230
1.0
 70
     8
 71
     3
 72
     8
 73
     4
 74
     0
 42
0.000000001
 43
0.0000000001
 40
0.1
 40
0.1
 40
0.1
 40
0.1
 40
0.125
 40
0.125
 40
0.125
 40
0.125
 10
703.6513302268292
 20
1803.161586156234
 30
0.0
 10
703.5895873457958
 20
1802.915395335516
 30
0.0
 10
703.5198272211106
 20
1802.672148740666
 30
0.0
 10
703.4427517098848
 20
1802.432424828076
 30
0.0
  0
SPLINE
  5
174
330
F7
100
AcDbEntity
  8
P-SANR-FIXT
100
AcDbSpline
210
0.0
220
0.0
230
1.0
 70
     8
 71
     3
 72
     8
 73
     4
 74
     0
 42
0.000000001
 43
0.0000000001
 40
0.15
 40
0.15
 40
0.15
 40
0.15
 40
0.175
 40
0.175
 40
0.175
 40
0.175
 10
703.1902808736973
 20
1801.72439959348
 30
0.0
 10
703.0992764465018
 20
1801.492299501804
 30
0.0
 10
703.0016584898772
 20
1801.264300548782
 30
0.0
 10
702.8997466104526
 20
1801.041402238689
 30
0.0
  0
SPLINE
  5
175
330
F7
100
AcDbEntity
  8
P-SANR-FIXT
100
AcDbSpline
210
0.0
220
0.0
230
1.0
 70
     8
 71
     3
 72
     8
 73
     4
 74
     0
 42
0.000000001
 43
0.0000000001
 40
0.2
 40
0.2
 40
0.2
 40
0.2
 40
0.225
 40
0.225
 40
0.225
 40
0.225
 10
702.5803124808247
 20
1800.388118805822
 30
0.0
 10
702.4689960328465
 20
1800.17553135021
 30
0.0
 10
702.3525689391147
 20
1799.96815410615
 30
0.0
 10
702.229938699352
 20
1799.765660099217
 30
0.0
  0
SPLINE
  5
176
330
F7
100
AcDbEntity
  8
P-SANR-FIXT
100
AcDbSpline
210
0.0
220
0.0
230
1.0
 70
     8
 71
     3
 72
     8
 73
     4
 74
     0
 42
0.000000001
 43
0.0000000001
 40
0.25
 40
0.25
 40
0.25
 40
0.25
 40
0.3
 40
0.3
 40
0.3
 40
0.3
 10
701.8456030196097
 20
1799.173138977606
 30
0.0
 10
701.5798589112388
 20
1798.788306287858
 30
0.0
 10
701.2979601293025
 20
1798.42425129783
 30
0.0
 10
701.0024707737459
 20
1798.080685623833
 30
0.0
  0
SPLINE
  5
177
330
F7
100
AcDbEntity
  8
P-SANR-FIXT
100
AcDbSpline
210
0.0
220
0.0
230
1.0
 70
     8
 71
     3
 72
     8
 73
     4
 74
     0
 42
0.000000001
 43
0.0000000001
 40
0.325
 40
0.325
 40
0.325
 40
0.325
 40
0.35
 40
0.35
 40
0.35
 40
0.35
 10
700.5489046180221
 20
1797.580747461435
 30
0.0
 10
700.3942254612601
 20
1797.419252644028
 30
0.0
 10
700.2360094689194
 20
1797.262923517203
 30
0.0
 10
700.0741174488267
 20
1797.111803442538
 30
0.0
  0
SPLINE
  5
178
330
F7
100
AcDbEntity
  8
P-SANR-FIXT
100
AcDbSpline
210
0.0
220
0.0
230
1.0
 70
     8
 71
     3
 72
     9
 73
     5
 74
     0
 42
0.000000001
 43
0.0000000001
 40
0.375
 40
0.375
 40
0.375
 40
0.375
 40
0.4
 40
0.425
 40
0.425
 40
0.425
 40
0.425
 10
699.5780905247052
 20
1796.673824050587
 30
0.0
 10
699.4095236685214
 20
1796.532875755807
 30
0.0
 10
699.0663923394764
 20
1796.260904621699
 30
0.0
 10
698.7139746547302
 20
1796.007799100763
 30
0.0
 10
698.5347690016758
 20
1795.885676582182
 30
0.0
  0
SPLINE
  5
179
330
F7
100
AcDbEntity
  8
P-SANR-FIXT
100
AcDbSpline
210
0.0
220
0.0
230
1.0
 70
     8
 71
     3
 72
     8
 73
     4
 74
     0
 42
0.000000001
 43
0.0000000001
 40
0.45
 40
0.45
 40
0.45
 40
0.45
 40
0.475
 40
0.475
 40
0.475
 40
0.475
 10
697.9878739520303
 20
1795.533382186488
 30
0.0
 10
697.8023870191742
 20
1795.42090258607
 30
0.0
 10
697.613615617197
 20
1795.313635661932
 30
0.0
 10
697.4212301281628
 20
1795.211707049702
 30
0.0
  0
SPLINE
  5
17A
330
F7
100
AcDbEntity
  8
P-SANR-FIXT
100
AcDbSpline
210
0.0
220
0.0
230
1.0
 70
     8
 71
     3
 72
    10
 73
     6
 74
     0
 42
0.000000001
 43
0.0000000001
 40
0.5
 40
0.5
 40
0.5
 40
0.5
 40
0.5125
 40
0.525
 40
0.55
 40
0.55
 40
0.55
 40
0.55
 10
696.8326820566223
 20
1794.922697563317
 30
0.0
 10
696.7327758372866
 20
1794.877000546737
 30
0.0
 10
696.5314075350693
 20
1794.78730118783
 30
0.0
 10
696.1237268415592
 20
1794.61191623555
 30
0.0
 10
695.8106699721561
 20
1794.489534189521
 30
0.0
 10
695.5977820175323
 20
1794.414033235074
 30
0.0
  0
SPLINE
  5
17B
330
F7
100
AcDbEntity
  8
P-SANR-FIXT
100
AcDbSpline
210
0.0
220
0.0
230
1.0
 70
     8
 71
     3
 72
    10
 73
     6
 74
     0
 42
0.000000001
 43
0.0000000001
 40
0.575
 40
0.575
 40
0.575
 40
0.575
 40
0.5875
 40
0.59375
 40
0.6
 40
0.6
 40
0.6
 40
0.6
 10
694.945587545574
 20
1794.207406061301
 30
0.0
 10
694.8344699517293
 20
1794.176549890742
 30
0.0
 10
694.6658571141965
 20
1794.133153711313
 30
0.0
 10
694.4367088106271
 20
1794.081375995238
 30
0.0
 10
694.3208002128401
 20
1794.05782369527
 30
0.0
 10
694.262321258329
 20
1794.046407807063
 30
0.0
  0
SPLINE
  5
17C
330
F7
100
AcDbEntity
  8
P-SANR-FIXT
100
AcDbSpline
210
0.0
220
0.0
230
1.0
 70
     8
 71
     3
 72
     8
 73
     4
 74
     0
 42
0.000000001
 43
0.0000000001
 40
0.625
 40
0.625
 40
0.625
 40
0.625
 40
0.65
 40
0.65
 40
0.65
 40
0.65
 10
693.5340197539066
 20
1793.920900594473
 30
0.0
 10
693.2835656051357
 20
1793.883108515498
 30
0.0
 10
693.0269271620922
 20
1793.849938198937
 30
0.0
 10
692.7679737819403
 20
1793.823073761307
 30
0.0
  0
SPLINE
  5
17D
330
F7
100
AcDbEntity
  8
P-SANR-FIXT
100
AcDbSpline
210
0.0
220
0.0
230
1.0
 70
     8
 71
     3
 72
     8
 73
     4
 74
     0
 42
0.000000001
 43
0.0000000001
 40
0.675
 40
0.675
 40
0.675
 40
0.675
 40
0.7
 40
0.7
 40
0.7
 40
0.7
 10
691.9901329344598
 20
1793.7627948213
 30
0.0
 10
691.7325137843935
 20
1793.749938877628
 30
0.0
 10
691.4785438015156
 20
1793.744785548976
 30
0.0
 10
691.2264468034942
 20
1793.749757452966
 30
0.0
  0
SPLINE
  5
17E
330
F7
100
AcDbEntity
  8
P-SANR-FIXT
100
AcDbSpline
210
0.0
220
0.0
230
1.0
 70
     8
 71
     3
 72
     8
 73
     4
 74
     0
 42
0.000000001
 43
0.0000000001
 40
0.725
 40
0.725
 40
0.725
 40
0.725
 40
0.75
 40
0.75
 40
0.75
 40
0.75
 10
690.4725645529128
 20
1793.793434179178
 30
0.0
 10
690.2210033135452
 20
1793.817041864815
 30
0.0
 10
689.9681048479013
 20
1793.849160099371
 30
0.0
 10
689.718403309413
 20
1793.887747876933
 30
0.0
  0
SPLINE
  5
17F
330
F7
100
AcDbEntity
  8
P-SANR-FIXT
100
AcDbSpline
210
0.0
220
0.0
230
1.0
 70
     8
 71
     3
 72
    13
 73
     9
 74
     0
 42
0.000000001
 43
0.0000000001
 40
0.775
 40
0.775
 40
0.775
 40
0.775
 40
0.7875000000000001
 40
0.7937500000000001
 40
0.8
 40
0.80625
 40
0.8125
 40
0.825
 40
0.825
 40
0.825
 40
0.825
 10
688.9813146092656
 20
1794.020640174932
 30
0.0
 10
688.8608733342906
 20
1794.045263775104
 30
0.0
 10
688.6823196945141
 20
1794.083770379747
 30
0.0
 10
688.4496271851475
 20
1794.137333182996
 30
0.0
 10
688.278184537846
 20
1794.17795695365
 30
0.0
 10
688.1095345959188
 20
1794.220301669192
 30
0.0
 10
687.8875028639332
 20
1794.281045477164
 30
0.0
 10
687.7242170780454
 20
1794.330728499728
 30
0.0
 10
687.6166439732639
 20
1794.365618017867
 30
0.0
  0
SPLINE
  5
180
330
F7
100
AcDbEntity
  8
P-SANR-FIXT
100
AcDbSpline
210
0.0
220
0.0
230
1.0
 70
     8
 71
     3
 72
     8
 73
     4
 74
     0
 42
0.000000001
 43
0.0000000001
 40
0.85
 40
0.85
 40
0.85
 40
0.85
 40
0.875
 40
0.875
 40
0.875
 40
0.875
 10
686.985506593793
 20
1794.594889746387
 30
0.0
 10
686.7795225404561
 20
1794.677529214543
 30
0.0
 10
686.5775686201374
 20
1794.765966022621
 30
0.0
 10
686.3785526449077
 20
1794.858539669089
 30
0.0
  0
SPLINE
  5
181
330
F7
100
AcDbEntity
  8
P-SANR-FIXT
100
AcDbSpline
210
0.0
220
0.0
230
1.0
 70
     8
 71
     3
 72
    10
 73
     6
 74
     0
 42
0.000000001
 43
0.0000000001
 40
0.9
 40
0.9
 40
0.9
 40
0.9
 40
0.9125
 40
0.925
 40
0.95
 40
0.95
 40
0.95
 40
0.95
 10
685.7890969211865
 20
1795.146230655526
 30
0.0
 10
685.6920486873678
 20
1795.195697881014
 30
0.0
 10
685.4991185928721
 20
1795.296116755052
 30
0.0
 10
685.1210716055818
 20
1795.509133724342
 30
0.0
 10
684.8415131890082
 20
1795.674524664619
 30
0.0
 10
684.6626801492367
 20
1795.797413122675
 30
0.0
  0
SPLINE
  5
182
330
F7
100
AcDbEntity
  8
P-SANR-FIXT
100
AcDbSpline
210
0.0
220
0.0
230
1.0
 70
     8
 71
     3
 72
     8
 73
     4
 74
     0
 42
0.000000001
 43
0.0000000001
 40
0.9750000000000005
 40
0.9750000000000005
 40
0.9750000000000005
 40
0.9750000000000005
 40
1.0
 40
1.0
 40
1.0
 40
1.0
 10
684.1290564971862
 20
1796.170514248011
 30
0.0
 10
683.9544731886864
 20
1796.300418213373
 30
0.0
 10
683.7831793868592
 20
1796.435934502636
 30
0.0
 10
683.6151698851723
 20
1796.577289316757
 30
0.0
  0
LINE
  5
183
330
F7
100
AcDbEntity
  8
P-SANR-FIXT
100
AcDbLine
 10
683.6151698851723
 20
1796.599586182139
 30
0.0
 11
683.6151698851723
 21
1796.571795173358
 31
0.0
  0
LINE
  5
184
330
F7
100
AcDbEntity
  8
P-SANR-FIXT
100
AcDbLine
 10
683.6151698851723
 20
1792.760767773835
 30
0.0
 11
683.6151698851723
 21
1796.577289316757
 31
0.0
  0
LINE
  5
185
330
F7
100
AcDbEntity
  8
P-SANR-FIXT
100
AcDbLine
 10
683.6151698851723
 20
1815.914468143348
 30
0.0
 11
683.6151698851723
 21
1819.73098968627
 31
0.0
  0
LINE
  5
186
330
F7
100
AcDbEntity
  8
P-SANR-FIXT
100
AcDbLine
 10
683.6151698851723
 20
1815.919962286746
 30
0.0
 11
683.6151698851723
 21
1815.892171277965
 31
0.0
  0
SPLINE
  5
187
330
F7
100
AcDbEntity
  8
P-SANR-FIXT
100
AcDbSpline
210
0.0
220
0.0
230
1.0
 70
     8
 71
     3
 72
     8
 73
     4
 74
     0
 42
0.000000001
 43
0.0000000001
 40
0.0
 40
0.0
 40
0.0
 40
0.0
 40
0.025
 40
0.025
 40
0.025
 40
0.025
 10
683.6151698851723
 20
1815.914468143348
 30
0.0
 10
683.7831793868592
 20
1816.055822957469
 30
0.0
 10
683.9544731886864
 20
1816.191339246732
 30
0.0
 10
684.1290564971862
 20
1816.321243212094
 30
0.0
  0
SPLINE
  5
188
330
F7
100
AcDbEntity
  8
P-SANR-FIXT
100
AcDbSpline
210
0.0
220
0.0
230
1.0
 70
     8
 71
     3
 72
    10
 73
     6
 74
     0
 42
0.000000001
 43
0.0000000001
 40
0.05
 40
0.05
 40
0.05
 40
0.05
 40
0.075
 40
0.0875
 40
0.1
 40
0.1
 40
0.1
 40
0.1
 10
684.6626801492367
 20
1816.694344337429
 30
0.0
 10
684.8438476776147
 20
1816.813249855943
 30
0.0
 10
685.1205410399894
 20
1816.983528949295
 30
0.0
 10
685.4992247059906
 20
1817.195459662346
 30
0.0
 10
685.6920486873678
 20
1817.29605957909
 30
0.0
 10
685.7890969211865
 20
1817.345526804578
 30
0.0
  0
SPLINE
  5
189
330
F7
100
AcDbEntity
  8
P-SANR-FIXT
100
AcDbSpline
210
0.0
220
0.0
230
1.0
 70
     8
 71
     3
 72
     8
 73
     4
 74
     0
 42
0.000000001
 43
0.0000000001
 40
0.125
 40
0.125
 40
0.125
 40
0.125
 40
0.15
 40
0.15
 40
0.15
 40
0.15
 10
686.3785526449077
 20
1817.633217791015
 30
0.0
 10
686.5775620384193
 20
1817.725801792221
 30
0.0
 10
686.7795225404561
 20
1817.814228245562
 30
0.0
 10
686.985506593793
 20
1817.896867713717
 30
0.0
  0
SPLINE
  5
18A
330
F7
100
AcDbEntity
  8
P-SANR-FIXT
100
AcDbSpline
210
0.0
220
0.0
230
1.0
 70
     8
 71
     3
 72
    13
 73
     9
 74
     0
 42
0.000000001
 43
0.0000000001
 40
0.175
 40
0.175
 40
0.175
 40
0.175
 40
0.1875
 40
0.19375
 40
0.2
 40
0.20625
 40
0.2125
 40
0.225
 40
0.225
 40
0.225
 40
0.225
 10
687.6166439732639
 20
1818.126139442237
 30
0.0
 10
687.7242168340123
 20
1818.161029330934
 30
0.0
 10
687.8875029189575
 20
1818.210711899387
 30
0.0
 10
688.1095345855562
 20
1818.271455806648
 30
0.0
 10
688.2781845406191
 20
1818.313800502244
 30
0.0
 10
688.4496271844178
 20
1818.354424278216
 30
0.0
 10
688.6823196949521
 20
1818.407987079693
 30
0.0
 10
688.8608733342906
 20
1818.446493685
 30
0.0
 10
688.9813146092656
 20
1818.471117285173
 30
0.0
  0
SPLINE
  5
18B
330
F7
100
AcDbEntity
  8
P-SANR-FIXT
100
AcDbSpline
210
0.0
220
0.0
230
1.0
 70
     8
 71
     3
 72
     8
 73
     4
 74
     0
 42
0.000000001
 43
0.0000000001
 40
0.25
 40
0.25
 40
0.25
 40
0.25
 40
0.275
 40
0.275
 40
0.275
 40
0.275
 10
689.718403309413
 20
1818.604009583171
 30
0.0
 10
689.9681048479955
 20
1818.642597360615
 30
0.0
 10
690.2210033135452
 20
1818.67471559529
 30
0.0
 10
690.472564552913
 20
1818.698323280926
 30
0.0
  0
SPLINE
  5
18C
330
F7
100
AcDbEntity
  8
P-SANR-FIXT
100
AcDbSpline
210
0.0
220
0.0
230
1.0
 70
     8
 71
     3
 72
     8
 73
     4
 74
     0
 42
0.000000001
 43
0.0000000001
 40
0.3
 40
0.3
 40
0.3
 40
0.3
 40
0.325
 40
0.325
 40
0.325
 40
0.325
 10
691.2264468034942
 20
1818.742000007139
 30
0.0
 10
691.4785438015225
 20
1818.746971911117
 30
0.0
 10
691.7325137843935
 20
1818.741818582477
 30
0.0
 10
691.9901329344598
 20
1818.728962638805
 30
0.0
  0
SPLINE
  5
18D
330
F7
100
AcDbEntity
  8
P-SANR-FIXT
100
AcDbSpline
210
0.0
220
0.0
230
1.0
 70
     8
 71
     3
 72
     8
 73
     4
 74
     0
 42
0.000000001
 43
0.0000000001
 40
0.35
 40
0.35
 40
0.35
 40
0.35
 40
0.375
 40
0.375
 40
0.375
 40
0.375
 10
692.7679737819403
 20
1818.668683698798
 30
0.0
 10
693.0269271620927
 20
1818.641819261166
 30
0.0
 10
693.2835656051357
 20
1818.608648944607
 30
0.0
 10
693.5340197539066
 20
1818.570856865632
 30
0.0
  0
SPLINE
  5
18E
330
F7
100
AcDbEntity
  8
P-SANR-FIXT
100
AcDbSpline
210
0.0
220
0.0
230
1.0
 70
     8
 71
     3
 72
    10
 73
     6
 74
     0
 42
0.000000001
 43
0.0000000001
 40
0.4
 40
0.4
 40
0.4
 40
0.4
 40
0.40625
 40
0.4125
 40
0.425
 40
0.425
 40
0.425
 40
0.425
 10
694.262321258329
 20
1818.445349653041
 30
0.0
 10
694.3208002128402
 20
1818.433933764834
 30
0.0
 10
694.4367088106276
 20
1818.410381464867
 30
0.0
 10
694.6658571141937
 20
1818.358603748793
 30
0.0
 10
694.8344699517417
 20
1818.315207569358
 30
0.0
 10
694.945587545574
 20
1818.284351398803
 30
0.0
  0
SPLINE
  5
18F
330
F7
100
AcDbEntity
  8
P-SANR-FIXT
100
AcDbSpline
210
0.0
220
0.0
230
1.0
 70
     8
 71
     3
 72
    10
 73
     6
 74
     0
 42
0.000000001
 43
0.0000000001
 40
0.45
 40
0.45
 40
0.45
 40
0.45
 40
0.475
 40
0.4875
 40
0.5
 40
0.5
 40
0.5
 40
0.5
 10
695.5977820175321
 20
1818.07772422503
 30
0.0
 10
695.8106699723165
 20
1818.002223270552
 30
0.0
 10
696.1237268422946
 20
1817.879841224297
 30
0.0
 10
696.53140753379
 20
1817.704456272713
 30
0.0
 10
696.732775840117
 20
1817.614756912398
 30
0.0
 10
696.8326820566223
 20
1817.569059896787
 30
0.0
  0
SPLINE
  5
190
330
F7
100
AcDbEntity
  8
P-SANR-FIXT
100
AcDbSpline
210
0.0
220
0.0
230
1.0
 70
     8
 71
     3
 72
     8
 73
     4
 74
     0
 42
0.000000001
 43
0.0000000001
 40
0.525
 40
0.525
 40
0.525
 40
0.525
 40
0.55
 40
0.55
 40
0.55
 40
0.55
 10
697.4212301281628
 20
1817.280050410403
 30
0.0
 10
697.6136155278708
 20
1817.178121815675
 30
0.0
 10
697.8023865822392
 20
1817.070855012904
 30
0.0
 10
697.9878739520303
 20
1816.958375273617
 30
0.0
  0
SPLINE
  5
191
330
F7
100
AcDbEntity
  8
P-SANR-FIXT
100
AcDbSpline
210
0.0
220
0.0
230
1.0
 70
     8
 71
     3
 72
     9
 73
     5
 74
     0
 42
0.000000001
 43
0.0000000001
 40
0.575
 40
0.575
 40
0.575
 40
0.575
 40
0.6
 40
0.6250000000000002
 40
0.6250000000000002
 40
0.6250000000000002
 40
0.6250000000000002
 10
698.5347690016758
 20
1816.606080877922
 30
0.0
 10
698.7139727917265
 20
1816.483958724372
 30
0.0
 10
699.066381536809
 20
1816.23085616085
 30
0.0
 10
699.4095471368598
 20
1815.958874694377
 30
0.0
 10
699.5781209775859
 20
1815.81792427744
 30
0.0
  0
SPLINE
  5
192
330
F7
100
AcDbEntity
  8
P-SANR-FIXT
100
AcDbSpline
210
0.0
220
0.0
230
1.0
 70
     8
 71
     3
 72
     8
 73
     4
 74
     0
 42
0.000000001
 43
0.0000000001
 40
0.65
 40
0.65
 40
0.65
 40
0.65
 40
0.6750000000000003
 40
0.6750000000000003
 40
0.6750000000000003
 40
0.6750000000000003
 10
700.0741174488267
 20
1815.379954017567
 30
0.0
 10
700.2359714113326
 20
1815.228841399788
 30
0.0
 10
700.3941209515553
 20
1815.072530790231
 30
0.0
 10
700.5487763966551
 20
1814.911043367235
 30
0.0
  0
SPLINE
  5
193
330
F7
100
AcDbEntity
  8
P-SANR-FIXT
100
AcDbSpline
210
0.0
220
0.0
230
1.0
 70
     8
 71
     3
 72
     8
 73
     4
 74
     0
 42
0.000000001
 43
0.0000000001
 40
0.7
 40
0.7
 40
0.7
 40
0.7
 40
0.75
 40
0.75
 40
0.75
 40
0.75
 10
701.0024707737459
 20
1814.411071836271
 30
0.0
 10
701.2982506621309
 20
1814.067449236167
 30
0.0
 10
701.5808661740207
 20
1813.703193169138
 30
0.0
 10
701.8456030196097
 20
1813.318618482499
 30
0.0
  0
SPLINE
  5
194
330
F7
100
AcDbEntity
  8
P-SANR-FIXT
100
AcDbSpline
210
0.0
220
0.0
230
1.0
 70
     8
 71
     3
 72
     8
 73
     4
 74
     0
 42
0.000000001
 43
0.0000000001
 40
0.7750000000000004
 40
0.7750000000000004
 40
0.7750000000000004
 40
0.7750000000000004
 40
0.8
 40
0.8
 40
0.8
 40
0.8
 10
702.2284184911384
 20
1812.726395225804
 30
0.0
 10
702.3510849136918
 20
1812.523894129327
 30
0.0
 10
702.468690088665
 20
1812.316349872682
 30
0.0
 10
702.5803124808247
 20
1812.103638654282
 30
0.0
  0
SPLINE
  5
195
330
F7
100
AcDbEntity
  8
P-SANR-FIXT
100
AcDbSpline
210
0.0
220
0.0
230
1.0
 70
     8
 71
     3
 72
     8
 73
     4
 74
     0
 42
0.000000001
 43
0.0000000001
 40
0.825
 40
0.825
 40
0.825
 40
0.825
 40
0.85
 40
0.85
 40
0.85
 40
0.85
 10
702.8997466104526
 20
1811.450355221415
 30
0.0
 10
703.0015494076666
 20
1811.227478284555
 30
0.0
 10
703.1002541741598
 20
1810.999861425012
 30
0.0
 10
703.1902808736973
 20
1810.767357866624
 30
0.0
  0
SPLINE
  5
196
330
F7
100
AcDbEntity
  8
P-SANR-FIXT
100
AcDbSpline
210
0.0
220
0.0
230
1.0
 70
     8
 71
     3
 72
     8
 73
     4
 74
     0
 42
0.000000001
 43
0.0000000001
 40
0.8750000000000003
 40
0.8750000000000003
 40
0.8750000000000003
 40
0.8750000000000003
 40
0.9
 40
0.9
 40
0.9
 40
0.9
 10
703.4427878592221
 20
1810.059325549039
 30
0.0
 10
703.5198563942599
 20
1809.819603003341
 30
0.0
 10
703.5870736973424
 20
1809.575491629636
 30
0.0
 10
703.651330226829
 20
1809.330171303871
 30
0.0
  0
SPLINE
  5
197
330
F7
100
AcDbEntity
  8
P-SANR-FIXT
100
AcDbSpline
210
0.0
220
0.0
230
1.0
 70
     8
 71
     3
 72
     9
 73
     5
 74
     0
 42
0.000000001
 43
0.0000000001
 40
0.9250000000000005
 40
0.9250000000000005
 40
0.9250000000000005
 40
0.9250000000000005
 40
0.95
 40
1.0
 40
1.0
 40
1.0
 40
1.0
 10
703.8130676730903
 20
1808.582898022951
 30
0.0
 10
703.8593480165173
 20
1808.330948372598
 30
0.0
 10
703.9758569701283
 20
1807.566654864652
 30
0.0
 10
704.0304487475281
 20
1806.77820770532
 30
0.0
 10
704.0378196159828
 20
1806.245878730052
 30
0.0
  0
SPLINE
  5
198
330
F7
100
AcDbEntity
  8
P-SANR-FIXT
100
AcDbSpline
210
0.0
220
0.0
230
1.0
 70
     8
 71
     3
 72
     8
 73
     4
 74
     0
 42
0.000000001
 43
0.0000000001
 40
-0.2
 40
-0.2
 40
-0.2
 40
-0.2
 40
0.0
 40
0.0
 40
0.0
 40
0.0
 10
708.6154590031262
 20
1793.840763501284
 30
0.0
 10
708.7368787704619
 20
1793.976614205288
 30
0.0
 10
708.8415768285178
 20
1794.125690759514
 30
0.0
 10
708.9301146809409
 20
1794.290801457322
 30
0.0
  0
SPLINE
  5
199
330
F7
100
AcDbEntity
  8
P-SANR-FIXT
100
AcDbSpline
210
0.0
220
0.0
230
1.0
 70
     8
 71
     3
 72
     8
 73
     4
 74
     0
 42
0.000000001
 43
0.0000000001
 40
-1.0
 40
-1.0
 40
-1.0
 40
-1.0
 40
-0.5
 40
-0.5
 40
-0.5
 40
-0.5
 10
708.9301146809409
 20
1794.290801457322
 30
0.0
 10
708.9870311807518
 20
1794.390653329816
 30
0.0
 10
709.0384035980513
 20
1794.49730981031
 30
0.0
 10
709.084231932839
 20
1794.610770898802
 30
0.0
  0
SPLINE
  5
19A
330
F7
100
AcDbEntity
  8
P-SANR-FIXT
100
AcDbSpline
210
0.0
220
0.0
230
1.0
 70
     8
 71
     3
 72
     9
 73
     5
 74
     0
 42
0.000000001
 43
0.0000000001
 40
-1.0
 40
-1.0
 40
-1.0
 40
-1.0
 40
-0.5
 40
0.0
 40
0.0
 40
0.0
 40
0.0
 10
709.0686416940723
 20
1804.245878730052
 30
0.0
 10
709.0916956576056
 20
1804.578817986813
 30
0.0
 10
709.1259317280514
 20
1805.245090576907
 30
0.0
 10
709.1364240852555
 20
1805.912151320146
 30
0.0
 10
709.1357343355471
 20
1806.245878730052
 30
0.0
  0
SPLINE
  5
19B
330
F7
100
AcDbEntity
  8
P-SANR-FIXT
100
AcDbSpline
210
0.0
220
0.0
230
1.0
 70
     8
 71
     3
 72
     9
 73
     5
 74
     0
 42
0.000000001
 43
0.0000000001
 40
-1.0
 40
-1.0
 40
-1.0
 40
-1.0
 40
-0.5
 40
0.0
 40
0.0
 40
0.0
 40
0.0
 10
709.1357343355471
 20
1806.245878730052
 30
0.0
 10
709.1364240852555
 20
1806.579606139958
 30
0.0
 10
709.1259317280514
 20
1807.246666883197
 30
0.0
 10
709.0916956576056
 20
1807.912939473292
 30
0.0
 10
709.0686416940723
 20
1808.245878730052
 30
0.0
  0
SPLINE
  5
19C
330
F7
100
AcDbEntity
  8
P-SANR-FIXT
100
AcDbSpline
210
0.0
220
0.0
230
1.0
 70
     8
 71
     3
 72
     8
 73
     4
 74
     0
 42
0.000000001
 43
0.0000000001
 40
-0.5
 40
-0.5
 40
-0.5
 40
-0.5
 40
0.0
 40
0.0
 40
0.0
 40
0.0
 10
709.084231932839
 20
1817.880986561302
 30
0.0
 10
709.0384035980513
 20
1817.994447649795
 30
0.0
 10
708.9870311807518
 20
1818.101104130288
 30
0.0
 10
708.9301146809409
 20
1818.200956002783
 30
0.0
  0
SPLINE
  5
19D
330
F7
100
AcDbEntity
  8
P-SANR-FIXT
100
AcDbSpline
210
0.0
220
0.0
230
1.0
 70
     8
 71
     3
 72
     8
 73
     4
 74
     0
 42
0.000000001
 43
0.0000000001
 40
-1.0
 40
-1.0
 40
-1.0
 40
-1.0
 40
-0.8
 40
-0.8
 40
-0.8
 40
-0.8
 10
708.9301146809409
 20
1818.200956002783
 30
0.0
 10
708.8415768285178
 20
1818.366066700591
 30
0.0
 10
708.7369378557537
 20
1818.51605430767
 30
0.0
 10
708.6154919321606
 20
1818.651694704056
 30
0.0
  0
ELLIPSE
  5
19E
330
F7
100
AcDbEntity
  8
P-SANR-FIXT
100
AcDbEllipse
 10
709.6556650501501
 20
1806.245878730052
 30
0.0
 11
0.0
 21
18.49999999999977
 31
0.0
210
0.0
220
0.0
230
1.0
 40
0.5735764363510544
 41
2.388033308689021
 42
3.141592653589788
  0
ELLIPSE
  5
19F
330
F7
100
AcDbEntity
  8
P-SANR-FIXT
100
AcDbEllipse
 10
709.6556650501501
 20
1806.245878730052
 30
0.0
 11
0.0
 21
18.50000000000015
 31
0.0
210
0.0
220
0.0
230
1.0
 40
0.5735764363510415
 41
0.0000000000000016
 42
0.7535593449007705
  0
ELLIPSE
  5
1A0
330
F7
100
AcDbEntity
  8
P-SANR-FIXT
100
AcDbEllipse
 10
717.0280334487511
 20
1806.245878730052
 30
0.0
 11
0.0
 21
18.49999999999986
 31
0.0
210
0.0
220
0.0
230
1.0
 40
0.5735764363510512
 41
2.273417680035698
 42
3.583122312995703
  0
LINE
  5
1A1
330
F7
100
AcDbEntity
  8
P-SANR-FIXT
100
AcDbLine
 10
726.7991708429929
 20
1799.031783872601
 30
0.0
 11
726.805932572884
 21
1799.059685490858
 31
0.0
  0
LINE
  5
1A2
330
F7
100
AcDbEntity
  8
P-SANR-FIXT
100
AcDbLine
 10
726.8059325728842
 20
1813.432071969246
 30
0.0
 11
726.7991708429929
 21
1813.459973587504
 31
0.0
  0
ELLIPSE
  5
1A3
330
F7
100
AcDbEntity
  8
P-SANR-FIXT
100
AcDbEllipse
 10
717.0280334487511
 20
1806.245878730052
 30
0.0
 11
0.0
 21
18.49999999999999
 31
0.0
210
0.0
220
0.0
230
1.0
 40
0.5735764363510461
 41
5.841655647773687
 42
7.151360280733666
  0
ARC
  5
1A4
330
F7
100
AcDbEntity
  8
P-SANR-FIXT
100
AcDbCircle
 10
691.5378196159827
 20
1806.245878730052
 30
0.0
 40
12.5
100
AcDbArc
 50
180.0
 51
0.0
  0
ARC
  5
1A5
330
F7
100
AcDbEntity
  8
P-SANR-FIXT
100
AcDbCircle
 10
691.5378196159827
 20
1806.245878730052
 30
0.0
 40
12.50000000000011
100
AcDbArc
 50
0.0
 51
180.0
  0
LINE
  5
1A6
330
F7
100
AcDbEntity
  8
P-SANR-FIXT
100
AcDbLine
 10
663.5378196159827
 20
1805.158254556505
 30
0.0
 11
663.5378196159827
 21
1807.333502903599
 31
0.0
  0
LINE
  5
1A7
330
F7
100
AcDbEntity
  8
P-SANR-FIXT
100
AcDbLine
 10
663.5378196159827
 20
1818.658254556505
 30
0.0
 11
663.5378196159827
 21
1807.333502903599
 31
0.0
  0
LINE
  5
1A8
330
F7
100
AcDbEntity
  8
P-SANR-FIXT
100
AcDbLine
 10
663.5378196159827
 20
1819.745878730052
 30
0.0
 11
663.5378196159827
 21
1818.658254556505
 31
0.0
  0
LINE
  5
1A9
330
F7
100
AcDbEntity
  8
P-SANR-FIXT
100
AcDbLine
 10
663.5378196159827
 20
1792.745878730052
 30
0.0
 11
663.5378196159827
 21
1793.833502903599
 31
0.0
  0
LINE
  5
1AA
330
F7
100
AcDbEntity
  8
P-SANR-FIXT
100
AcDbLine
 10
663.5378196159827
 20
1793.833502903599
 30
0.0
 11
663.5378196159827
 21
1805.158254556505
 31
0.0
  0
LINE
  5
1AB
330
F7
100
AcDbEntity
  8
P-SANR-FIXT
100
AcDbLine
 10
676.0378196159827
 20
1805.158254556505
 30
0.0
 11
676.0378196159827
 21
1793.833502903599
 31
0.0
  0
LINE
  5
1AC
330
F7
100
AcDbEntity
  8
P-SANR-FIXT
100
AcDbLine
 10
676.0378196159827
 20
1793.833502903599
 30
0.0
 11
676.0378196159827
 21
1792.745878730053
 31
0.0
  0
LINE
  5
1AD
330
F7
100
AcDbEntity
  8
P-SANR-FIXT
100
AcDbLine
 10
676.0378196159827
 20
1818.658254556505
 30
0.0
 11
676.0378196159827
 21
1819.745878730052
 31
0.0
  0
LINE
  5
1AE
330
F7
100
AcDbEntity
  8
P-SANR-FIXT
100
AcDbLine
 10
676.0378196159827
 20
1807.333502903599
 30
0.0
 11
676.0378196159827
 21
1818.658254556505
 31
0.0
  0
LINE
  5
1AF
330
F7
100
AcDbEntity
  8
P-SANR-FIXT
100
AcDbLine
 10
676.0378196159827
 20
1807.333502903599
 30
0.0
 11
676.0378196159827
 21
1805.158254556505
 31
0.0
  0
LINE
  5
1B0
330
F7
100
AcDbEntity
  8
P-SANR-FIXT
100
AcDbLine
 10
663.5378196159827
 20
1805.158254556505
 30
0.0
 11
676.0378196159827
 21
1805.158254556505
 31
0.0
  0
LINE
  5
1B1
330
F7
100
AcDbEntity
  8
P-SANR-FIXT
100
AcDbLine
 10
676.0378196159827
 20
1819.745878730052
 30
0.0
 11
663.5378196159827
 21
1819.745878730052
 31
0.0
  0
LINE
  5
1B2
330
F7
100
AcDbEntity
  8
P-SANR-FIXT
100
AcDbLine
 10
676.0378196159827
 20
1792.745878730052
 30
0.0
 11
663.5378196159827
 21
1792.745878730052
 31
0.0
  0
LINE
  5
1B3
330
F7
100
AcDbEntity
  8
P-SANR-FIXT
100
AcDbLine
 10
676.0378196159827
 20
1793.833502903599
 30
0.0
 11
663.5378196159827
 21
1793.833502903599
 31
0.0
  0
LINE
  5
1B4
330
F7
100
AcDbEntity
  8
P-SANR-FIXT
100
AcDbLine
 10
764.5378196159822
 20
1819.745878730052
 30
0.0
 11
764.5378196159822
 21
1818.658254556505
 31
0.0
  0
LINE
  5
1B5
330
F7
100
AcDbEntity
  8
P-SANR-FIXT
100
AcDbLine
 10
764.5378196159822
 20
1818.658254556505
 30
0.0
 11
764.5378196159822
 21
1807.333502903599
 31
0.0
  0
LINE
  5
1B6
330
F7
100
AcDbEntity
  8
P-SANR-FIXT
100
AcDbLine
 10
764.5378196159822
 20
1807.333502903599
 30
0.0
 11
764.5378196159822
 21
1805.158254556505
 31
0.0
  0
LINE
  5
1B7
330
F7
100
AcDbEntity
  8
P-SANR-FIXT
100
AcDbLine
 10
764.5378196159822
 20
1805.158254556505
 30
0.0
 11
764.5378196159822
 21
1793.833502903599
 31
0.0
  0
LINE
  5
1B8
330
F7
100
AcDbEntity
  8
P-SANR-FIXT
100
AcDbLine
 10
764.5378196159822
 20
1793.833502903599
 30
0.0
 11
764.5378196159822
 21
1792.745878730052
 31
0.0
  0
LINE
  5
1B9
330
F7
100
AcDbEntity
  8
P-SANR-FIXT
100
AcDbLine
 10
751.0182575274651
 20
1792.745878730052
 30
0.0
 11
751.0182575274651
 21
1793.833502903599
 31
0.0
  0
LINE
  5
1BA
330
F7
100
AcDbEntity
  8
P-SANR-FIXT
100
AcDbLine
 10
751.0182575274651
 20
1793.833502903599
 30
0.0
 11
751.0182575274651
 21
1805.158254556505
 31
0.0
  0
LINE
  5
1BB
330
F7
100
AcDbEntity
  8
P-SANR-FIXT
100
AcDbLine
 10
751.0182575274651
 20
1805.158254556505
 30
0.0
 11
751.0182575274651
 21
1807.333502903599
 31
0.0
  0
LINE
  5
1BC
330
F7
100
AcDbEntity
  8
P-SANR-FIXT
100
AcDbLine
 10
751.0182575274651
 20
1807.333502903599
 30
0.0
 11
751.0182575274651
 21
1818.658254556505
 31
0.0
  0
LINE
  5
1BD
330
F7
100
AcDbEntity
  8
P-SANR-FIXT
100
AcDbLine
 10
751.0182575274651
 20
1818.658254556505
 30
0.0
 11
751.0182575274651
 21
1819.745878730052
 31
0.0
  0
LINE
  5
1BE
330
F7
100
AcDbEntity
  8
P-SANR-FIXT
100
AcDbLine
 10
764.5378196159822
 20
1792.745878730052
 30
0.0
 11
751.0182575274651
 21
1792.745878730052
 31
0.0
  0
LINE
  5
1BF
330
F7
100
AcDbEntity
  8
P-SANR-FIXT
100
AcDbLine
 10
764.5378196159822
 20
1793.833502903599
 30
0.0
 11
751.0182575274651
 21
1793.833502903599
 31
0.0
  0
LINE
  5
1C0
330
F7
100
AcDbEntity
  8
P-SANR-FIXT
100
AcDbLine
 10
764.5378196159822
 20
1805.158254556505
 30
0.0
 11
751.0182575274651
 21
1805.158254556505
 31
0.0
  0
LINE
  5
1C1
330
F7
100
AcDbEntity
  8
P-SANR-FIXT
100
AcDbLine
 10
764.5378196159822
 20
1807.333502903599
 30
0.0
 11
751.0182575274651
 21
1807.333502903599
 31
0.0
  0
LINE
  5
1C2
330
F7
100
AcDbEntity
  8
P-SANR-FIXT
100
AcDbLine
 10
764.5378196159822
 20
1818.658254556505
 30
0.0
 11
751.0182575274651
 21
1818.658254556505
 31
0.0
  0
LINE
  5
1C3
330
F7
100
AcDbEntity
  8
P-SANR-FIXT
100
AcDbLine
 10
764.5378196159822
 20
1819.745878730052
 30
0.0
 11
751.0182575274651
 21
1819.745878730052
 31
0.0
  0
LINE
  5
1C4
330
F7
100
AcDbEntity
  8
P-SANR-FIXT
100
AcDbLine
 10
709.0686416940723
 20
1804.245878730052
 30
0.0
 11
720.5962957661697
 21
1804.245878730052
 31
0.0
  0
LINE
  5
1C5
330
F7
100
AcDbEntity
  8
P-SANR-FIXT
100
AcDbLine
 10
720.5962957661697
 20
1808.245878730052
 30
0.0
 11
709.0686416940723
 21
1808.245878730052
 31
0.0
  0
ELLIPSE
  5
1C6
330
F7
100
AcDbEntity
  8
P-SANR-FIXT
100
AcDbEllipse
 10
682.5803634831132
 20
1806.245878730052
 30
0.0
 11
0.0
 21
19.0
 31
0.0
210
0.0
220
0.0
230
1.0
 40
0.5735764363510522
 41
2.361288470747833
 42
3.141592653589788
  0
ELLIPSE
  5
1C7
330
F7
100
AcDbEntity
  8
P-SANR-FIXT
100
AcDbEllipse
 10
682.5803634831132
 20
1806.245878730052
 30
0.0
 11
0.0
 21
19.00000000000043
 31
0.0
210
0.0
220
0.0
230
1.0
 40
0.57357643635104
 41
0.0000000000000016
 42
0.7803041828419655
  0
ENDBLK
  5
1C9
330
F7
100
AcDbEntity
  8
0
100
AcDbBlockEnd
  0
BLOCK
  5
20D
330
1CB
100
AcDbEntity
  8
0
100
AcDbBlockBegin
  2
Automatic flow rate regulator valve_Caleffi_121 DN15 - 1_2__-V2-Est - Idraulica
 70
     0
 10
0.0
 20
0.0
 30
0.0
  3
Automatic flow rate regulator valve_Caleffi_121 DN15 - 1_2__-V2-Est - Idraulica
  1

  0
LINE
  5
1CC
330
1CB
100
AcDbEntity
  8
P-SANR-FIXT
100
AcDbLine
 10
1067.99137059689
 20
1951.402176836007
 30
0.0
 11
1075.737337289304
 21
1955.065536145883
 31
0.0
  0
ELLIPSE
  5
1CD
330
1CB
100
AcDbEntity
  8
P-SANR-FIXT
100
AcDbEllipse
 10
1067.114353943097
 20
1959.973218050149
 30
0.0
 11
10.50000000000001
 21
0.0
 31
0.0
210
0.0
220
0.0
230
1.0
 40
0.8191520442889833
 41
5.675963710773911
 42
5.843209352388676
  0
LINE
  5
1CE
330
1CB
100
AcDbEntity
  8
P-SANR-FIXT
100
AcDbLine
 10
1076.614353943097
 20
1956.309858740273
 30
0.0
 11
1076.614353943097
 21
1963.636577360026
 31
0.0
  0
ELLIPSE
  5
1CF
330
1CB
100
AcDbEntity
  8
P-SANR-FIXT
100
AcDbEllipse
 10
1067.114353943097
 20
1959.973218050149
 30
0.0
 11
10.50000000000013
 21
0.0
 31
0.0
210
0.0
220
0.0
230
1.0
 40
0.8191520442889837
 41
0.4399759547909606
 42
0.6072215964057244
  0
LINE
  5
1D0
330
1CB
100
AcDbEntity
  8
P-SANR-FIXT
100
AcDbLine
 10
1075.737337289304
 20
1964.880899954416
 30
0.0
 11
1067.991370596889
 21
1968.544259264291
 31
0.0
  0
ELLIPSE
  5
1D1
330
1CB
100
AcDbEntity
  8
P-SANR-FIXT
100
AcDbEllipse
 10
1067.114353943097
 20
1959.973218050149
 30
0.0
 11
10.49999999999988
 21
0.0
 31
0.0
210
0.0
220
0.0
230
1.0
 40
0.8191520442889832
 41
1.487173505987549
 42
1.654419147602286
  0
LINE
  5
1D2
330
1CB
100
AcDbEntity
  8
P-SANR-FIXT
100
AcDbLine
 10
1066.237337289304
 20
1968.544259264291
 30
0.0
 11
1058.491370596889
 21
1964.880899954415
 31
0.0
  0
ELLIPSE
  5
1D3
330
1CB
100
AcDbEntity
  8
P-SANR-FIXT
100
AcDbEllipse
 10
1067.114353943097
 20
1959.973218050149
 30
0.0
 11
10.49999999999982
 21
0.0
 31
0.0
210
0.0
220
0.0
230
1.0
 40
0.8191520442890157
 41
2.53437105718413
 42
2.701616698798895
  0
LINE
  5
1D4
330
1CB
100
AcDbEntity
  8
P-SANR-FIXT
100
AcDbLine
 10
1057.614353943097
 20
1963.636577360025
 30
0.0
 11
1057.614353943097
 21
1956.309858740273
 31
0.0
  0
ELLIPSE
  5
1D5
330
1CB
100
AcDbEntity
  8
P-SANR-FIXT
100
AcDbEllipse
 10
1067.114353943097
 20
1959.973218050149
 30
0.0
 11
10.49999999999982
 21
0.0
 31
0.0
210
0.0
220
0.0
230
1.0
 40
0.8191520442889979
 41
3.581568608380726
 42
3.748814249995481
  0
LINE
  5
1D6
330
1CB
100
AcDbEntity
  8
P-SANR-FIXT
100
AcDbLine
 10
1058.491370596889
 20
1955.065536145883
 30
0.0
 11
1066.237337289305
 21
1951.402176836007
 31
0.0
  0
ELLIPSE
  5
1D7
330
1CB
100
AcDbEntity
  8
P-SANR-FIXT
100
AcDbEllipse
 10
1067.114353943097
 20
1959.973218050149
 30
0.0
 11
10.50000000000011
 21
0.0
 31
0.0
210
0.0
220
0.0
230
1.0
 40
0.8191520442889871
 41
4.628766159577338
 42
4.796011801192093
  0
ELLIPSE
  5
1D8
330
1CB
100
AcDbEntity
  8
P-SANR-FIXT
100
AcDbEllipse
 10
1067.114353943097
 20
1964.561829540958
 30
0.0
 11
10.49999999999993
 21
0.0
 31
0.0
210
0.0
220
0.0
230
1.0
 40
0.819152044289
 41
2.534371057184121
 42
2.701616698798888
  0
LINE
  5
1D9
330
1CB
100
AcDbEntity
  8
P-SANR-FIXT
100
AcDbLine
 10
1058.491370596889
 20
1969.469511445224
 30
0.0
 11
1066.237337289304
 21
1973.1328707551
 31
0.0
  0
ELLIPSE
  5
1DA
330
1CB
100
AcDbEntity
  8
P-SANR-FIXT
100
AcDbEllipse
 10
1067.114353943097
 20
1964.561829540958
 30
0.0
 11
10.50000000000015
 21
0.0
 31
0.0
210
0.0
220
0.0
230
1.0
 40
0.8191520442889876
 41
1.487173505987551
 42
1.654419147602284
  0
LINE
  5
1DB
330
1CB
100
AcDbEntity
  8
P-SANR-FIXT
100
AcDbLine
 10
1067.991370596889
 20
1973.1328707551
 30
0.0
 11
1075.737337289304
 21
1969.469511445224
 31
0.0
  0
ELLIPSE
  5
1DC
330
1CB
100
AcDbEntity
  8
P-SANR-FIXT
100
AcDbEllipse
 10
1067.114353943097
 20
1964.561829540958
 30
0.0
 11
10.50000000000008
 21
0.0
 31
0.0
210
0.0
220
0.0
230
0.9999999999999998
 40
0.8191520442889544
 41
0.4399759547910075
 42
0.6072215964057194
  0
LINE
  5
1DD
330
1CB
100
AcDbEntity
  8
P-SANR-FIXT
100
AcDbLine
 10
1057.614353943097
 20
1963.636577360025
 30
0.0
 11
1057.614353943097
 21
1968.225188850834
 31
0.0
  0
LINE
  5
1DE
330
1CB
100
AcDbEntity
  8
P-SANR-FIXT
100
AcDbLine
 10
1058.491370596889
 20
1964.880899954415
 30
0.0
 11
1058.491370596889
 21
1969.469511445224
 31
0.0
  0
LINE
  5
1DF
330
1CB
100
AcDbEntity
  8
P-SANR-FIXT
100
AcDbLine
 10
1066.237337289304
 20
1968.544259264291
 30
0.0
 11
1066.237337289304
 21
1973.1328707551
 31
0.0
  0
LINE
  5
1E0
330
1CB
100
AcDbEntity
  8
P-SANR-FIXT
100
AcDbLine
 10
1067.991370596889
 20
1968.544259264291
 30
0.0
 11
1067.991370596889
 21
1973.1328707551
 31
0.0
  0
LINE
  5
1E1
330
1CB
100
AcDbEntity
  8
P-SANR-FIXT
100
AcDbLine
 10
1075.737337289304
 20
1964.880899954416
 30
0.0
 11
1075.737337289304
 21
1969.469511445224
 31
0.0
  0
LINE
  5
1E2
330
1CB
100
AcDbEntity
  8
P-SANR-FIXT
100
AcDbLine
 10
1076.614353943097
 20
1963.636577360026
 30
0.0
 11
1076.614353943097
 21
1968.225188850834
 31
0.0
  0
LINE
  5
1E3
330
1CB
100
AcDbEntity
  8
P-SANR-FIXT
100
AcDbLine
 10
1086.114353943098
 20
1966.282558850011
 30
0.0
 11
1086.114353943098
 21
1972.018323213521
 31
0.0
  0
LINE
  5
1E4
330
1CB
100
AcDbEntity
  8
P-SANR-FIXT
100
AcDbLine
 10
1048.114353943097
 20
1972.018323213522
 30
0.0
 11
1048.114353943097
 21
1966.282558850011
 31
0.0
  0
LINE
  5
1E5
330
1CB
100
AcDbEntity
  8
P-SANR-FIXT
100
AcDbLine
 10
1084.864353943098
 20
1977.521680892331
 30
0.0
 11
1084.864353943098
 21
1983.489851940543
 31
0.0
  0
LINE
  5
1E6
330
1CB
100
AcDbEntity
  8
P-SANR-FIXT
100
AcDbLine
 10
1049.364353943097
 20
1983.489851940543
 30
0.0
 11
1049.364353943097
 21
1977.521680892332
 31
0.0
  0
LINE
  5
1E7
330
1CB
100
AcDbEntity
  8
P-SANR-FIXT
100
AcDbLine
 10
1083.864353943098
 20
1994.98992450702
 30
0.0
 11
1083.864353943098
 21
2001.557509685601
 31
0.0
  0
LINE
  5
1E8
330
1CB
100
AcDbEntity
  8
P-SANR-FIXT
100
AcDbLine
 10
1050.364353943098
 20
2001.557509685601
 30
0.0
 11
1050.364353943098
 21
1994.98992450702
 31
0.0
  0
LWPOLYLINE
  5
1E9
330
1CB
100
AcDbEntity
  8
P-SANR-FIXT
100
AcDbPolyline
 90
       19
 70
   128
 43
0.0
 10
1083.864353943098
 20
2001.557509685601
 10
1083.849781290972
 20
2002.154319686658
 10
1083.806111754013
 20
2002.749832454252
 10
1083.733489666921
 20
2003.342761717216
 10
1083.632152560071
 20
2003.931842720559
 10
1083.502426792241
 20
2004.515841992374
 10
1083.344721767709
 20
2005.093566001533
 10
1083.159523032658
 20
2005.66386846043
 10
1082.94738458372
 20
2006.225656115595
 10
1082.708920733044
 20
2006.777892960865
 10
1082.44479786128
 20
2007.319602894649
 10
1082.155726356344
 20
2007.849870918064
 10
1081.842452987342
 20
2008.367843029638
 10
1081.505753905849
 20
2008.872725012706
 10
1081.146428406754
 20
2009.36378033348
 10
1080.765293523215
 20
2009.840327372754
 10
1080.363179478814
 20
2010.301736205212
 10
1079.940925977076
 20
2010.747425120803
 10
1079.611670665634
 20
2011.06764661759
  0
LWPOLYLINE
  5
1EA
330
1CB
100
AcDbEntity
  8
P-SANR-FIXT
100
AcDbPolyline
 90
       20
 70
   128
 43
0.0
 10
1054.617037263236
 20
2011.067433267009
 10
1054.299218131728
 20
2010.758997176549
 10
1053.876443315777
 20
2010.31373160518
 10
1053.473785642945
 20
2009.852731349958
 10
1053.092085024518
 20
2009.376576893806
 10
1052.73217197905
 20
2008.885896840999
 10
1052.394863943445
 20
2008.381371400187
 10
1052.080960747683
 20
2007.863735614323
 10
1051.791239232368
 20
2007.333782143613
 10
1051.526447030921
 20
2006.792363387928
 10
1051.287295589511
 20
2006.240392725802
 10
1051.074452555366
 20
2005.678844651684
 10
1050.888533724074
 20
2005.108753614507
 10
1050.73009479384
 20
2004.531211400567
 10
1050.59962322342
 20
2003.947362962156
 10
1050.497530524511
 20
2003.358400668232
 10
1050.424145332915
 20
2002.765557040065
 10
1050.37970759197
 20
2002.170096126588
 10
1050.364364144514
 20
2001.573303762993
 10
1050.364353943098
 20
2001.557509685601
  0
LINE
  5
1EB
330
1CB
100
AcDbEntity
  8
P-SANR-FIXT
100
AcDbLine
 10
1085.614353943098
 20
1983.428035831548
 30
0.0
 11
1085.614353943098
 21
1988.590223758708
 31
0.0
  0
LINE
  5
1EC
330
1CB
100
AcDbEntity
  8
P-SANR-FIXT
100
AcDbLine
 10
1048.614353943098
 20
1988.590223758708
 30
0.0
 11
1048.614353943098
 21
1983.428035831548
 31
0.0
  0
LINE
  5
1ED
330
1CB
100
AcDbEntity
  8
P-SANR-FIXT
100
AcDbLine
 10
1079.614353943098
 20
2008.264929076449
 30
0.0
 11
1079.614353943098
 21
2024.482558850011
 31
0.0
  0
LINE
  5
1EE
330
1CB
100
AcDbEntity
  8
P-SANR-FIXT
100
AcDbLine
 10
1054.614353943097
 20
2024.482558850011
 30
0.0
 11
1054.614353943097
 21
2008.264929076449
 31
0.0
  0
LINE
  5
1EF
330
1CB
100
AcDbEntity
  8
P-SANR-FIXT
100
AcDbLine
 10
1086.114353943098
 20
1964.561829540958
 30
0.0
 11
1086.114353943098
 21
1966.282558850011
 31
0.0
  0
LINE
  5
1F0
330
1CB
100
AcDbEntity
  8
P-SANR-FIXT
100
AcDbLine
 10
1048.114353943097
 20
1966.282558850011
 30
0.0
 11
1048.114353943097
 21
1964.561829540958
 31
0.0
  0
ELLIPSE
  5
1F1
330
1CB
100
AcDbEntity
  8
P-SANR-FIXT
100
AcDbEllipse
 10
1067.114353943096
 20
1972.018323213521
 30
0.0
 11
-19.00000000000023
 21
0.0000000000002501
 31
0.0
210
0.0
220
0.0
230
1.0
 40
0.8191520442889785
 41
3.141592653589775
 42
4.46304628879653
  0
ELLIPSE
  5
1F2
330
1CB
100
AcDbEntity
  8
P-SANR-FIXT
100
AcDbEllipse
 10
1067.114353943096
 20
1972.018323213521
 30
0.0
 11
19.00000000000012
 21
0.0
 31
0.0
210
0.0
220
0.0
230
1.0
 40
0.8191520442889778
 41
1.820139018383061
 42
3.141592653589793
  0
ELLIPSE
  5
1F3
330
1CB
100
AcDbEntity
  8
P-SANR-FIXT
100
AcDbEllipse
 10
1067.114353943096
 20
1983.489851940542
 30
0.0
 11
17.75000000000023
 21
0.0
 31
0.0
210
0.0
220
0.0
230
1.0
 40
0.8191520442889922
 41
0.0
 42
0.7219866673168174
  0
ELLIPSE
  5
1F4
330
1CB
100
AcDbEntity
  8
P-SANR-FIXT
100
AcDbEllipse
 10
1067.114353943096
 20
1983.489851940542
 30
0.0
 11
17.74999999999984
 21
0.0
 31
0.0
210
0.0
220
0.0
230
1.0
 40
0.8191520442890126
 41
2.419605986272979
 42
3.141592653589793
  0
SPLINE
  5
1F5
330
1CB
100
AcDbEntity
  8
P-SANR-FIXT
100
AcDbSpline
210
0.0
220
0.0
230
1.0
 70
     8
 71
     3
 72
     8
 73
     4
 74
     0
 42
0.000000001
 43
0.0000000001
 40
0.3415305690475804
 40
0.3415305690475804
 40
0.3415305690475804
 40
0.3415305690475804
 40
0.3438261409063572
 40
0.3438261409063572
 40
0.3438261409063572
 40
0.3438261409063572
 10
1072.33280111421
 20
2003.563457670232
 30
0.0
 10
1072.33967882034
 20
2003.560027155853
 30
0.0
 10
1072.346552977022
 20
2003.556588509798
 30
0.0
 10
1072.35342362609
 20
2003.553141821747
 30
0.0
  0
SPLINE
  5
1F6
330
1CB
100
AcDbEntity
  8
P-SANR-FIXT
100
AcDbSpline
210
0.0
220
0.0
230
1.0
 70
     8
 71
     3
 72
     8
 73
     4
 74
     0
 42
0.000000001
 43
0.0000000001
 40
0.6561738590936046
 40
0.6561738590936046
 40
0.6561738590936046
 40
0.6561738590936046
 40
0.6584694309524006
 40
0.6584694309524006
 40
0.6584694309524006
 40
0.6584694309524006
 10
1061.875280738787
 20
2003.553146471979
 30
0.0
 10
1061.882153718145
 20
2003.55659008266
 30
0.0
 10
1061.889030104831
 20
2003.560024013136
 30
0.0
 10
1061.895909207008
 20
2003.563450304733
 30
0.0
  0
ELLIPSE
  5
1F7
330
1CB
100
AcDbEntity
  8
P-SANR-FIXT
100
AcDbEllipse
 10
1067.114353943096
 20
1983.428035831548
 30
0.0
 11
18.50000000000005
 21
0.0
 31
0.0
210
0.0
220
0.0
230
1.0
 40
0.8191520442889807
 41
5.999459017528273
 42
7.03618859460117
  0
ELLIPSE
  5
1F8
330
1CB
100
AcDbEntity
  8
P-SANR-FIXT
100
AcDbEllipse
 10
1067.114353943096
 20
1983.428035831548
 30
0.0
 11
18.49999999999976
 21
0.0
 31
0.0
210
0.0
220
0.0
230
1.0
 40
0.819152044288997
 41
2.388589366168238
 42
3.425318943241044
  0
ELLIPSE
  5
1F9
330
1CB
100
AcDbEntity
  8
P-SANR-FIXT
100
AcDbEllipse
 10
1067.114353943097
 20
1988.590223758707
 30
0.0
 11
18.49999999999988
 21
0.0
 31
0.0
210
0.0
220
0.0
230
1.0
 40
0.8191520442890025
 41
6.236746043102812
 42
7.035653509088298
  0
ELLIPSE
  5
1FA
330
1CB
100
AcDbEntity
  8
P-SANR-FIXT
100
AcDbEllipse
 10
1067.114353943097
 20
1988.590223758707
 30
0.0
 11
18.49999999999985
 21
0.0
 31
0.0
210
0.0
220
0.0
230
1.0
 40
0.8191520442890045
 41
2.389124451681157
 42
3.188031917666569
  0
LINE
  5
1FB
330
1CB
100
AcDbEntity
  8
P-SANR-FIXT
100
AcDbLine
 10
1067.114353943096
 20
2024.482558850011
 30
0.0
 11
1079.614353943096
 21
2024.482558850011
 31
0.0
  0
LINE
  5
1FC
330
1CB
100
AcDbEntity
  8
P-SANR-FIXT
100
AcDbLine
 10
1054.614353943096
 20
2024.482558850011
 30
0.0
 11
1067.114353943096
 21
2024.482558850011
 31
0.0
  0
ARC
  5
1FD
330
1CB
100
AcDbEntity
  8
P-SANR-FIXT
100
AcDbCircle
 10
1067.114353943096
 20
1999.982558850011
 30
0.0
 40
15.00000000000004
100
AcDbArc
 50
85.84193276316668
 51
94.15806723683244
  0
LINE
  5
1FE
330
1CB
100
AcDbEntity
  8
P-SANR-FIXT
100
AcDbLine
 10
1054.701978116644
 20
2008.404727593445
 30
0.0
 11
1066.02672976955
 21
2014.943076008756
 31
0.0
  0
ARC
  5
1FF
330
1CB
100
AcDbEntity
  8
P-SANR-FIXT
100
AcDbCircle
 10
1067.114353943096
 20
1999.982558850011
 30
0.0
 40
14.9999999999999
100
AcDbArc
 50
145.8419327631669
 51
154.1580672368333
  0
LINE
  5
200
330
1CB
100
AcDbEntity
  8
P-SANR-FIXT
100
AcDbLine
 10
1053.614353943096
 20
2006.520907265322
 30
0.0
 11
1053.614353943096
 21
1993.444210434699
 31
0.0
  0
ARC
  5
201
330
1CB
100
AcDbEntity
  8
P-SANR-FIXT
100
AcDbCircle
 10
1067.114353943096
 20
1999.982558850011
 30
0.0
 40
14.9999999999999
100
AcDbArc
 50
205.8419327631663
 51
214.1580672368311
  0
LINE
  5
202
330
1CB
100
AcDbEntity
  8
P-SANR-FIXT
100
AcDbLine
 10
1054.701978116643
 20
1991.560390106576
 30
0.0
 11
1066.026729769549
 21
1985.022041691265
 31
0.0
  0
ARC
  5
203
330
1CB
100
AcDbEntity
  8
P-SANR-FIXT
100
AcDbCircle
 10
1067.114353943096
 20
1999.982558850011
 30
0.0
 40
14.99999999999983
100
AcDbArc
 50
265.8419327631654
 51
274.1580672368313
  0
LINE
  5
204
330
1CB
100
AcDbEntity
  8
P-SANR-FIXT
100
AcDbLine
 10
1068.201978116643
 20
1985.022041691265
 30
0.0
 11
1079.526729769549
 21
1991.560390106576
 31
0.0
  0
ARC
  5
205
330
1CB
100
AcDbEntity
  8
P-SANR-FIXT
100
AcDbCircle
 10
1067.114353943096
 20
1999.982558850011
 30
0.0
 40
15.00000000000004
100
AcDbArc
 50
325.8419327631649
 51
334.1580672368313
  0
LINE
  5
206
330
1CB
100
AcDbEntity
  8
P-SANR-FIXT
100
AcDbLine
 10
1080.614353943096
 20
1993.444210434699
 30
0.0
 11
1080.614353943096
 21
2006.520907265322
 31
0.0
  0
ARC
  5
207
330
1CB
100
AcDbEntity
  8
P-SANR-FIXT
100
AcDbCircle
 10
1067.114353943096
 20
1999.982558850011
 30
0.0
 40
14.9999999999999
100
AcDbArc
 50
25.84193276316638
 51
34.15806723683199
  0
LINE
  5
208
330
1CB
100
AcDbEntity
  8
P-SANR-FIXT
100
AcDbLine
 10
1079.52672976955
 20
2008.404727593445
 30
0.0
 11
1068.201978116643
 21
2014.943076008756
 31
0.0
  0
ARC
  5
209
330
1CB
100
AcDbEntity
  8
P-SANR-FIXT
100
AcDbCircle
 10
1067.114353943096
 20
1999.982558850011
 30
0.0
 40
6.349999999999909
100
AcDbArc
 50
269.9999999999997
 51
90.0
  0
ARC
  5
20A
330
1CB
100
AcDbEntity
  8
P-SANR-FIXT
100
AcDbCircle
 10
1067.114353943096
 20
1999.982558850011
 30
0.0
 40
6.349999999999909
100
AcDbArc
 50
90.00000000000206
 51
269.9999999999997
  0
ELLIPSE
  5
20B
330
1CB
100
AcDbEntity
  8
P-SANR-FIXT
100
AcDbEllipse
 10
1067.114353943096
 20
1964.561829540958
 30
0.0
 11
19.00000000000023
 21
0.0
 31
0.0
210
0.0
220
0.0
230
1.0
 40
0.8191520442889785
 41
4.712388980384683
 42
7.853981633974482
  0
ELLIPSE
  5
20C
330
1CB
100
AcDbEntity
  8
P-SANR-FIXT
100
AcDbEllipse
 10
1067.114353943096
 20
1964.561829540958
 30
0.0
 11
19.0
 21
0.0
 31
0.0
210
0.0
220
0.0
230
1.0
 40
0.8191520442889883
 41
1.570796326794896
 42
4.712388980384683
  0
ENDBLK
  5
20E
330
1CB
100
AcDbEntity
  8
0
100
AcDbBlockEnd
  0
ENDSEC
  0
SECTION
  2
ENTITIES
  0
INSERT
  5
F6
330
71
100
AcDbEntity
  8
P-SANR-FIXT
100
AcDbBlockReference
  2
Automatic flow rate regulator valve_Caleffi_121 DN15 - 1_2__-859151-Est - Idraulica
 10
0.0
 20
0.0
 30
0.0
1001
REVIT
1002
{
1070
     1
1000
863131
1002
}
1002
{
1070
     5
1000
859151
1002
}
1002
{
1070
     2
1000
-2001160
1002
}
  0
INSERT
  5
1CA
330
71
100
AcDbEntity
  8
P-SANR-FIXT
100
AcDbBlockReference
  2
Automatic flow rate regulator valve_Caleffi_121 DN15 - 1_2__-V1-Est - Idraulica
 10
0.0
 20
0.0
 30
0.0
1001
REVIT
1002
{
1070
     1
1000
863152
1002
}
1002
{
1070
     5
1000
859151
1002
}
1002
{
1070
     2
1000
-2001160
1002
}
  0
INSERT
  5
20F
330
71
100
AcDbEntity
  8
P-SANR-FIXT
100
AcDbBlockReference
  2
Automatic flow rate regulator valve_Caleffi_121 DN15 - 1_2__-V2-Est - Idraulica
 10
0.0
 20
0.0
 30
0.0
1001
REVIT
1002
{
1070
     1
1000
863172
1002
}
1002
{
1070
     5
1000
859151
1002
}
1002
{
1070
     2
1000
-2001160
1002
}
  0
ENDSEC
  0
SECTION
  2
OBJECTS
  0
DICTIONARY
  5
C
330
0
100
AcDbDictionary
281
     1
  3
ACAD_CIP_PREVIOUS_PRODUCT_INFO
350
7A
  3
ACAD_COLOR
350
63
  3
ACAD_DETAILVIEWSTYLE
350
6B
  3
ACAD_GROUP
350
D
  3
ACAD_IMAGE_VARS
350
7B
  3
ACAD_LAYOUT
350
62
  3
ACAD_MATERIAL
350
10
  3
ACAD_MLEADERSTYLE
350
66
  3
ACAD_MLINESTYLE
350
5F
  3
ACAD_PLOTSETTINGS
350
61
  3
ACAD_PLOTSTYLENAME
350
E
  3
ACAD_SCALELIST
350
42
  3
ACAD_SECTIONVIEWSTYLE
350
68
  3
ACAD_TABLESTYLE
350
64
  3
ACAD_VISUALSTYLE
350
29
  3
ACDB_RECOMPOSE_DATA
350
219
  3
AcDbVariableDictionary
350
7C
  3
REVIT_DICTIONARY
350
211
  0
DICTIONARY
  5
215
330
71
100
AcDbDictionary
280
     1
281
     1
  3
ACAD_SORTENTS
360
216
  0
XRECORD
  5
7A
102
{ACAD_REACTORS
330
C
102
}
330
C
100
AcDbXrecord
280
     1
300
RVT
300
2013
300
RVT2013
  0
DICTIONARY
  5
63
102
{ACAD_REACTORS
330
C
102
}
330
C
100
AcDbDictionary
281
     1
  0
DICTIONARY
  5
6B
102
{ACAD_REACTORS
330
C
102
}
330
C
100
AcDbDictionary
281
     1
  3
Imperial24
350
6C
  0
DICTIONARY
  5
D
102
{ACAD_REACTORS
330
C
102
}
330
C
100
AcDbDictionary
281
     1
  0
RASTERVARIABLES
  5
7B
102
{ACAD_REACTORS
330
C
102
}
330
C
100
AcDbRasterVariables
 90
        0
 70
     0
 71
     1
 72
     1
  0
DICTIONARY
  5
62
102
{ACAD_REACTORS
330
C
102
}
330
C
100
AcDbDictionary
281
     1
  3
Layout1
350
70
  3
Layout2
350
78
  3
Model
350
74
  0
DICTIONARY
  5
10
102
{ACAD_REACTORS
330
C
102
}
330
C
100
AcDbDictionary
281
     1
  3
ByBlock
350
19
  3
ByLayer
350
11
  3
Global
350
21
  0
DICTIONARY
  5
66
102
{ACAD_REACTORS
330
C
102
}
330
C
100
AcDbDictionary
281
     1
  3
Standard
350
67
  0
DICTIONARY
  5
5F
102
{ACAD_REACTORS
330
C
102
}
330
C
100
AcDbDictionary
281
     1
  3
Standard
350
60
  0
DICTIONARY
  5
61
102
{ACAD_REACTORS
330
C
102
}
330
C
100
AcDbDictionary
281
     1
  0
ACDBDICTIONARYWDFLT
  5
E
102
{ACAD_REACTORS
330
C
102
}
330
C
100
AcDbDictionary
281
     1
  3
Normal
350
F
100
AcDbDictionaryWithDefault
340
F
  0
DICTIONARY
  5
42
102
{ACAD_REACTORS
330
C
102
}
330
C
100
AcDbDictionary
281
     1
  3
A0
350
43
  3
A1
350
44
  3
A2
350
45
  3
A3
350
46
  3
A4
350
47
  3
A5
350
48
  3
A6
350
49
  3
A7
350
4A
  3
A8
350
4B
  3
A9
350
4C
  3
B0
350
4D
  3
B1
350
4E
  3
B2
350
4F
  3
B3
350
50
  3
B4
350
51
  3
B5
350
52
  3
B6
350
53
  0
DICTIONARY
  5
68
102
{ACAD_REACTORS
330
C
102
}
330
C
100
AcDbDictionary
281
     1
  3
Imperial24
350
6A
  0
DICTIONARY
  5
64
102
{ACAD_REACTORS
330
C
102
}
330
C
100
AcDbDictionary
281
     1
  3
Standard
350
65
  0
DICTIONARY
  5
29
102
{ACAD_REACTORS
330
C
102
}
330
C
100
AcDbDictionary
281
     1
  3
2dWireframe
350
2F
  3
Basic
350
2E
  3
Brighten
350
35
  3
ColorChange
350
39
  3
Conceptual
350
32
  3
Dim
350
34
  3
EdgeColorOff
350
41
  3
Facepattern
350
38
  3
Flat
350
2A
  3
FlatWithEdges
350
2B
  3
Gouraud
350
2C
  3
GouraudWithEdges
350
2D
  3
Hidden
350
31
  3
JitterOff
350
3F
  3
Linepattern
350
37
  3
OverhangOff
350
40
  3
Realistic
350
33
  3
Shaded
350
3E
  3
Shaded with edges
350
3D
  3
Shades of Gray
350
3A
  3
Sketchy
350
3B
  3
Thicken
350
36
  3
Wireframe
350
30
  3
X-Ray
350
3C
  0
XRECORD
  5
219
102
{ACAD_REACTORS
330
C
102
}
330
C
100
AcDbXrecord
280
     1
 90
        1
330
65
  0
DICTIONARY
  5
7C
102
{ACAD_REACTORS
330
C
102
}
330
C
100
AcDbDictionary
281
     1
  3
CANNOSCALE
350
81
  3
CMLEADERSTYLE
350
7E
  3
CTABLESTYLE
350
7D
  3
CVIEWDETAILSTYLE
350
7F
  3
CVIEWSECTIONSTYLE
350
80
  0
DICTIONARY
  5
211
102
{ACAD_REACTORS
330
C
102
}
330
C
100
AcDbDictionary
281
     1
  3
DRAWING_TOOL
350
214
  3
REVIT_CATEGORY_MAPPING
350
213
  3
REVIT_TYPE_MAPPING
350
212
  0
SORTENTSTABLE
  5
216
102
{ACAD_REACTORS
330
215
102
}
330
215
100
AcDbSortentsTable
330
71
  0
ACDBDETAILVIEWSTYLE
  5
6C
102
{ACAD_REACTORS
330
6B
102
}
330
6B
100
AcDbModelDocViewStyle
 70
     0
  3
Imperial24
290
     1
100
AcDbDetailViewStyle
 70
     0
 71
     0
 90
        3
 71
     1
340
55
 62
   256
 40
0.24
340
0
 62
   256
 40
0.24
300

 40
0.36
280
     3
 71
     2
340
5D
 90
       25
 62
   256
 71
     3
340
55
 62
   256
 40
0.24
 90
        1
 40
0.75
 90
        1
300
%<\AcVar ViewType \f "%tc1">% %<\AcVar ViewDetailId>%\PSCALA %<\AcVar ViewScale \f "%sn">%
 71
     4
340
5D
 90
       25
 62
   256
340
5D
 90
       25
 62
   256
280
     0
  0
LAYOUT
  5
70
102
{ACAD_REACTORS
330
62
102
}
330
62
100
AcDbPlotSettings
  1

  2

  4

  6

 40
0.0
 41
0.0
 42
0.0
 43
0.0
 44
0.0
 45
0.0
 46
0.0
 47
0.0
 48
0.0
 49
0.0
140
0.0
141
0.0
142
1.0
143
1.0
 70
   688
 72
     0
 73
     0
 74
     5
  7

 75
    16
147
1.0
 76
     0
 77
     2
 78
   300
148
0.0
149
0.0
100
AcDbLayout
  1
Layout1
 70
     1
 71
     1
 10
0.0
 20
0.0
 11
12.0
 21
9.0
 12
0.0
 22
0.0
 32
0.0
 14
0.0
 24
0.0
 34
0.0
 15
0.0
 25
0.0
 35
0.0
146
0.0
 13
0.0
 23
0.0
 33
0.0
 16
1.0
 26
0.0
 36
0.0
 17
0.0
 27
1.0
 37
0.0
 76
     0
330
6D
  0
LAYOUT
  5
78
102
{ACAD_REACTORS
330
62
102
}
330
62
100
AcDbPlotSettings
  1

  2

  4

  6

 40
0.0
 41
0.0
 42
0.0
 43
0.0
 44
0.0
 45
0.0
 46
0.0
 47
0.0
 48
0.0
 49
0.0
140
0.0
141
0.0
142
1.0
143
1.0
 70
   688
 72
     0
 73
     0
 74
     5
  7

 75
    16
147
1.0
 76
     0
 77
     2
 78
   300
148
0.0
149
0.0
100
AcDbLayout
  1
Layout2
 70
     1
 71
     2
 10
0.0
 20
0.0
 11
12.0
 21
9.0
 12
0.0
 22
0.0
 32
0.0
 14
0.0
 24
0.0
 34
0.0
 15
0.0
 25
0.0
 35
0.0
146
0.0
 13
0.0
 23
0.0
 33
0.0
 16
1.0
 26
0.0
 36
0.0
 17
0.0
 27
1.0
 37
0.0
 76
     0
330
75
  0
LAYOUT
  5
74
102
{ACAD_REACTORS
330
62
102
}
330
62
100
AcDbPlotSettings
  1

  2

  4

  6

 40
0.0
 41
0.0
 42
0.0
 43
0.0
 44
0.0
 45
0.0
 46
0.0
 47
0.0
 48
0.0
 49
0.0
140
0.0
141
0.0
142
1.0
143
1.0
 70
  1712
 72
     0
 73
     0
 74
     0
  7

 75
     0
147
1.0
 76
     0
 77
     2
 78
   300
148
0.0
149
0.0
100
AcDbLayout
  1
Model
 70
     1
 71
     0
 10
0.0
 20
0.0
 11
12.0
 21
9.0
 12
0.0
 22
0.0
 32
0.0
 14
0.0
 24
0.0
 34
0.0
 15
0.0
 25
0.0
 35
0.0
146
0.0
 13
0.0
 23
0.0
 33
0.0
 16
1.0
 26
0.0
 36
0.0
 17
0.0
 27
1.0
 37
0.0
 76
     0
330
71
  0
MATERIAL
  5
19
102
{ACAD_XDICTIONARY
360
1A
102
}
102
{ACAD_REACTORS
330
10
102
}
330
10
100
AcDbMaterial
  1
ByBlock
 72
     0
 43
0.0208333333333333
 43
0.0
 43
0.0
 43
0.0
 43
0.0
 43
0.0208333333333333
 43
0.0
 43
0.0
 43
0.0
 43
0.0
 43
1.0
 43
0.0
 43
0.0
 43
0.0
 43
0.0
 43
1.0
 77
     0
 47
0.0208333333333333
 47
0.0
 47
0.0
 47
0.0
 47
0.0
 47
0.0208333333333333
 47
0.0
 47
0.0
 47
0.0
 47
0.0
 47
1.0
 47
0.0
 47
0.0
 47
0.0
 47
0.0
 47
1.0
171
     0
 49
0.0208333333333333
 49
0.0
 49
0.0
 49
0.0
 49
0.0
 49
0.0208333333333333
 49
0.0
 49
0.0
 49
0.0
 49
0.0
 49
1.0
 49
0.0
 49
0.0
 49
0.0
 49
0.0
 49
1.0
175
     0
142
0.0208333333333333
142
0.0
142
0.0
142
0.0
142
0.0
142
0.0208333333333333
142
0.0
142
0.0
142
0.0
142
0.0
142
1.0
142
0.0
142
0.0
142
0.0
142
0.0
142
1.0
179
     0
144
0.0208333333333333
144
0.0
144
0.0
144
0.0
144
0.0
144
0.0208333333333333
144
0.0
144
0.0
144
0.0
144
0.0
144
1.0
144
0.0
144
0.0
144
0.0
144
0.0
144
1.0
147
0.0208333333333333
147
0.0
147
0.0
147
0.0
147
0.0
147
0.0208333333333333
147
0.0
147
0.0
147
0.0
147
0.0
147
1.0
147
0.0
147
0.0
147
0.0
147
0.0
147
1.0
  0
MATERIAL
  5
11
102
{ACAD_XDICTIONARY
360
12
102
}
102
{ACAD_REACTORS
330
10
102
}
330
10
100
AcDbMaterial
  1
ByLayer
 72
     0
 43
0.0208333333333333
 43
0.0
 43
0.0
 43
0.0
 43
0.0
 43
0.0208333333333333
 43
0.0
 43
0.0
 43
0.0
 43
0.0
 43
1.0
 43
0.0
 43
0.0
 43
0.0
 43
0.0
 43
1.0
 77
     0
 47
0.0208333333333333
 47
0.0
 47
0.0
 47
0.0
 47
0.0
 47
0.0208333333333333
 47
0.0
 47
0.0
 47
0.0
 47
0.0
 47
1.0
 47
0.0
 47
0.0
 47
0.0
 47
0.0
 47
1.0
171
     0
 49
0.0208333333333333
 49
0.0
 49
0.0
 49
0.0
 49
0.0
 49
0.0208333333333333
 49
0.0
 49
0.0
 49
0.0
 49
0.0
 49
1.0
 49
0.0
 49
0.0
 49
0.0
 49
0.0
 49
1.0
175
     0
142
0.0208333333333333
142
0.0
142
0.0
142
0.0
142
0.0
142
0.0208333333333333
142
0.0
142
0.0
142
0.0
142
0.0
142
1.0
142
0.0
142
0.0
142
0.0
142
0.0
142
1.0
179
     0
144
0.0208333333333333
144
0.0
144
0.0
144
0.0
144
0.0
144
0.0208333333333333
144
0.0
144
0.0
144
0.0
144
0.0
144
1.0
144
0.0
144
0.0
144
0.0
144
0.0
144
1.0
147
0.0208333333333333
147
0.0
147
0.0
147
0.0
147
0.0
147
0.0208333333333333
147
0.0
147
0.0
147
0.0
147
0.0
147
1.0
147
0.0
147
0.0
147
0.0
147
0.0
147
1.0
  0
MATERIAL
  5
21
102
{ACAD_XDICTIONARY
360
22
102
}
102
{ACAD_REACTORS
330
10
102
}
330
10
100
AcDbMaterial
  1
Global
 72
     0
 43
0.0208333333333333
 43
0.0
 43
0.0
 43
0.0
 43
0.0
 43
0.0208333333333333
 43
0.0
 43
0.0
 43
0.0
 43
0.0
 43
1.0
 43
0.0
 43
0.0
 43
0.0
 43
0.0
 43
1.0
 77
     0
 47
0.0208333333333333
 47
0.0
 47
0.0
 47
0.0
 47
0.0
 47
0.0208333333333333
 47
0.0
 47
0.0
 47
0.0
 47
0.0
 47
1.0
 47
0.0
 47
0.0
 47
0.0
 47
0.0
 47
1.0
171
     0
 49
0.0208333333333333
 49
0.0
 49
0.0
 49
0.0
 49
0.0
 49
0.0208333333333333
 49
0.0
 49
0.0
 49
0.0
 49
0.0
 49
1.0
 49
0.0
 49
0.0
 49
0.0
 49
0.0
 49
1.0
175
     0
142
0.0208333333333333
142
0.0
142
0.0
142
0.0
142
0.0
142
0.0208333333333333
142
0.0
142
0.0
142
0.0
142
0.0
142
1.0
142
0.0
142
0.0
142
0.0
142
0.0
142
1.0
179
     0
144
0.0208333333333333
144
0.0
144
0.0
144
0.0
144
0.0
144
0.0208333333333333
144
0.0
144
0.0
144
0.0
144
0.0
144
1.0
144
0.0
144
0.0
144
0.0
144
0.0
144
1.0
147
0.0208333333333333
147
0.0
147
0.0
147
0.0
147
0.0
147
0.0208333333333333
147
0.0
147
0.0
147
0.0
147
0.0
147
1.0
147
0.0
147
0.0
147
0.0
147
0.0
147
1.0
  0
MLEADERSTYLE
  5
67
102
{ACAD_REACTORS
330
66
102
}
330
66
100
AcDbMLeaderStyle
179
     2
170
     2
171
     1
172
     0
 90
        2
 40
0.0
 41
0.0
173
     1
 91
-1056964608
340
5B
 92
       -2
290
     1
 42
0.09
291
     1
 43
0.36
  3
Standard
 44
0.18
300

342
55
174
     1
178
     6
175
     1
176
     0
 93
-1056964608
 45
0.18
292
     0
297
     0
 46
0.18
 94
-1056964608
 47
1.0
 49
1.0
140
1.0
293
     1
141
0.0
294
     1
177
     0
142
1.0
295
     1
296
     0
143
0.125
271
     0
272
     9
273
     9
298
     1
  0
MLINESTYLE
  5
60
102
{ACAD_REACTORS
330
5F
102
}
330
5F
100
AcDbMlineStyle
  2
STANDARD
 70
     0
  3

 62
   256
 51
90.0
 52
90.0
 71
     2
 49
0.5
 62
   256
  6
BYLAYER
 49
-0.5
 62
   256
  6
BYLAYER
  0
ACDBPLACEHOLDER
  5
F
102
{ACAD_REACTORS
330
E
102
}
330
E
  0
SCALE
  5
43
102
{ACAD_REACTORS
330
42
102
}
330
42
100
AcDbScale
 70
     0
300
1:1
140
1.0
141
1.0
290
     1
  0
SCALE
  5
44
102
{ACAD_REACTORS
330
42
102
}
330
42
100
AcDbScale
 70
     0
300
1/128" = 1'-0"
140
0.0078125
141
12.0
290
     0
  0
SCALE
  5
45
102
{ACAD_REACTORS
330
42
102
}
330
42
100
AcDbScale
 70
     0
300
1/64" = 1'-0"
140
0.015625
141
12.0
290
     0
  0
SCALE
  5
46
102
{ACAD_REACTORS
330
42
102
}
330
42
100
AcDbScale
 70
     0
300
1/32" = 1'-0"
140
0.03125
141
12.0
290
     0
  0
SCALE
  5
47
102
{ACAD_REACTORS
330
42
102
}
330
42
100
AcDbScale
 70
     0
300
1/16" = 1'-0"
140
0.0625
141
12.0
290
     0
  0
SCALE
  5
48
102
{ACAD_REACTORS
330
42
102
}
330
42
100
AcDbScale
 70
     0
300
3/32" = 1'-0"
140
0.09375
141
12.0
290
     0
  0
SCALE
  5
49
102
{ACAD_REACTORS
330
42
102
}
330
42
100
AcDbScale
 70
     0
300
1/8" = 1'-0"
140
0.125
141
12.0
290
     0
  0
SCALE
  5
4A
102
{ACAD_REACTORS
330
42
102
}
330
42
100
AcDbScale
 70
     0
300
3/16" = 1'-0"
140
0.1875
141
12.0
290
     0
  0
SCALE
  5
4B
102
{ACAD_REACTORS
330
42
102
}
330
42
100
AcDbScale
 70
     0
300
1/4" = 1'-0"
140
0.25
141
12.0
290
     0
  0
SCALE
  5
4C
102
{ACAD_REACTORS
330
42
102
}
330
42
100
AcDbScale
 70
     0
300
3/8" = 1'-0"
140
0.375
141
12.0
290
     0
  0
SCALE
  5
4D
102
{ACAD_REACTORS
330
42
102
}
330
42
100
AcDbScale
 70
     0
300
1/2" = 1'-0"
140
0.5
141
12.0
290
     0
  0
SCALE
  5
4E
102
{ACAD_REACTORS
330
42
102
}
330
42
100
AcDbScale
 70
     0
300
3/4" = 1'-0"
140
0.75
141
12.0
290
     0
  0
SCALE
  5
4F
102
{ACAD_REACTORS
330
42
102
}
330
42
100
AcDbScale
 70
     0
300
1" = 1'-0"
140
1.0
141
12.0
290
     0
  0
SCALE
  5
50
102
{ACAD_REACTORS
330
42
102
}
330
42
100
AcDbScale
 70
     0
300
1-1/2" = 1'-0"
140
1.5
141
12.0
290
     0
  0
SCALE
  5
51
102
{ACAD_REACTORS
330
42
102
}
330
42
100
AcDbScale
 70
     0
300
3" = 1'-0"
140
3.0
141
12.0
290
     0
  0
SCALE
  5
52
102
{ACAD_REACTORS
330
42
102
}
330
42
100
AcDbScale
 70
     0
300
6" = 1'-0"
140
6.0
141
12.0
290
     0
  0
SCALE
  5
53
102
{ACAD_REACTORS
330
42
102
}
330
42
100
AcDbScale
 70
     0
300
1'-0" = 1'-0"
140
12.0
141
12.0
290
     0
  0
ACDBSECTIONVIEWSTYLE
  5
6A
102
{ACAD_REACTORS
330
68
102
}
330
68
100
AcDbModelDocViewStyle
 70
     0
  3
Imperial24
290
     1
100
AcDbSectionViewStyle
 70
     0
 71
     0
 90
       78
 71
     1
340
55
 62
   256
 40
0.24
340
0
340
0
 62
   256
 40
0.24
300
I, O, Q, S, X, Z
 40
0.48
 90
        3
 40
0.18
 90
        1
 71
     2
340
69
 90
       25
 62
   256
340
5D
 90
       50
 62
   256
 40
0.24
 40
0.0
 40
0.24
 71
     3
340
55
 62
   256
 40
0.24
 90
        1
 40
0.75
 90
        1
300
%<\AcVar ViewType \f "%tc1">% %<\AcVar ViewSectionStartId>%-%<\AcVar ViewSectionEndId>%\PSCALA %<\AcVar ViewScale \f "%sn">%
 71
     4
 62
   256
 62
   257
300
ANSI31
 40
1.0
 90
        0
290
     0
290
     0
 90
        6
 40
0.0
 40
1.570796326794896
 40
0.2617993877991494
 40
1.308996938995747
 40
-0.2617993877991494
 40
1.832595714594046
  0
TABLESTYLE
  5
65
102
{ACAD_XDICTIONARY
360
217
102
}
102
{ACAD_REACTORS
330
64
102
}
330
64
100
AcDbTableStyle
280
     0
  3
Standard
 70
     0
 71
     0
 40
0.06
 41
0.06
280
     0
281
     0
  7
Standard
140
0.18
170
     2
 62
     0
 63
     7
283
     0
 90
      512
 91
        0
  1

274
    -2
284
     1
 64
     0
275
    -2
285
     1
 65
     0
276
    -2
286
     1
 66
     0
277
    -2
287
     1
 67
     0
278
    -2
288
     1
 68
     0
279
    -2
289
     1
 69
     0
  7
Standard
140
0.25
170
     5
 62
     0
 63
     7
283
     0
 90
      512
 91
        0
  1

274
    -2
284
     1
 64
     0
275
    -2
285
     1
 65
     0
276
    -2
286
     1
 66
     0
277
    -2
287
     1
 67
     0
278
    -2
288
     1
 68
     0
279
    -2
289
     1
 69
     0
  7
Standard
140
0.18
170
     5
 62
     0
 63
     7
283
     0
 90
      512
 91
        0
  1

274
    -2
284
     1
 64
     0
275
    -2
285
     1
 65
     0
276
    -2
286
     1
 66
     0
277
    -2
287
     1
 67
     0
278
    -2
288
     1
 68
     0
279
    -2
289
     1
 69
     0
  0
VISUALSTYLE
  5
2F
102
{ACAD_REACTORS
330
29
102
}
330
29
100
AcDbVisualStyle
  2
2dWireframe
 70
     4
177
     3
291
     0
 70
    58
 90
        0
176
     1
 90
        2
176
     1
 90
        0
176
     1
 90
        0
176
     1
 40
0.6
176
     1
 40
30.0
176
     1
 62
     7
420
 16777215
176
     1
 90
        1
176
     1
 90
        4
176
     1
 62
     7
176
     1
 62
   257
176
     1
 90
        1
176
     1
 90
        1
176
     1
 40
1.0
176
     1
 90
        0
176
     1
 62
   257
176
     1
 40
1.0
176
     1
 90
        1
176
     1
 90
        6
176
     1
 90
        2
176
     1
 62
     7
176
     1
 90
        5
176
     1
 90
        0
176
     1
 90
        0
176
     1
290
     0
176
     1
 90
        1
176
     1
 40
0.0
176
     1
 90
        0
176
     1
290
     1
176
     1
290
     1
176
     1
290
     0
176
     1
290
     0
176
     1
290
     0
176
     1
290
     0
176
     1
290
     0
176
     1
290
     0
176
     1
290
     0
176
     1
 90
       50
176
     1
 40
0.0
176
     1
 40
1.0
176
     1
 90
        0
176
     1
 62
    18
420
        0
176
     1
 90
       50
176
     1
 90
        3
176
     1
 62
     5
420
      255
176
     1
290
     0
176
     1
 90
       50
176
     1
 90
       50
176
     1
 90
       50
176
     1
290
     0
176
     1
 90
       50
176
     1
 62
   256
176
     0
 40
1.0
176
     0
 90
        2
176
     1
  1
strokes_ogs.tif
176
     1
290
     0
176
     1
 40
1.0
176
     1
 40
1.0
176
     1
  0
VISUALSTYLE
  5
2E
102
{ACAD_REACTORS
330
29
102
}
330
29
100
AcDbVisualStyle
  2
Basic
 70
     7
177
     3
291
     1
 70
    58
 90
        1
176
     1
 90
        0
176
     1
 90
        1
176
     1
 90
        0
176
     1
 40
0.6
176
     1
 40
30.0
176
     1
 62
     7
420
 16777215
176
     1
 90
        0
176
     1
 90
        4
176
     1
 62
     7
176
     1
 62
   257
176
     1
 90
        1
176
     1
 90
        1
176
     1
 40
1.0
176
     1
 90
        8
176
     1
 62
     7
176
     1
 40
1.0
176
     1
 90
        1
176
     1
 90
        6
176
     1
 90
        2
176
     1
 62
     7
176
     1
 90
        5
176
     1
 90
        0
176
     1
 90
        0
176
     1
290
     0
176
     1
 90
        1
176
     1
 40
0.0
176
     1
 90
        0
176
     1
290
     0
176
     1
290
     1
176
     1
290
     1
176
     1
290
     0
176
     1
290
     0
176
     1
290
     0
176
     1
290
     0
176
     1
290
     0
176
     1
290
     0
176
     1
 90
       50
176
     1
 40
0.0
176
     1
 40
1.0
176
     1
 90
        0
176
     1
 62
    18
420
        0
176
     1
 90
       50
176
     1
 90
        3
176
     1
 62
     5
420
      255
176
     1
290
     0
176
     1
 90
       50
176
     1
 90
       50
176
     1
 90
       50
176
     1
290
     0
176
     1
 90
       50
176
     1
 62
   256
176
     0
 40
1.0
176
     0
 90
        2
176
     1
  1
strokes_ogs.tif
176
     1
290
     0
176
     1
 40
1.0
176
     1
 40
1.0
176
     1
  0
VISUALSTYLE
  5
35
102
{ACAD_REACTORS
330
29
102
}
330
29
100
AcDbVisualStyle
  2
Brighten
 70
    12
177
     3
291
     1
 70
    58
 90
        2
176
     1
 90
        2
176
     1
 90
        0
176
     1
 90
        0
176
     1
 40
0.6
176
     1
 40
30.0
176
     1
 62
     7
420
 16777215
176
     1
 90
        1
176
     1
 90
        4
176
     1
 62
     7
176
     1
 62
   257
176
     1
 90
        1
176
     1
 90
        1
176
     1
 40
1.0
176
     1
 90
        8
176
     1
 62
     7
176
     1
 40
1.0
176
     1
 90
        1
176
     1
 90
        6
176
     1
 90
        2
176
     1
 62
     7
176
     1
 90
        5
176
     1
 90
        0
176
     1
 90
        0
176
     1
290
     0
176
     1
 90
        1
176
     1
 40
50.0
176
     1
 90
        0
176
     1
290
     0
176
     1
290
     1
176
     1
290
     1
176
     1
290
     0
176
     1
290
     0
176
     1
290
     0
176
     1
290
     0
176
     1
290
     0
176
     1
290
     0
176
     1
 90
       50
176
     1
 40
0.0
176
     1
 40
1.0
176
     1
 90
        0
176
     1
 62
    18
420
        0
176
     1
 90
       50
176
     1
 90
        3
176
     1
 62
     5
420
      255
176
     1
290
     0
176
     1
 90
       50
176
     1
 90
       50
176
     1
 90
       50
176
     1
290
     0
176
     1
 90
       50
176
     1
 62
   256
176
     0
 40
1.0
176
     0
 90
        2
176
     1
  1
strokes_ogs.tif
176
     1
290
     0
176
     1
 40
1.0
176
     1
 40
1.0
176
     1
  0
VISUALSTYLE
  5
39
102
{ACAD_REACTORS
330
29
102
}
330
29
100
AcDbVisualStyle
  2
ColorChange
 70
    16
177
     3
291
     1
 70
    58
 90
        2
176
     1
 90
        2
176
     1
 90
        3
176
     1
 90
        0
176
     1
 40
0.6
176
     1
 40
30.0
176
     1
 62
     8
420
  8421504
176
     1
 90
        1
176
     1
 90
        4
176
     1
 62
     7
176
     1
 62
   257
176
     1
 90
        1
176
     1
 90
        1
176
     1
 40
1.0
176
     1
 90
        8
176
     1
 62
     8
420
  8421504
176
     1
 40
1.0
176
     1
 90
        1
176
     1
 90
        6
176
     1
 90
        2
176
     1
 62
     7
176
     1
 90
        5
176
     1
 90
        0
176
     1
 90
        0
176
     1
290
     0
176
     1
 90
        1
176
     1
 40
0.0
176
     1
 90
        0
176
     1
290
     0
176
     1
290
     1
176
     1
290
     1
176
     1
290
     0
176
     1
290
     0
176
     1
290
     0
176
     1
290
     0
176
     1
290
     0
176
     1
290
     0
176
     1
 90
       50
176
     1
 40
0.0
176
     1
 40
1.0
176
     1
 90
        0
176
     1
 62
    18
420
        0
176
     1
 90
       50
176
     1
 90
        3
176
     1
 62
     5
420
      255
176
     1
290
     0
176
     1
 90
       50
176
     1
 90
       50
176
     1
 90
       50
176
     1
290
     0
176
     1
 90
       50
176
     1
 62
   256
176
     0
 40
1.0
176
     0
 90
        2
176
     1
  1
strokes_ogs.tif
176
     1
290
     0
176
     1
 40
1.0
176
     1
 40
1.0
176
     1
  0
VISUALSTYLE
  5
32
102
{ACAD_REACTORS
330
29
102
}
330
29
100
AcDbVisualStyle
  2
Conceptual
 70
     9
177
     3
291
     0
 70
    58
 90
        3
176
     1
 90
        2
176
     1
 90
        0
176
     1
 90
        0
176
     1
 40
0.6
176
     1
 40
30.0
176
     1
 62
     7
420
 16777215
176
     1
 90
        2
176
     1
 90
        2
176
     1
 62
     7
176
     1
 62
   257
176
     1
 90
        1
176
     1
 90
        1
176
     1
 40
179.0
176
     1
 90
        8
176
     1
 62
     7
176
     1
 40
1.0
176
     1
 90
        1
176
     1
 90
        6
176
     1
 90
        2
176
     1
 62
     7
176
     1
 90
        3
176
     1
 90
        0
176
     1
 90
        0
176
     1
290
     0
176
     1
 90
        1
176
     1
 40
0.0
176
     1
 90
        0
176
     1
290
     0
176
     1
290
     1
176
     1
290
     1
176
     1
290
     0
176
     1
290
     0
176
     1
290
     0
176
     1
290
     0
176
     1
290
     0
176
     1
290
     0
176
     1
 90
       50
176
     1
 40
0.0
176
     1
 40
1.0
176
     1
 90
        0
176
     1
 62
    18
420
        0
176
     1
 90
       50
176
     1
 90
        3
176
     1
 62
     5
420
      255
176
     1
290
     0
176
     1
 90
       50
176
     1
 90
       50
176
     1
 90
       50
176
     1
290
     0
176
     1
 90
       50
176
     1
 62
   256
176
     0
 40
1.0
176
     0
 90
        2
176
     1
  1
strokes_ogs.tif
176
     1
290
     0
176
     1
 40
1.0
176
     1
 40
1.0
176
     1
  0
VISUALSTYLE
  5
34
102
{ACAD_REACTORS
330
29
102
}
330
29
100
AcDbVisualStyle
  2
Dim
 70
    11
177
     3
291
     1
 70
    58
 90
        2
176
     1
 90
        2
176
     1
 90
        0
176
     1
 90
        0
176
     1
 40
0.6
176
     1
 40
30.0
176
     1
 62
     7
420
 16777215
176
     1
 90
        1
176
     1
 90
        4
176
     1
 62
     7
176
     1
 62
   257
176
     1
 90
        1
176
     1
 90
        1
176
     1
 40
1.0
176
     1
 90
        8
176
     1
 62
     7
176
     1
 40
1.0
176
     1
 90
        1
176
     1
 90
        6
176
     1
 90
        2
176
     1
 62
     7
176
     1
 90
        5
176
     1
 90
        0
176
     1
 90
        0
176
     1
290
     0
176
     1
 90
        1
176
     1
 40
-50.0
176
     1
 90
        0
176
     1
290
     0
176
     1
290
     1
176
     1
290
     1
176
     1
290
     0
176
     1
290
     0
176
     1
290
     0
176
     1
290
     0
176
     1
290
     0
176
     1
290
     0
176
     1
 90
       50
176
     1
 40
0.0
176
     1
 40
1.0
176
     1
 90
        0
176
     1
 62
    18
420
        0
176
     1
 90
       50
176
     1
 90
        3
176
     1
 62
     5
420
      255
176
     1
290
     0
176
     1
 90
       50
176
     1
 90
       50
176
     1
 90
       50
176
     1
290
     0
176
     1
 90
       50
176
     1
 62
   256
176
     0
 40
1.0
176
     0
 90
        2
176
     1
  1
strokes_ogs.tif
176
     1
290
     0
176
     1
 40
1.0
176
     1
 40
1.0
176
     1
  0
VISUALSTYLE
  5
41
102
{ACAD_REACTORS
330
29
102
}
330
29
100
AcDbVisualStyle
  2
EdgeColorOff
 70
    22
177
     3
291
     1
 70
    58
 90
        2
176
     0
 90
        2
176
     0
 90
        0
176
     0
 90
        0
176
     0
 40
0.6
176
     0
 40
30.0
176
     0
 62
     7
420
 16777215
176
     0
 90
        1
176
     0
 90
        4
176
     0
 62
     7
176
     0
 62
   257
176
     0
 90
        1
176
     0
 90
        1
176
     0
 40
1.0
176
     0
 90
        8
176
     2
 62
     7
176
     0
 40
1.0
176
     0
 90
        1
176
     0
 90
        6
176
     0
 90
        2
176
     0
 62
     7
176
     0
 90
        5
176
     0
 90
        0
176
     0
 90
        0
176
     0
290
     0
176
     0
 90
        1
176
     0
 40
0.0
176
     0
 90
        0
176
     0
290
     0
176
     0
290
     1
176
     0
290
     1
176
     0
290
     0
176
     0
290
     0
176
     0
290
     0
176
     0
290
     0
176
     0
290
     0
176
     0
290
     0
176
     0
 90
       50
176
     0
 40
0.0
176
     0
 40
1.0
176
     0
 90
        0
176
     0
 62
    18
420
        0
176
     0
 90
       50
176
     0
 90
        3
176
     0
 62
     5
420
      255
176
     0
290
     0
176
     0
 90
       50
176
     0
 90
       50
176
     0
 90
       50
176
     0
290
     0
176
     0
 90
       50
176
     0
 62
   256
176
     0
 40
1.0
176
     0
 90
        2
176
     0
  1
strokes_ogs.tif
176
     0
290
     0
176
     0
 40
1.0
176
     0
 40
1.0
176
     0
  0
VISUALSTYLE
  5
38
102
{ACAD_REACTORS
330
29
102
}
330
29
100
AcDbVisualStyle
  2
Facepattern
 70
    15
177
     3
291
     1
 70
    58
 90
        2
176
     1
 90
        2
176
     1
 90
        0
176
     1
 90
        0
176
     1
 40
0.6
176
     1
 40
30.0
176
     1
 62
     7
420
 16777215
176
     1
 90
        1
176
     1
 90
        4
176
     1
 62
     7
176
     1
 62
   257
176
     1
 90
        1
176
     1
 90
        1
176
     1
 40
1.0
176
     1
 90
        8
176
     1
 62
     7
176
     1
 40
1.0
176
     1
 90
        1
176
     1
 90
        6
176
     1
 90
        2
176
     1
 62
     7
176
     1
 90
        5
176
     1
 90
        0
176
     1
 90
        0
176
     1
290
     0
176
     1
 90
        1
176
     1
 40
0.0
176
     1
 90
        0
176
     1
290
     0
176
     1
290
     1
176
     1
290
     1
176
     1
290
     0
176
     1
290
     0
176
     1
290
     0
176
     1
290
     0
176
     1
290
     0
176
     1
290
     0
176
     1
 90
       50
176
     1
 40
0.0
176
     1
 40
1.0
176
     1
 90
        0
176
     1
 62
    18
420
        0
176
     1
 90
       50
176
     1
 90
        3
176
     1
 62
     5
420
      255
176
     1
290
     0
176
     1
 90
       50
176
     1
 90
       50
176
     1
 90
       50
176
     1
290
     0
176
     1
 90
       50
176
     1
 62
   256
176
     0
 40
1.0
176
     0
 90
        2
176
     1
  1
strokes_ogs.tif
176
     1
290
     0
176
     1
 40
1.0
176
     1
 40
1.0
176
     1
  0
VISUALSTYLE
  5
2A
102
{ACAD_REACTORS
330
29
102
}
330
29
100
AcDbVisualStyle
  2
Flat
 70
     0
177
     3
291
     1
 70
    58
 90
        2
176
     1
 90
        1
176
     1
 90
        1
176
     1
 90
        2
176
     1
 40
0.6
176
     1
 40
30.0
176
     1
 62
     7
420
 16777215
176
     1
 90
        0
176
     1
 90
        0
176
     1
 62
     7
176
     1
 62
   257
176
     1
 90
        1
176
     1
 90
        1
176
     1
 40
1.0
176
     1
 90
        8
176
     1
 62
     7
176
     1
 40
1.0
176
     1
 90
        1
176
     1
 90
        6
176
     1
 90
        2
176
     1
 62
     7
176
     1
 90
        5
176
     1
 90
        0
176
     1
 90
        0
176
     1
290
     0
176
     1
 90
       13
176
     1
 40
0.0
176
     1
 90
        0
176
     1
290
     0
176
     1
290
     1
176
     1
290
     1
176
     1
290
     0
176
     1
290
     0
176
     1
290
     0
176
     1
290
     0
176
     1
290
     0
176
     1
290
     0
176
     1
 90
       50
176
     1
 40
0.0
176
     1
 40
1.0
176
     1
 90
        0
176
     1
 62
    18
420
        0
176
     1
 90
       50
176
     1
 90
        3
176
     1
 62
     5
420
      255
176
     1
290
     0
176
     1
 90
       50
176
     1
 90
       50
176
     1
 90
       50
176
     1
290
     0
176
     1
 90
       50
176
     1
 62
   256
176
     0
 40
1.0
176
     0
 90
        2
176
     1
  1
strokes_ogs.tif
176
     1
290
     0
176
     1
 40
1.0
176
     1
 40
1.0
176
     1
  0
VISUALSTYLE
  5
2B
102
{ACAD_REACTORS
330
29
102
}
330
29
100
AcDbVisualStyle
  2
FlatWithEdges
 70
     1
177
     3
291
     1
 70
    58
 90
        2
176
     1
 90
        1
176
     1
 90
        1
176
     1
 90
        2
176
     1
 40
0.6
176
     1
 40
30.0
176
     1
 62
     7
420
 16777215
176
     1
 90
        1
176
     1
 90
        0
176
     1
 62
     7
176
     1
 62
   257
176
     1
 90
        1
176
     1
 90
        1
176
     1
 40
1.0
176
     1
 90
        0
176
     1
 62
   257
176
     1
 40
1.0
176
     1
 90
        1
176
     1
 90
        6
176
     1
 90
        2
176
     1
 62
     7
176
     1
 90
        5
176
     1
 90
        0
176
     1
 90
        0
176
     1
290
     0
176
     1
 90
       13
176
     1
 40
0.0
176
     1
 90
        0
176
     1
290
     0
176
     1
290
     1
176
     1
290
     1
176
     1
290
     0
176
     1
290
     0
176
     1
290
     0
176
     1
290
     0
176
     1
290
     0
176
     1
290
     0
176
     1
 90
       50
176
     1
 40
0.0
176
     1
 40
1.0
176
     1
 90
        0
176
     1
 62
    18
420
        0
176
     1
 90
       50
176
     1
 90
        3
176
     1
 62
     5
420
      255
176
     1
290
     0
176
     1
 90
       50
176
     1
 90
       50
176
     1
 90
       50
176
     1
290
     0
176
     1
 90
       50
176
     1
 62
   256
176
     0
 40
1.0
176
     0
 90
        2
176
     1
  1
strokes_ogs.tif
176
     1
290
     0
176
     1
 40
1.0
176
     1
 40
1.0
176
     1
  0
VISUALSTYLE
  5
2C
102
{ACAD_REACTORS
330
29
102
}
330
29
100
AcDbVisualStyle
  2
Gouraud
 70
     2
177
     3
291
     1
 70
    58
 90
        2
176
     1
 90
        2
176
     1
 90
        1
176
     1
 90
        2
176
     1
 40
0.6
176
     1
 40
30.0
176
     1
 62
     7
420
 16777215
176
     1
 90
        0
176
     1
 90
        0
176
     1
 62
     7
176
     1
 62
   257
176
     1
 90
        1
176
     1
 90
        1
176
     1
 40
1.0
176
     1
 90
        0
176
     1
 62
     7
176
     1
 40
1.0
176
     1
 90
        1
176
     1
 90
        6
176
     1
 90
        2
176
     1
 62
     7
176
     1
 90
        5
176
     1
 90
        0
176
     1
 90
        0
176
     1
290
     0
176
     1
 90
       13
176
     1
 40
0.0
176
     1
 90
        0
176
     1
290
     0
176
     1
290
     1
176
     1
290
     1
176
     1
290
     0
176
     1
290
     0
176
     1
290
     0
176
     1
290
     0
176
     1
290
     0
176
     1
290
     0
176
     1
 90
       50
176
     1
 40
0.0
176
     1
 40
1.0
176
     1
 90
        0
176
     1
 62
    18
420
        0
176
     1
 90
       50
176
     1
 90
        3
176
     1
 62
     5
420
      255
176
     1
290
     0
176
     1
 90
       50
176
     1
 90
       50
176
     1
 90
       50
176
     1
290
     0
176
     1
 90
       50
176
     1
 62
   256
176
     0
 40
1.0
176
     0
 90
        2
176
     1
  1
strokes_ogs.tif
176
     1
290
     0
176
     1
 40
1.0
176
     1
 40
1.0
176
     1
  0
VISUALSTYLE
  5
2D
102
{ACAD_REACTORS
330
29
102
}
330
29
100
AcDbVisualStyle
  2
GouraudWithEdges
 70
     3
177
     3
291
     1
 70
    58
 90
        2
176
     1
 90
        2
176
     1
 90
        1
176
     1
 90
        2
176
     1
 40
0.6
176
     1
 40
30.0
176
     1
 62
     7
420
 16777215
176
     1
 90
        1
176
     1
 90
        0
176
     1
 62
     7
176
     1
 62
   257
176
     1
 90
        1
176
     1
 90
        1
176
     1
 40
1.0
176
     1
 90
        0
176
     1
 62
   257
176
     1
 40
1.0
176
     1
 90
        1
176
     1
 90
        6
176
     1
 90
        2
176
     1
 62
     7
176
     1
 90
        5
176
     1
 90
        0
176
     1
 90
        0
176
     1
290
     0
176
     1
 90
       13
176
     1
 40
0.0
176
     1
 90
        0
176
     1
290
     0
176
     1
290
     1
176
     1
290
     1
176
     1
290
     0
176
     1
290
     0
176
     1
290
     0
176
     1
290
     0
176
     1
290
     0
176
     1
290
     0
176
     1
 90
       50
176
     1
 40
0.0
176
     1
 40
1.0
176
     1
 90
        0
176
     1
 62
    18
420
        0
176
     1
 90
       50
176
     1
 90
        3
176
     1
 62
     5
420
      255
176
     1
290
     0
176
     1
 90
       50
176
     1
 90
       50
176
     1
 90
       50
176
     1
290
     0
176
     1
 90
       50
176
     1
 62
   256
176
     0
 40
1.0
176
     0
 90
        2
176
     1
  1
strokes_ogs.tif
176
     1
290
     0
176
     1
 40
1.0
176
     1
 40
1.0
176
     1
  0
VISUALSTYLE
  5
31
102
{ACAD_REACTORS
330
29
102
}
330
29
100
AcDbVisualStyle
  2
Hidden
 70
     6
177
     3
291
     0
 70
    58
 90
        1
176
     1
 90
        2
176
     1
 90
        2
176
     1
 90
        0
176
     1
 40
0.6
176
     1
 40
30.0
176
     1
 62
     7
420
 16777215
176
     1
 90
        2
176
     1
 90
        2
176
     1
 62
     7
176
     1
 62
   257
176
     1
 90
        2
176
     1
 90
        1
176
     1
 40
40.0
176
     1
 90
        0
176
     1
 62
   257
176
     1
 40
1.0
176
     1
 90
        1
176
     1
 90
        6
176
     1
 90
        2
176
     1
 62
     7
176
     1
 90
        3
176
     1
 90
        0
176
     1
 90
        0
176
     1
290
     0
176
     1
 90
        1
176
     1
 40
0.0
176
     1
 90
        0
176
     1
290
     0
176
     1
290
     1
176
     1
290
     1
176
     1
290
     0
176
     1
290
     0
176
     1
290
     0
176
     1
290
     0
176
     1
290
     0
176
     1
290
     0
176
     1
 90
       50
176
     1
 40
0.0
176
     1
 40
1.0
176
     1
 90
        0
176
     1
 62
    18
420
        0
176
     1
 90
       50
176
     1
 90
        3
176
     1
 62
     5
420
      255
176
     1
290
     0
176
     1
 90
       50
176
     1
 90
       50
176
     1
 90
       50
176
     1
290
     0
176
     1
 90
       50
176
     1
 62
   256
176
     0
 40
1.0
176
     0
 90
        2
176
     1
  1
strokes_ogs.tif
176
     1
290
     0
176
     1
 40
1.0
176
     1
 40
1.0
176
     1
  0
VISUALSTYLE
  5
3F
102
{ACAD_REACTORS
330
29
102
}
330
29
100
AcDbVisualStyle
  2
JitterOff
 70
    20
177
     3
291
     1
 70
    58
 90
        2
176
     0
 90
        2
176
     0
 90
        0
176
     0
 90
        0
176
     0
 40
0.6
176
     0
 40
30.0
176
     0
 62
     7
420
 16777215
176
     0
 90
        1
176
     0
 90
        4
176
     0
 62
     7
176
     0
 62
   257
176
     0
 90
        1
176
     0
 90
        1
176
     0
 40
1.0
176
     0
 90
       10
176
     2
 62
     7
176
     0
 40
1.0
176
     0
 90
        1
176
     0
 90
        6
176
     0
 90
        2
176
     0
 62
     7
176
     0
 90
        5
176
     0
 90
        0
176
     0
 90
        0
176
     0
290
     0
176
     0
 90
        1
176
     0
 40
0.0
176
     0
 90
        0
176
     0
290
     0
176
     0
290
     1
176
     0
290
     1
176
     0
290
     0
176
     0
290
     0
176
     0
290
     0
176
     0
290
     0
176
     0
290
     0
176
     0
290
     0
176
     0
 90
       50
176
     0
 40
0.0
176
     0
 40
1.0
176
     0
 90
        0
176
     0
 62
    18
420
        0
176
     0
 90
       50
176
     0
 90
        3
176
     0
 62
     5
420
      255
176
     0
290
     0
176
     0
 90
       50
176
     0
 90
       50
176
     0
 90
       50
176
     0
290
     0
176
     0
 90
       50
176
     0
 62
   256
176
     0
 40
1.0
176
     0
 90
        2
176
     0
  1
strokes_ogs.tif
176
     0
290
     0
176
     0
 40
1.0
176
     0
 40
1.0
176
     0
  0
VISUALSTYLE
  5
37
102
{ACAD_REACTORS
330
29
102
}
330
29
100
AcDbVisualStyle
  2
Linepattern
 70
    14
177
     3
291
     1
 70
    58
 90
        2
176
     1
 90
        2
176
     1
 90
        0
176
     1
 90
        0
176
     1
 40
0.6
176
     1
 40
30.0
176
     1
 62
     7
420
 16777215
176
     1
 90
        1
176
     1
 90
        4
176
     1
 62
     7
176
     1
 62
   257
176
     1
 90
        7
176
     1
 90
        7
176
     1
 40
1.0
176
     1
 90
        8
176
     1
 62
     7
176
     1
 40
1.0
176
     1
 90
        1
176
     1
 90
        6
176
     1
 90
        2
176
     1
 62
     7
176
     1
 90
        5
176
     1
 90
        0
176
     1
 90
        0
176
     1
290
     0
176
     1
 90
        1
176
     1
 40
0.0
176
     1
 90
        0
176
     1
290
     0
176
     1
290
     1
176
     1
290
     1
176
     1
290
     0
176
     1
290
     0
176
     1
290
     0
176
     1
290
     0
176
     1
290
     0
176
     1
290
     0
176
     1
 90
       50
176
     1
 40
0.0
176
     1
 40
1.0
176
     1
 90
        0
176
     1
 62
    18
420
        0
176
     1
 90
       50
176
     1
 90
        3
176
     1
 62
     5
420
      255
176
     1
290
     0
176
     1
 90
       50
176
     1
 90
       50
176
     1
 90
       50
176
     1
290
     0
176
     1
 90
       50
176
     1
 62
   256
176
     0
 40
1.0
176
     0
 90
        2
176
     1
  1
strokes_ogs.tif
176
     1
290
     0
176
     1
 40
1.0
176
     1
 40
1.0
176
     1
  0
VISUALSTYLE
  5
40
102
{ACAD_REACTORS
330
29
102
}
330
29
100
AcDbVisualStyle
  2
OverhangOff
 70
    21
177
     3
291
     1
 70
    58
 90
        2
176
     0
 90
        2
176
     0
 90
        0
176
     0
 90
        0
176
     0
 40
0.6
176
     0
 40
30.0
176
     0
 62
     7
420
 16777215
176
     0
 90
        1
176
     0
 90
        4
176
     0
 62
     7
176
     0
 62
   257
176
     0
 90
        1
176
     0
 90
        1
176
     0
 40
1.0
176
     0
 90
        9
176
     2
 62
     7
176
     0
 40
1.0
176
     0
 90
        1
176
     0
 90
        6
176
     0
 90
        2
176
     0
 62
     7
176
     0
 90
        5
176
     0
 90
        0
176
     0
 90
        0
176
     0
290
     0
176
     0
 90
        1
176
     0
 40
0.0
176
     0
 90
        0
176
     0
290
     0
176
     0
290
     1
176
     0
290
     1
176
     0
290
     0
176
     0
290
     0
176
     0
290
     0
176
     0
290
     0
176
     0
290
     0
176
     0
290
     0
176
     0
 90
       50
176
     0
 40
0.0
176
     0
 40
1.0
176
     0
 90
        0
176
     0
 62
    18
420
        0
176
     0
 90
       50
176
     0
 90
        3
176
     0
 62
     5
420
      255
176
     0
290
     0
176
     0
 90
       50
176
     0
 90
       50
176
     0
 90
       50
176
     0
290
     0
176
     0
 90
       50
176
     0
 62
   256
176
     0
 40
1.0
176
     0
 90
        2
176
     0
  1
strokes_ogs.tif
176
     0
290
     0
176
     0
 40
1.0
176
     0
 40
1.0
176
     0
  0
VISUALSTYLE
  5
33
102
{ACAD_REACTORS
330
29
102
}
330
29
100
AcDbVisualStyle
  2
Realistic
 70
     8
177
     3
291
     0
 70
    58
 90
        2
176
     1
 90
        3
176
     1
 90
        0
176
     1
 90
        2
176
     1
 40
0.6
176
     1
 40
30.0
176
     1
 62
     7
420
 16777215
176
     1
 90
        0
176
     1
 90
        0
176
     1
 62
     7
176
     1
 62
   257
176
     1
 90
        1
176
     1
 90
        1
176
     1
 40
1.0
176
     1
 90
        8
176
     1
 62
   257
176
     1
 40
1.0
176
     1
 90
        1
176
     1
 90
        6
176
     1
 90
        2
176
     1
 62
     7
176
     1
 90
        3
176
     1
 90
        0
176
     1
 90
        0
176
     1
290
     0
176
     1
 90
       13
176
     1
 40
0.0
176
     1
 90
        0
176
     1
290
     0
176
     1
290
     1
176
     1
290
     1
176
     1
290
     0
176
     1
290
     0
176
     1
290
     0
176
     1
290
     0
176
     1
290
     0
176
     1
290
     0
176
     1
 90
       50
176
     1
 40
0.0
176
     1
 40
1.0
176
     1
 90
        0
176
     1
 62
    18
420
        0
176
     1
 90
       50
176
     1
 90
        3
176
     1
 62
     5
420
      255
176
     1
290
     0
176
     1
 90
       50
176
     1
 90
       50
176
     1
 90
       50
176
     1
290
     0
176
     1
 90
       50
176
     1
 62
   256
176
     0
 40
1.0
176
     0
 90
        2
176
     1
  1
strokes_ogs.tif
176
     1
290
     0
176
     1
 40
1.0
176
     1
 40
1.0
176
     1
  0
VISUALSTYLE
  5
3E
102
{ACAD_REACTORS
330
29
102
}
330
29
100
AcDbVisualStyle
  2
Shaded
 70
    27
177
     3
291
     0
 70
    58
 90
        2
176
     1
 90
        2
176
     1
 90
        1
176
     1
 90
        2
176
     1
 40
0.6
176
     1
 40
30.0
176
     1
 62
     7
420
 16777215
176
     1
 90
        0
176
     1
 90
        4
176
     1
 62
     7
176
     1
 62
   257
176
     1
 90
        1
176
     1
 90
        1
176
     1
 40
1.0
176
     1
 90
        8
176
     1
 62
   257
176
     1
 40
1.0
176
     1
 90
        1
176
     1
 90
        6
176
     1
 90
        2
176
     1
 62
     8
420
  7895160
176
     1
 90
        3
176
     1
 90
        0
176
     1
 90
        0
176
     1
290
     0
176
     1
 90
        5
176
     1
 40
0.0
176
     1
 90
        0
176
     1
290
     0
176
     1
290
     1
176
     1
290
     1
176
     1
290
     0
176
     1
290
     0
176
     1
290
     0
176
     1
290
     0
176
     1
290
     0
176
     1
290
     0
176
     1
 90
       50
176
     1
 40
0.0
176
     1
 40
1.0
176
     1
 90
        0
176
     1
 62
    18
420
        0
176
     1
 90
       50
176
     1
 90
        3
176
     1
 62
     5
420
      255
176
     1
290
     0
176
     1
 90
       50
176
     1
 90
       50
176
     1
 90
       50
176
     1
290
     0
176
     1
 90
       50
176
     1
 62
   256
176
     0
 40
1.0
176
     0
 90
        2
176
     1
  1
strokes_ogs.tif
176
     1
290
     0
176
     1
 40
1.0
176
     1
 40
1.0
176
     1
  0
VISUALSTYLE
  5
3D
102
{ACAD_REACTORS
330
29
102
}
330
29
100
AcDbVisualStyle
  2
Shaded with edges
 70
    26
177
     3
291
     0
 70
    58
 90
        2
176
     1
 90
        2
176
     1
 90
        1
176
     1
 90
        2
176
     1
 40
0.6
176
     1
 40
30.0
176
     1
 62
     7
420
 16777215
176
     1
 90
        1
176
     1
 90
       10
176
     1
 62
     7
176
     1
 62
   257
176
     1
 90
        2
176
     1
 90
        1
176
     1
 40
1.0
176
     1
 90
        8
176
     1
 62
   257
176
     1
 40
1.0
176
     1
 90
        1
176
     1
 90
        6
176
     1
 90
        2
176
     1
 62
     7
176
     1
 90
        3
176
     1
 90
        0
176
     1
 90
        0
176
     1
290
     0
176
     1
 90
        5
176
     1
 40
0.0
176
     1
 90
        0
176
     1
290
     0
176
     1
290
     1
176
     1
290
     1
176
     1
290
     0
176
     1
290
     0
176
     1
290
     0
176
     1
290
     0
176
     1
290
     0
176
     1
290
     0
176
     1
 90
       50
176
     1
 40
0.0
176
     1
 40
1.0
176
     1
 90
        0
176
     1
 62
    18
420
        0
176
     1
 90
       50
176
     1
 90
        3
176
     1
 62
     5
420
      255
176
     1
290
     0
176
     1
 90
       50
176
     1
 90
       50
176
     1
 90
       50
176
     1
290
     0
176
     1
 90
       50
176
     1
 62
   256
176
     0
 40
1.0
176
     0
 90
        2
176
     1
  1
strokes_ogs.tif
176
     1
290
     0
176
     1
 40
1.0
176
     1
 40
1.0
176
     1
  0
VISUALSTYLE
  5
3A
102
{ACAD_REACTORS
330
29
102
}
330
29
100
AcDbVisualStyle
  2
Shades of Gray
 70
    23
177
     3
291
     0
 70
    58
 90
        2
176
     1
 90
        2
176
     1
 90
        3
176
     1
 90
        0
176
     1
 40
0.6
176
     1
 40
30.0
176
     1
 62
     7
420
 16777215
176
     1
 90
        2
176
     1
 90
        2
176
     1
 62
     7
176
     1
 62
     7
176
     1
 90
        1
176
     1
 90
        1
176
     1
 40
40.0
176
     1
 90
        8
176
     1
 62
     7
176
     1
 40
1.0
176
     1
 90
        1
176
     1
 90
        6
176
     1
 90
        2
176
     1
 62
     7
176
     1
 90
        3
176
     1
 90
        0
176
     1
 90
        0
176
     1
290
     0
176
     1
 90
        1
176
     1
 40
0.0
176
     1
 90
        0
176
     1
290
     0
176
     1
290
     1
176
     1
290
     1
176
     1
290
     0
176
     1
290
     0
176
     1
290
     0
176
     1
290
     0
176
     1
290
     0
176
     1
290
     0
176
     1
 90
       50
176
     1
 40
0.0
176
     1
 40
1.0
176
     1
 90
        0
176
     1
 62
    18
420
        0
176
     1
 90
       50
176
     1
 90
        3
176
     1
 62
     5
420
      255
176
     1
290
     0
176
     1
 90
       50
176
     1
 90
       50
176
     1
 90
       50
176
     1
290
     0
176
     1
 90
       50
176
     1
 62
   256
176
     0
 40
1.0
176
     0
 90
        2
176
     1
  1
strokes_ogs.tif
176
     1
290
     0
176
     1
 40
1.0
176
     1
 40
1.0
176
     1
  0
VISUALSTYLE
  5
3B
102
{ACAD_REACTORS
330
29
102
}
330
29
100
AcDbVisualStyle
  2
Sketchy
 70
    24
177
     3
291
     0
 70
    58
 90
        1
176
     1
 90
        2
176
     1
 90
        2
176
     1
 90
        0
176
     1
 40
0.6
176
     1
 40
30.0
176
     1
 62
     7
420
 16777215
176
     1
 90
        2
176
     1
 90
        2
176
     1
 62
     7
176
     1
 62
     7
176
     1
 90
        1
176
     1
 90
        1
176
     1
 40
40.0
176
     1
 90
       11
176
     1
 62
     7
176
     1
 40
1.0
176
     1
 90
        1
176
     1
 90
        6
176
     1
 90
        2
176
     1
 62
     7
176
     1
 90
        6
176
     1
 90
        0
176
     1
 90
        0
176
     1
290
     0
176
     1
 90
        1
176
     1
 40
0.0
176
     1
 90
        0
176
     1
290
     0
176
     1
290
     1
176
     1
290
     1
176
     1
290
     0
176
     1
290
     0
176
     1
290
     0
176
     1
290
     0
176
     1
290
     0
176
     1
290
     0
176
     1
 90
       50
176
     1
 40
0.0
176
     1
 40
1.0
176
     1
 90
        0
176
     1
 62
    18
420
        0
176
     1
 90
       50
176
     1
 90
        3
176
     1
 62
     5
420
      255
176
     1
290
     0
176
     1
 90
       50
176
     1
 90
       50
176
     1
 90
       50
176
     1
290
     0
176
     1
 90
       50
176
     1
 62
   256
176
     0
 40
1.0
176
     0
 90
        2
176
     1
  1
strokes_ogs.tif
176
     1
290
     0
176
     1
 40
1.0
176
     1
 40
1.0
176
     1
  0
VISUALSTYLE
  5
36
102
{ACAD_REACTORS
330
29
102
}
330
29
100
AcDbVisualStyle
  2
Thicken
 70
    13
177
     3
291
     1
 70
    58
 90
        2
176
     1
 90
        2
176
     1
 90
        0
176
     1
 90
        0
176
     1
 40
0.6
176
     1
 40
30.0
176
     1
 62
     7
420
 16777215
176
     1
 90
        1
176
     1
 90
        4
176
     1
 62
     7
176
     1
 62
   257
176
     1
 90
        1
176
     1
 90
        1
176
     1
 40
1.0
176
     1
 90
       12
176
     1
 62
     7
176
     1
 40
1.0
176
     1
 90
        1
176
     1
 90
        6
176
     1
 90
        2
176
     1
 62
     7
176
     1
 90
        5
176
     1
 90
        0
176
     1
 90
        0
176
     1
290
     0
176
     1
 90
        1
176
     1
 40
0.0
176
     1
 90
        0
176
     1
290
     0
176
     1
290
     1
176
     1
290
     1
176
     1
290
     0
176
     1
290
     0
176
     1
290
     0
176
     1
290
     0
176
     1
290
     0
176
     1
290
     0
176
     1
 90
       50
176
     1
 40
0.0
176
     1
 40
1.0
176
     1
 90
        0
176
     1
 62
    18
420
        0
176
     1
 90
       50
176
     1
 90
        3
176
     1
 62
     5
420
      255
176
     1
290
     0
176
     1
 90
       50
176
     1
 90
       50
176
     1
 90
       50
176
     1
290
     0
176
     1
 90
       50
176
     1
 62
   256
176
     0
 40
1.0
176
     0
 90
        2
176
     1
  1
strokes_ogs.tif
176
     1
290
     0
176
     1
 40
1.0
176
     1
 40
1.0
176
     1
  0
VISUALSTYLE
  5
30
102
{ACAD_REACTORS
330
29
102
}
330
29
100
AcDbVisualStyle
  2
Wireframe
 70
     5
177
     3
291
     0
 70
    58
 90
        0
176
     1
 90
        2
176
     1
 90
        0
176
     1
 90
        0
176
     1
 40
0.6
176
     1
 40
30.0
176
     1
 62
     7
420
 16777215
176
     1
 90
        1
176
     1
 90
        4
176
     1
 62
     7
176
     1
 62
   257
176
     1
 90
        1
176
     1
 90
        1
176
     1
 40
1.0
176
     1
 90
        0
176
     1
 62
   257
176
     1
 40
1.0
176
     1
 90
        1
176
     1
 90
        6
176
     1
 90
        2
176
     1
 62
     7
176
     1
 90
        3
176
     1
 90
        0
176
     1
 90
        0
176
     1
290
     0
176
     1
 90
        1
176
     1
 40
0.0
176
     1
 90
        0
176
     1
290
     0
176
     1
290
     1
176
     1
290
     1
176
     1
290
     0
176
     1
290
     0
176
     1
290
     0
176
     1
290
     0
176
     1
290
     0
176
     1
290
     0
176
     1
 90
       50
176
     1
 40
0.0
176
     1
 40
1.0
176
     1
 90
        0
176
     1
 62
    18
420
        0
176
     1
 90
       50
176
     1
 90
        3
176
     1
 62
     5
420
      255
176
     1
290
     0
176
     1
 90
       50
176
     1
 90
       50
176
     1
 90
       50
176
     1
290
     0
176
     1
 90
       50
176
     1
 62
   256
176
     0
 40
1.0
176
     0
 90
        2
176
     1
  1
strokes_ogs.tif
176
     1
290
     0
176
     1
 40
1.0
176
     1
 40
1.0
176
     1
  0
VISUALSTYLE
  5
3C
102
{ACAD_REACTORS
330
29
102
}
330
29
100
AcDbVisualStyle
  2
X-Ray
 70
    25
177
     3
291
     0
 70
    58
 90
        2
176
     1
 90
        2
176
     1
 90
        1
176
     1
 90
        1
176
     1
 40
0.5
176
     1
 40
30.0
176
     1
 62
     7
420
 16777215
176
     1
 90
        1
176
     1
 90
        0
176
     1
 62
     7
176
     1
 62
   257
176
     1
 90
        1
176
     1
 90
        1
176
     1
 40
1.0
176
     1
 90
        8
176
     1
 62
     7
176
     1
 40
1.0
176
     1
 90
        1
176
     1
 90
        6
176
     1
 90
        2
176
     1
 62
     7
176
     1
 90
        3
176
     1
 90
        0
176
     1
 90
        0
176
     1
290
     0
176
     1
 90
       13
176
     1
 40
0.0
176
     1
 90
        0
176
     1
290
     0
176
     1
290
     1
176
     1
290
     1
176
     1
290
     0
176
     1
290
     0
176
     1
290
     0
176
     1
290
     0
176
     1
290
     0
176
     1
290
     0
176
     1
 90
       50
176
     1
 40
0.0
176
     1
 40
1.0
176
     1
 90
        0
176
     1
 62
    18
420
        0
176
     1
 90
       50
176
     1
 90
        3
176
     1
 62
     5
420
      255
176
     1
290
     0
176
     1
 90
       50
176
     1
 90
       50
176
     1
 90
       50
176
     1
290
     0
176
     1
 90
       50
176
     1
 62
   256
176
     0
 40
1.0
176
     0
 90
        2
176
     1
  1
strokes_ogs.tif
176
     1
290
     0
176
     1
 40
1.0
176
     1
 40
1.0
176
     1
  0
DICTIONARYVAR
  5
81
102
{ACAD_REACTORS
330
7C
102
}
330
7C
100
DictionaryVariables
280
     0
  1
1:1
  0
DICTIONARYVAR
  5
7E
102
{ACAD_REACTORS
330
7C
102
}
330
7C
100
DictionaryVariables
280
     0
  1
STANDARD
  0
DICTIONARYVAR
  5
7D
102
{ACAD_REACTORS
330
7C
102
}
330
7C
100
DictionaryVariables
280
     0
  1
STANDARD
  0
DICTIONARYVAR
  5
7F
102
{ACAD_REACTORS
330
7C
102
}
330
7C
100
DictionaryVariables
280
     0
  1
Imperial24
  0
DICTIONARYVAR
  5
80
102
{ACAD_REACTORS
330
7C
102
}
330
7C
100
DictionaryVariables
280
     0
  1
Imperial24
  0
XRECORD
  5
214
102
{ACAD_REACTORS
330
211
102
}
330
211
100
AcDbXrecord
280
     1
  1
BUILDING_ID
  1
Progetto per test valvole
  1
FLOOR_ID
  1
694395
  0
XRECORD
  5
213
102
{ACAD_REACTORS
330
211
102
}
330
211
100
AcDbXrecord
280
     1
  1
-2001160
  1
Apparecchi idraulici
  0
XRECORD
  5
212
102
{ACAD_REACTORS
330
211
102
}
330
211
100
AcDbXrecord
280
     1
  1
859151
  1
Automatic flow rate regulator valve_Caleffi_121 DN15 : 1/2''
  0
DICTIONARY
  5
1A
330
19
100
AcDbDictionary
280
     1
281
     1
  3
BUMPTILE
360
1C
  3
DIFFUSETILE
360
1B
  3
OPACITYTILE
360
1F
  3
REFLECTIONTILE
360
1E
  3
REFRACTIONTILE
360
20
  3
SPECULARTILE
360
1D
  0
DICTIONARY
  5
12
330
11
100
AcDbDictionary
280
     1
281
     1
  3
BUMPTILE
360
14
  3
DIFFUSETILE
360
13
  3
OPACITYTILE
360
17
  3
REFLECTIONTILE
360
16
  3
REFRACTIONTILE
360
18
  3
SPECULARTILE
360
15
  0
DICTIONARY
  5
22
330
21
100
AcDbDictionary
280
     1
281
     1
  3
BUMPTILE
360
24
  3
DIFFUSETILE
360
23
  3
OPACITYTILE
360
27
  3
REFLECTIONTILE
360
26
  3
REFRACTIONTILE
360
28
  3
SPECULARTILE
360
25
  0
DICTIONARY
  5
217
330
65
100
AcDbDictionary
280
     1
281
     1
  3
ACAD_ROUNDTRIP_2008_TABLESTYLE_CELLSTYLEMAP
360
218
  0
XRECORD
  5
1C
102
{ACAD_REACTORS
330
1A
102
}
330
1A
100
AcDbXrecord
280
     1
270
     1
271
     1
  0
XRECORD
  5
1B
102
{ACAD_REACTORS
330
1A
102
}
330
1A
100
AcDbXrecord
280
     1
270
     1
271
     1
  0
XRECORD
  5
1F
102
{ACAD_REACTORS
330
1A
102
}
330
1A
100
AcDbXrecord
280
     1
270
     1
271
     1
  0
XRECORD
  5
1E
102
{ACAD_REACTORS
330
1A
102
}
330
1A
100
AcDbXrecord
280
     1
270
     1
271
     1
  0
XRECORD
  5
20
102
{ACAD_REACTORS
330
1A
102
}
330
1A
100
AcDbXrecord
280
     1
270
     1
271
     1
  0
XRECORD
  5
1D
102
{ACAD_REACTORS
330
1A
102
}
330
1A
100
AcDbXrecord
280
     1
270
     1
271
     1
  0
XRECORD
  5
14
102
{ACAD_REACTORS
330
12
102
}
330
12
100
AcDbXrecord
280
     1
270
     1
271
     1
  0
XRECORD
  5
13
102
{ACAD_REACTORS
330
12
102
}
330
12
100
AcDbXrecord
280
     1
270
     1
271
     1
  0
XRECORD
  5
17
102
{ACAD_REACTORS
330
12
102
}
330
12
100
AcDbXrecord
280
     1
270
     1
271
     1
  0
XRECORD
  5
16
102
{ACAD_REACTORS
330
12
102
}
330
12
100
AcDbXrecord
280
     1
270
     1
271
     1
  0
XRECORD
  5
18
102
{ACAD_REACTORS
330
12
102
}
330
12
100
AcDbXrecord
280
     1
270
     1
271
     1
  0
XRECORD
  5
15
102
{ACAD_REACTORS
330
12
102
}
330
12
100
AcDbXrecord
280
     1
270
     1
271
     1
  0
XRECORD
  5
24
102
{ACAD_REACTORS
330
22
102
}
330
22
100
AcDbXrecord
280
     1
270
     1
271
     1
  0
XRECORD
  5
23
102
{ACAD_REACTORS
330
22
102
}
330
22
100
AcDbXrecord
280
     1
270
     1
271
     1
  0
XRECORD
  5
27
102
{ACAD_REACTORS
330
22
102
}
330
22
100
AcDbXrecord
280
     1
270
     1
271
     1
  0
XRECORD
  5
26
102
{ACAD_REACTORS
330
22
102
}
330
22
100
AcDbXrecord
280
     1
270
     1
271
     1
  0
XRECORD
  5
28
102
{ACAD_REACTORS
330
22
102
}
330
22
100
AcDbXrecord
280
     1
270
     1
271
     1
  0
XRECORD
  5
25
102
{ACAD_REACTORS
330
22
102
}
330
22
100
AcDbXrecord
280
     1
270
     1
271
     1
  0
CELLSTYLEMAP
  5
218
102
{ACAD_REACTORS
330
217
102
}
330
217
100
AcDbCellStyleMap
 90
        3
300
CELLSTYLE
  1
TABLEFORMAT_BEGIN
 90
        5
170
     1
 91
        0
 92
    32768
 62
   257
 93
        1
300
CONTENTFORMAT
  1
CONTENTFORMAT_BEGIN
 90
        0
 91
        0
 92
      512
 93
        0
300

 40
0.0
140
1.0
 94
        5
 62
     0
340
55
144
0.25
309
CONTENTFORMAT_END
171
     0
 94
        0
309
TABLEFORMAT_END
  1
CELLSTYLE_BEGIN
 90
        1
 91
        1
300
_TITLE
309
CELLSTYLE_END
300
CELLSTYLE
  1
TABLEFORMAT_BEGIN
 90
        5
170
     1
 91
        0
 92
        0
 62
   257
 93
        1
300
CONTENTFORMAT
  1
CONTENTFORMAT_BEGIN
 90
        0
 91
        0
 92
      512
 93
        0
300

 40
0.0
140
1.0
 94
        5
 62
     0
340
55
144
0.18
309
CONTENTFORMAT_END
171
     0
 94
        0
309
TABLEFORMAT_END
  1
CELLSTYLE_BEGIN
 90
        2
 91
        1
300
_HEADER
309
CELLSTYLE_END
300
CELLSTYLE
  1
TABLEFORMAT_BEGIN
 90
        5
170
     1
 91
        0
 92
        0
 62
   257
 93
        1
300
CONTENTFORMAT
  1
CONTENTFORMAT_BEGIN
 90
        0
 91
        0
 92
      512
 93
        0
300

 40
0.0
140
1.0
 94
        2
 62
     0
340
55
144
0.18
309
CONTENTFORMAT_END
171
     0
 94
        0
309
TABLEFORMAT_END
  1
CELLSTYLE_BEGIN
 90
        3
 91
        2
300
_DATA
309
CELLSTYLE_END
  0
ENDSEC
  0
EOF
